  0
SECTION
  2
HEADER
  9
$ACADVER
  1
AC1021
  9
$ACADMAINTVER
 70
    25
  9
$DWGCODEPAGE
  3
ANSI_1252
  9
$LASTSAVEDBY
  1
venedis
  9
$INSBASE
 10
0.0
 20
0.0
 30
0.0
  9
$EXTMIN
 10
-349.4999989986459
 20
0.0
 30
0.0
  9
$EXTMAX
 10
299.5
 20
552.9999999999852
 30
859.9999999999933
  9
$LIMMIN
 10
0.0
 20
0.0
  9
$LIMMAX
 10
12.0
 20
9.0
  9
$ORTHOMODE
 70
     0
  9
$REGENMODE
 70
     1
  9
$FILLMODE
 70
     1
  9
$QTEXTMODE
 70
     0
  9
$MIRRTEXT
 70
     1
  9
$LTSCALE
 40
1.0
  9
$ATTMODE
 70
     1
  9
$TEXTSIZE
 40
0.2
  9
$TRACEWID
 40
0.05
  9
$TEXTSTYLE
  7
Standard
  9
$CLAYER
  8
FP_DD60D$Fisher _ Paykel-1
  9
$CELTYPE
  6
ByLayer
  9
$CECOLOR
 62
   256
  9
$CELTSCALE
 40
1.0
  9
$DISPSILH
 70
     0
  9
$DIMSCALE
 40
1.0
  9
$DIMASZ
 40
0.18
  9
$DIMEXO
 40
0.0625
  9
$DIMDLI
 40
0.38
  9
$DIMRND
 40
0.0
  9
$DIMDLE
 40
0.0
  9
$DIMEXE
 40
0.18
  9
$DIMTP
 40
0.0
  9
$DIMTM
 40
0.0
  9
$DIMTXT
 40
0.18
  9
$DIMCEN
 40
0.09
  9
$DIMTSZ
 40
0.0
  9
$DIMTOL
 70
     0
  9
$DIMLIM
 70
     0
  9
$DIMTIH
 70
     1
  9
$DIMTOH
 70
     1
  9
$DIMSE1
 70
     0
  9
$DIMSE2
 70
     0
  9
$DIMTAD
 70
     0
  9
$DIMZIN
 70
     0
  9
$DIMBLK
  1

  9
$DIMASO
 70
     1
  9
$DIMSHO
 70
     1
  9
$DIMPOST
  1

  9
$DIMAPOST
  1

  9
$DIMALT
 70
     0
  9
$DIMALTD
 70
     2
  9
$DIMALTF
 40
25.4
  9
$DIMLFAC
 40
1.0
  9
$DIMTOFL
 70
     0
  9
$DIMTVP
 40
0.0
  9
$DIMTIX
 70
     0
  9
$DIMSOXD
 70
     0
  9
$DIMSAH
 70
     0
  9
$DIMBLK1
  1

  9
$DIMBLK2
  1

  9
$DIMSTYLE
  2
STANDARD_ACAD
  9
$DIMCLRD
 70
     0
  9
$DIMCLRE
 70
     0
  9
$DIMCLRT
 70
     0
  9
$DIMTFAC
 40
1.0
  9
$DIMGAP
 40
0.09
  9
$DIMJUST
 70
     0
  9
$DIMSD1
 70
     0
  9
$DIMSD2
 70
     0
  9
$DIMTOLJ
 70
     1
  9
$DIMTZIN
 70
     0
  9
$DIMALTZ
 70
     0
  9
$DIMALTTZ
 70
     0
  9
$DIMUPT
 70
     0
  9
$DIMDEC
 70
     4
  9
$DIMTDEC
 70
     4
  9
$DIMALTU
 70
     2
  9
$DIMALTTD
 70
     2
  9
$DIMTXSTY
  7
Standard
  9
$DIMAUNIT
 70
     0
  9
$DIMADEC
 70
     0
  9
$DIMALTRND
 40
0.0
  9
$DIMAZIN
 70
     0
  9
$DIMDSEP
 70
    46
  9
$DIMATFIT
 70
     3
  9
$DIMFRAC
 70
     0
  9
$DIMLDRBLK
  1

  9
$DIMLUNIT
 70
     2
  9
$DIMLWD
 70
    -2
  9
$DIMLWE
 70
    -2
  9
$DIMTMOVE
 70
     2
  9
$DIMFXL
 40
1.0
  9
$DIMFXLON
 70
     0
  9
$DIMJOGANG
 40
0.7853981633974483
  9
$DIMTFILL
 70
     0
  9
$DIMTFILLCLR
 70
     0
  9
$DIMARCSYM
 70
     0
  9
$DIMLTYPE
  6

  9
$DIMLTEX1
  6

  9
$DIMLTEX2
  6

  9
$LUNITS
 70
     2
  9
$LUPREC
 70
     3
  9
$SKETCHINC
 40
0.1
  9
$FILLETRAD
 40
0.0
  9
$AUNITS
 70
     0
  9
$AUPREC
 70
     0
  9
$MENU
  1
.
  9
$ELEVATION
 40
0.0
  9
$PELEVATION
 40
0.0
  9
$THICKNESS
 40
0.0
  9
$LIMCHECK
 70
     0
  9
$CHAMFERA
 40
0.0
  9
$CHAMFERB
 40
0.0
  9
$CHAMFERC
 40
0.0
  9
$CHAMFERD
 40
0.0
  9
$SKPOLY
 70
     0
  9
$TDCREATE
 40
2460222.871744989
  9
$TDUCREATE
 40
2460222.330078322
  9
$TDUPDATE
 40
2460222.871760984
  9
$TDUUPDATE
 40
2460222.330094317
  9
$TDINDWG
 40
0.0000000116
  9
$TDUSRTIMER
 40
0.0000000116
  9
$USRTIMER
 70
     1
  9
$ANGBASE
 50
0.0
  9
$ANGDIR
 70
     0
  9
$PDMODE
 70
     0
  9
$PDSIZE
 40
0.0
  9
$PLINEWID
 40
0.0
  9
$SPLFRAME
 70
     0
  9
$SPLINETYPE
 70
     6
  9
$SPLINESEGS
 70
     8
  9
$HANDSEED
  5
34C
  9
$SURFTAB1
 70
     6
  9
$SURFTAB2
 70
     6
  9
$SURFTYPE
 70
     6
  9
$SURFU
 70
     6
  9
$SURFV
 70
     6
  9
$UCSBASE
  2

  9
$UCSNAME
  2

  9
$UCSORG
 10
0.0
 20
0.0
 30
0.0
  9
$UCSXDIR
 10
1.0
 20
0.0
 30
0.0
  9
$UCSYDIR
 10
0.0
 20
1.0
 30
0.0
  9
$UCSORTHOREF
  2

  9
$UCSORTHOVIEW
 70
     0
  9
$UCSORGTOP
 10
0.0
 20
0.0
 30
0.0
  9
$UCSORGBOTTOM
 10
0.0
 20
0.0
 30
0.0
  9
$UCSORGLEFT
 10
0.0
 20
0.0
 30
0.0
  9
$UCSORGRIGHT
 10
0.0
 20
0.0
 30
0.0
  9
$UCSORGFRONT
 10
0.0
 20
0.0
 30
0.0
  9
$UCSORGBACK
 10
0.0
 20
0.0
 30
0.0
  9
$PUCSBASE
  2

  9
$PUCSNAME
  2

  9
$PUCSORG
 10
0.0
 20
0.0
 30
0.0
  9
$PUCSXDIR
 10
1.0
 20
0.0
 30
0.0
  9
$PUCSYDIR
 10
0.0
 20
1.0
 30
0.0
  9
$PUCSORTHOREF
  2

  9
$PUCSORTHOVIEW
 70
     0
  9
$PUCSORGTOP
 10
0.0
 20
0.0
 30
0.0
  9
$PUCSORGBOTTOM
 10
0.0
 20
0.0
 30
0.0
  9
$PUCSORGLEFT
 10
0.0
 20
0.0
 30
0.0
  9
$PUCSORGRIGHT
 10
0.0
 20
0.0
 30
0.0
  9
$PUCSORGFRONT
 10
0.0
 20
0.0
 30
0.0
  9
$PUCSORGBACK
 10
0.0
 20
0.0
 30
0.0
  9
$USERI1
 70
     0
  9
$USERI2
 70
     0
  9
$USERI3
 70
     0
  9
$USERI4
 70
     0
  9
$USERI5
 70
     0
  9
$USERR1
 40
0.0
  9
$USERR2
 40
0.0
  9
$USERR3
 40
0.0
  9
$USERR4
 40
0.0
  9
$USERR5
 40
0.0
  9
$WORLDVIEW
 70
     1
  9
$SHADEDGE
 70
     3
  9
$SHADEDIF
 70
    70
  9
$TILEMODE
 70
     1
  9
$MAXACTVP
 70
    64
  9
$PINSBASE
 10
0.0
 20
0.0
 30
0.0
  9
$PLIMCHECK
 70
     0
  9
$PEXTMIN
 10
1.000000000000000E+20
 20
1.000000000000000E+20
 30
1.000000000000000E+20
  9
$PEXTMAX
 10
-1.000000000000000E+20
 20
-1.000000000000000E+20
 30
-1.000000000000000E+20
  9
$PLIMMIN
 10
0.0
 20
0.0
  9
$PLIMMAX
 10
12.0
 20
9.0
  9
$UNITMODE
 70
     0
  9
$VISRETAIN
 70
     1
  9
$PLINEGEN
 70
     0
  9
$PSLTSCALE
 70
     1
  9
$TREEDEPTH
 70
  3020
  9
$CMLSTYLE
  2
Standard
  9
$CMLJUST
 70
     0
  9
$CMLSCALE
 40
1.0
  9
$PROXYGRAPHICS
 70
     1
  9
$MEASUREMENT
 70
     1
  9
$CELWEIGHT
370
    -1
  9
$ENDCAPS
280
     0
  9
$JOINSTYLE
280
     0
  9
$LWDISPLAY
290
     0
  9
$INSUNITS
 70
     4
  9
$HYPERLINKBASE
  1

  9
$STYLESHEET
  1

  9
$XEDIT
290
     1
  9
$CEPSNTYPE
380
     0
  9
$PSTYLEMODE
290
     1
  9
$FINGERPRINTGUID
  2
{d8366de7-a08f-4b40-9877-910b1ee65486}
  9
$VERSIONGUID
  2
{FAEB1C32-E019-11D5-929B-00C0DF256EC4}
  9
$EXTNAMES
290
     1
  9
$PSVPSCALE
 40
0.0
  9
$OLESTARTUP
290
     0
  9
$SORTENTS
280
   127
  9
$INDEXCTL
280
     0
  9
$HIDETEXT
280
     1
  9
$XCLIPFRAME
290
     0
  9
$HALOGAP
280
     0
  9
$OBSCOLOR
 70
   257
  9
$OBSLTYPE
280
     0
  9
$INTERSECTIONDISPLAY
280
     0
  9
$INTERSECTIONCOLOR
 70
   257
  9
$DIMASSOC
280
     2
  9
$PROJECTNAME
  1

  9
$CAMERADISPLAY
290
     0
  9
$LENSLENGTH
 40
50.0
  9
$CAMERAHEIGHT
 40
0.0
  9
$STEPSPERSEC
 40
2.0
  9
$STEPSIZE
 40
6.0
  9
$3DDWFPREC
 40
2.0
  9
$PSOLWIDTH
 40
0.25
  9
$PSOLHEIGHT
 40
4.0
  9
$LOFTANG1
 40
1.570796326794897
  9
$LOFTANG2
 40
1.570796326794897
  9
$LOFTMAG1
 40
0.0
  9
$LOFTMAG2
 40
0.0
  9
$LOFTPARAM
 70
     7
  9
$LOFTNORMALS
280
     1
  9
$LATITUDE
 40
37.795
  9
$LONGITUDE
 40
-122.394
  9
$NORTHDIRECTION
 40
0.0
  9
$TIMEZONE
 70
 -8000
  9
$LIGHTGLYPHDISPLAY
280
     1
  9
$TILEMODELIGHTSYNCH
280
     1
  9
$CMATERIAL
347
44
  9
$SOLIDHIST
280
     0
  9
$SHOWHIST
280
     1
  9
$DWFFRAME
280
     2
  9
$DGNFRAME
280
     2
  9
$REALWORLDSCALE
290
     1
  9
$INTERFERECOLOR
 62
   256
  9
$CSHADOW
280
     0
  9
$SHADOWPLANELOCATION
 40
0.0
  0
ENDSEC
  0
SECTION
  2
CLASSES
  0
CLASS
  1
ACDBDICTIONARYWDFLT
  2
AcDbDictionaryWithDefault
  3
ObjectDBX Classes
 90
        0
 91
        3
280
     0
281
     0
  0
CLASS
  1
VISUALSTYLE
  2
AcDbVisualStyle
  3
ObjectDBX Classes
 90
     4095
 91
        3
280
     0
281
     0
  0
CLASS
  1
MATERIAL
  2
AcDbMaterial
  3
ObjectDBX Classes
 90
     1153
 91
        3
280
     0
281
     0
  0
CLASS
  1
SCALE
  2
AcDbScale
  3
ObjectDBX Classes
 90
     1153
 91
        3
280
     0
281
     0
  0
CLASS
  1
TABLESTYLE
  2
AcDbTableStyle
  3
ObjectDBX Classes
 90
     4095
 91
        3
280
     0
281
     0
  0
CLASS
  1
MLEADERSTYLE
  2
AcDbMLeaderStyle
  3
ACDB_MLEADERSTYLE_CLASS
 90
     4095
 91
        3
280
     0
281
     0
  0
CLASS
  1
SUN
  2
AcDbSun
  3
SCENEOE
 90
     1153
 91
        3
280
     0
281
     0
  0
CLASS
  1
DICTIONARYVAR
  2
AcDbDictionaryVar
  3
ObjectDBX Classes
 90
        0
 91
        3
280
     0
281
     0
  0
CLASS
  1
CELLSTYLEMAP
  2
AcDbCellStyleMap
  3
ObjectDBX Classes
 90
     1152
 91
        3
280
     0
281
     0
  0
ENDSEC
  0
SECTION
  2
TABLES
  0
TABLE
  2
VPORT
  5
8
330
0
100
AcDbSymbolTable
 70
     1
  0
VPORT
  5
29
330
8
100
AcDbSymbolTableRecord
100
AcDbViewportTableRecord
  2
*Active
 70
     0
 10
0.0
 20
0.0
 11
1.0
 21
1.0
 12
10.42990654205607
 22
4.5
 13
0.0
 23
0.0
 14
0.5
 24
0.5
 15
0.5
 25
0.5
 16
0.0
 26
0.0
 36
1.0
 17
0.0
 27
0.0
 37
0.0
 40
9.0
 41
1.972972972850329
 42
50.0
 43
0.0
 44
0.0
 50
0.0
 51
0.0
 71
     0
 72
   100
 73
     1
 74
     3
 75
     0
 76
     0
 77
     0
 78
     0
281
     0
 65
     1
110
0.0
120
0.0
130
0.0
111
1.0
121
0.0
131
0.0
112
0.0
122
1.0
132
0.0
 79
     0
146
0.0
348
2F
 60
     3
 61
     5
292
     1
282
     1
141
0.0
142
0.0
 63
   250
361
5D
  0
ENDTAB
  0
TABLE
  2
LTYPE
  5
5
330
0
100
AcDbSymbolTable
 70
     1
  0
LTYPE
  5
14
330
5
100
AcDbSymbolTableRecord
100
AcDbLinetypeTableRecord
  2
ByBlock
 70
     0
  3

 72
    65
 73
     0
 40
0.0
  0
LTYPE
  5
15
330
5
100
AcDbSymbolTableRecord
100
AcDbLinetypeTableRecord
  2
ByLayer
 70
     0
  3

 72
    65
 73
     0
 40
0.0
  0
LTYPE
  5
16
330
5
100
AcDbSymbolTableRecord
100
AcDbLinetypeTableRecord
  2
Continuous
 70
     0
  3
Solid line
 72
    65
 73
     0
 40
0.0
  0
ENDTAB
  0
TABLE
  2
LAYER
  5
2
330
0
100
AcDbSymbolTable
 70
     4
  0
LAYER
  5
10
330
2
100
AcDbSymbolTableRecord
100
AcDbLayerTableRecord
  2
0
 70
     0
 62
     7
  6
Continuous
370
    -3
390
F
347
46
  0
LAYER
  5
5F
330
2
100
AcDbSymbolTableRecord
100
AcDbLayerTableRecord
  2
FP_DD60D$Fisher _ Paykel-1
 70
     0
 62
   253
420
 11711154
  6
Continuous
370
    40
390
F
347
46
  0
LAYER
  5
90
330
2
100
AcDbSymbolTableRecord
100
AcDbLayerTableRecord
  2
FP_DD60D$Fisher _ Paykel-2
 70
     0
 62
   253
420
 10066329
  6
Continuous
370
    40
390
F
347
46
  0
LAYER
  5
165
330
2
100
AcDbSymbolTableRecord
100
AcDbLayerTableRecord
  2
FP_DD60D$Fisher _ Paykel-3
 70
     0
 62
    18
420
        0
  6
Continuous
370
    40
390
F
347
46
  0
ENDTAB
  0
TABLE
  2
STYLE
  5
3
330
0
100
AcDbSymbolTable
 70
     1
  0
STYLE
  5
11
330
3
100
AcDbSymbolTableRecord
100
AcDbTextStyleTableRecord
  2
Standard
 70
     0
 40
0.0
 41
1.0
 50
0.0
 71
     0
 42
0.2
  3
txt
  4

  0
ENDTAB
  0
TABLE
  2
VIEW
  5
6
330
0
100
AcDbSymbolTable
 70
     0
  0
ENDTAB
  0
TABLE
  2
UCS
  5
7
330
0
100
AcDbSymbolTable
 70
     0
  0
ENDTAB
  0
TABLE
  2
APPID
  5
9
330
0
100
AcDbSymbolTable
 70
     3
  0
APPID
  5
12
330
9
100
AcDbSymbolTableRecord
100
AcDbRegAppTableRecord
  2
ACAD
 70
     0
  0
APPID
  5
5E
330
9
100
AcDbSymbolTableRecord
100
AcDbRegAppTableRecord
  2
Rhino
 70
     0
  0
APPID
  5
344
330
9
100
AcDbSymbolTableRecord
100
AcDbRegAppTableRecord
  2
ACAD_MLEADERVER
 70
     0
  0
ENDTAB
  0
TABLE
  2
DIMSTYLE
  5
A
330
0
100
AcDbSymbolTable
 70
     1
100
AcDbDimStyleTable
  0
DIMSTYLE
105
27
330
A
100
AcDbSymbolTableRecord
100
AcDbDimStyleTableRecord
  2
STANDARD_ACAD
 70
     0
178
     0
340
11
  0
ENDTAB
  0
TABLE
  2
BLOCK_RECORD
  5
1
330
0
100
AcDbSymbolTable
 70
     1
  0
BLOCK_RECORD
  5
1F
330
1
100
AcDbSymbolTableRecord
100
AcDbBlockTableRecord
  2
*Model_Space
340
22
 70
     0
280
     1
281
     0
  0
BLOCK_RECORD
  5
1B
330
1
100
AcDbSymbolTableRecord
100
AcDbBlockTableRecord
  2
*Paper_Space
340
1E
 70
     0
280
     1
281
     0
  0
BLOCK_RECORD
  5
23
330
1
100
AcDbSymbolTableRecord
100
AcDbBlockTableRecord
  2
*Paper_Space0
340
26
 70
     0
280
     1
281
     0
  0
ENDTAB
  0
ENDSEC
  0
SECTION
  2
BLOCKS
  0
BLOCK
  5
20
330
1F
100
AcDbEntity
  8
0
100
AcDbBlockBegin
  2
*Model_Space
 70
     0
 10
0.0
 20
0.0
 30
0.0
  3
*Model_Space
  1

  0
ENDBLK
  5
21
330
1F
100
AcDbEntity
  8
0
100
AcDbBlockEnd
  0
BLOCK
  5
1C
330
1B
100
AcDbEntity
 67
     1
  8
0
100
AcDbBlockBegin
  2
*Paper_Space
 70
     0
 10
0.0
 20
0.0
 30
0.0
  3
*Paper_Space
  1

  0
ENDBLK
  5
1D
330
1B
100
AcDbEntity
 67
     1
  8
0
100
AcDbBlockEnd
  0
BLOCK
  5
24
330
23
100
AcDbEntity
  8
0
100
AcDbBlockBegin
  2
*Paper_Space0
 70
     0
 10
0.0
 20
0.0
 30
0.0
  3
*Paper_Space0
  1

  0
ENDBLK
  5
25
330
23
100
AcDbEntity
  8
0
100
AcDbBlockEnd
  0
ENDSEC
  0
SECTION
  2
ENTITIES
  0
SPLINE
  5
60
330
1F
100
AcDbEntity
  8
FP_DD60D$Fisher _ Paykel-1
100
AcDbSpline
210
0.0
220
0.0
230
1.0
 70
    24
 71
     2
 72
     6
 73
     3
 74
     0
 42
0.0000000001
 43
0.0000000001
 40
-0.3452301574584896
 40
-0.3452301574584896
 40
-0.3452301574584896
 40
0.0
 40
0.0
 40
0.0
 10
299.5
 20
115.0000000000001
 30
133.5028227979452
 10
299.5
 20
62.5000002652407
 30
136.950400742248
 10
299.5
 20
10.00000053048134
 30
140.3979786865507
  0
SPLINE
  5
61
330
1F
100
AcDbEntity
  8
FP_DD60D$Fisher _ Paykel-1
100
AcDbSpline
210
0.0
220
0.0
230
1.0
 70
    24
 71
     2
 72
     6
 73
     3
 74
     0
 42
0.0000000001
 43
0.0000000001
 40
-1.965223097112859
 40
-1.965223097112859
 40
-1.965223097112859
 40
0.0
 40
0.0
 40
0.0
 10
299.5
 20
10.00000053048134
 30
140.3979786865507
 10
0.0000000000002842
 20
10.00000053048134
 30
140.3979786865507
 10
-299.4999999999994
 20
10.00000053048134
 30
140.3979786865507
  0
SPLINE
  5
62
330
1F
100
AcDbEntity
  8
FP_DD60D$Fisher _ Paykel-1
100
AcDbSpline
210
0.0
220
0.0
230
1.0
 70
    24
 71
     2
 72
     6
 73
     3
 74
     0
 42
0.0000000001
 43
0.0000000001
 40
-0.3452301574584896
 40
-0.3452301574584896
 40
-0.3452301574584896
 40
0.0
 40
0.0
 40
0.0
 10
-299.4999999999994
 20
10.00000053048134
 30
140.3979786865507
 10
-299.4999999999994
 20
62.5000002652407
 30
136.950400742248
 10
-299.4999999999994
 20
115.0000000000001
 30
133.5028227979452
  0
SPLINE
  5
63
330
1F
100
AcDbEntity
  8
FP_DD60D$Fisher _ Paykel-1
100
AcDbSpline
210
0.0
220
0.0
230
1.0
 70
    24
 71
     2
 72
     6
 73
     3
 74
     0
 42
0.0000000001
 43
0.0000000001
 40
-1.965223097112859
 40
-1.965223097112859
 40
-1.965223097112859
 40
0.0
 40
0.0
 40
0.0
 10
-299.4999999999994
 20
115.0000000000001
 30
133.5028227979452
 10
0.0000000000002842
 20
115.0000000000001
 30
133.5028227979452
 10
299.5
 20
115.0000000000001
 30
133.5028227979452
  0
SPLINE
  5
64
330
1F
100
AcDbEntity
  8
FP_DD60D$Fisher _ Paykel-1
100
AcDbSpline
210
0.0
220
0.0
230
1.0
 70
    24
 71
     2
 72
     6
 73
     3
 74
     0
 42
0.0000000001
 43
0.0000000001
 40
-0.2772402322767382
 40
-0.2772402322767382
 40
-0.2772402322767382
 40
0.0
 40
0.0
 40
0.0
 10
299.5
 20
115.0
 30
48.99999999999535
 10
299.5
 20
115.0
 30
91.25141139897028
 10
299.5
 20
115.0000000000001
 30
133.5028227979452
  0
SPLINE
  5
65
330
1F
100
AcDbEntity
  8
FP_DD60D$Fisher _ Paykel-1
100
AcDbSpline
210
0.0
220
0.0
230
1.0
 70
    24
 71
     2
 72
     6
 73
     3
 74
     0
 42
0.0000000001
 43
0.0000000001
 40
-0.2772402322767382
 40
-0.2772402322767382
 40
-0.2772402322767382
 40
0.0
 40
0.0
 40
0.0
 10
-299.4999999999994
 20
115.0000000000001
 30
133.5028227979452
 10
-299.4999999999994
 20
115.0
 30
91.25141139897028
 10
-299.4999999999994
 20
115.0
 30
48.99999999999535
  0
SPLINE
  5
66
330
1F
100
AcDbEntity
  8
FP_DD60D$Fisher _ Paykel-1
100
AcDbSpline
210
0.0
220
0.0
230
1.0
 70
    24
 71
     2
 72
     6
 73
     3
 74
     0
 42
0.0000000001
 43
0.0000000001
 40
-1.965223097112859
 40
-1.965223097112859
 40
-1.965223097112859
 40
0.0
 40
0.0
 40
0.0
 10
-299.4999999999994
 20
115.0
 30
48.99999999999535
 10
0.0000000000002842
 20
115.0
 30
48.99999999999535
 10
299.5
 20
115.0
 30
48.99999999999535
  0
SPLINE
  5
67
330
1F
100
AcDbEntity
  8
FP_DD60D$Fisher _ Paykel-1
100
AcDbSpline
210
0.0
220
0.0
230
1.0
 70
    24
 71
     2
 72
     6
 73
     3
 74
     0
 42
0.0000000001
 43
0.0000000001
 40
-0.0656167979002166
 40
-0.0656167979002166
 40
-0.0656167979002166
 40
0.0000000000000004
 40
0.0000000000000004
 40
0.0000000000000004
 10
299.5
 20
552.9999999999852
 30
88.97196513412783
 10
299.5
 20
542.9999999999922
 30
88.9719651341278
 10
299.5
 20
532.9999999999991
 30
88.97196513412776
  0
SPLINE
  5
68
330
1F
100
AcDbEntity
  8
FP_DD60D$Fisher _ Paykel-1
100
AcDbSpline
210
0.0
220
0.0
230
1.0
 70
    24
 71
     2
 72
     6
 73
     3
 74
     0
 42
0.0000000001
 43
0.0000000001
 40
-1.965223097112859
 40
-1.965223097112859
 40
-1.965223097112859
 40
0.0
 40
0.0
 40
0.0
 10
299.5
 20
532.9999999999991
 30
88.97196513412776
 10
0.0000000000002842
 20
532.9999999999991
 30
88.97196513412777
 10
-299.4999999999994
 20
532.9999999999991
 30
88.9719651341278
  0
SPLINE
  5
69
330
1F
100
AcDbEntity
  8
FP_DD60D$Fisher _ Paykel-1
100
AcDbSpline
210
0.0
220
0.0
230
1.0
 70
    24
 71
     2
 72
     6
 73
     3
 74
     0
 42
0.0000000001
 43
0.0000000001
 40
-0.0656167979002166
 40
-0.0656167979002166
 40
-0.0656167979002166
 40
0.0
 40
0.0
 40
0.0
 10
-299.4999999999994
 20
532.9999999999991
 30
88.9719651341278
 10
-299.4999999999994
 20
542.9999999999922
 30
88.97196513412781
 10
-299.4999999999994
 20
552.9999999999852
 30
88.97196513412783
  0
SPLINE
  5
6A
330
1F
100
AcDbEntity
  8
FP_DD60D$Fisher _ Paykel-1
100
AcDbSpline
210
0.0
220
0.0
230
1.0
 70
    24
 71
     2
 72
     6
 73
     3
 74
     0
 42
0.0000000001
 43
0.0000000001
 40
-1.965223097112859
 40
-1.965223097112859
 40
-1.965223097112859
 40
0.0
 40
0.0
 40
0.0
 10
-299.4999999999994
 20
552.9999999999852
 30
88.97196513412783
 10
0.0000000000002842
 20
552.9999999999852
 30
88.97196513412783
 10
299.5
 20
552.9999999999852
 30
88.97196513412783
  0
ARC
  5
6B
330
1F
100
AcDbEntity
  8
FP_DD60D$Fisher _ Paykel-1
100
AcDbCircle
 10
532.9999999999991
 20
68.9719651341277
 30
299.5
 40
19.99999999999989
210
1.0
220
0.0
230
0.0
100
AcDbArc
 50
90.0
 51
180.0
  0
LINE
  5
6C
330
1F
100
AcDbEntity
  8
FP_DD60D$Fisher _ Paykel-1
100
AcDbLine
 10
299.5
 20
512.9999999999992
 30
68.97196513412774
 11
-299.4999999999994
 21
512.9999999999991
 31
68.97196513412764
  0
ARC
  5
6D
330
1F
100
AcDbEntity
  8
FP_DD60D$Fisher _ Paykel-1
100
AcDbCircle
 10
-532.9999999999991
 20
68.97196513412761
 30
299.4999999999994
 40
19.99999999999997
210
-1.0
220
0.0
230
0.0
100
AcDbArc
 50
0.0000000000000814
 51
90.0
  0
SPLINE
  5
6E
330
1F
100
AcDbEntity
  8
FP_DD60D$Fisher _ Paykel-1
100
AcDbSpline
210
0.0
220
0.0
230
1.0
 70
    24
 71
     2
 72
     6
 73
     3
 74
     0
 42
0.0000000001
 43
0.0000000001
 40
-2.5296195369615
 40
-2.5296195369615
 40
-2.5296195369615
 40
0.0
 40
0.0
 40
0.0
 10
299.5
 20
552.9999999999852
 30
859.9999999999932
 10
299.5
 20
552.9999999999852
 30
474.4859825670605
 10
299.5
 20
552.9999999999852
 30
88.97196513412783
  0
SPLINE
  5
6F
330
1F
100
AcDbEntity
  8
FP_DD60D$Fisher _ Paykel-1
100
AcDbSpline
210
0.0
220
0.0
230
1.0
 70
    24
 71
     2
 72
     6
 73
     3
 74
     0
 42
0.0000000001
 43
0.0000000001
 40
-2.5296195369615
 40
-2.5296195369615
 40
-2.5296195369615
 40
0.0
 40
0.0
 40
0.0
 10
-299.4999999999994
 20
552.9999999999852
 30
88.97196513412783
 10
-299.4999999999994
 20
552.9999999999852
 30
474.4859825670605
 10
-299.4999999999994
 20
552.9999999999852
 30
859.9999999999932
  0
SPLINE
  5
70
330
1F
100
AcDbEntity
  8
FP_DD60D$Fisher _ Paykel-1
100
AcDbSpline
210
0.0
220
0.0
230
1.0
 70
    24
 71
     2
 72
     6
 73
     3
 74
     0
 42
0.0000000001
 43
0.0000000001
 40
-1.965223097112859
 40
-1.965223097112859
 40
-1.965223097112859
 40
0.0
 40
0.0
 40
0.0
 10
-299.4999999999994
 20
552.9999999999852
 30
859.9999999999932
 10
0.0000000000002842
 20
552.9999999999852
 30
859.9999999999932
 10
299.5
 20
552.9999999999852
 30
859.9999999999932
  0
SPLINE
  5
71
330
1F
100
AcDbEntity
  8
FP_DD60D$Fisher _ Paykel-1
100
AcDbSpline
210
0.0
220
0.0
230
1.0
 70
    24
 71
     2
 72
     6
 73
     3
 74
     0
 42
0.0000000001
 43
0.0000000001
 40
-0.0655248199938727
 40
-0.0655248199938727
 40
-0.0655248199938727
 40
0.0
 40
0.0
 40
0.0
 10
299.5
 20
512.9999999999992
 30
68.97196513412774
 10
299.5
 20
512.9999999999992
 30
58.98598256706155
 10
299.5
 20
512.9999999999992
 30
48.99999999999535
  0
SPLINE
  5
72
330
1F
100
AcDbEntity
  8
FP_DD60D$Fisher _ Paykel-1
100
AcDbSpline
210
0.0
220
0.0
230
1.0
 70
    24
 71
     2
 72
     6
 73
     3
 74
     0
 42
0.0000000001
 43
0.0000000001
 40
-1.965223097112859
 40
-1.965223097112859
 40
-1.965223097112859
 40
0.0
 40
0.0
 40
0.0
 10
299.5
 20
512.9999999999992
 30
48.99999999999535
 10
0.0000000000002842
 20
512.9999999999992
 30
48.99999999999535
 10
-299.4999999999994
 20
512.9999999999992
 30
48.99999999999535
  0
SPLINE
  5
73
330
1F
100
AcDbEntity
  8
FP_DD60D$Fisher _ Paykel-1
100
AcDbSpline
210
0.0
220
0.0
230
1.0
 70
    24
 71
     2
 72
     6
 73
     3
 74
     0
 42
0.0000000001
 43
0.0000000001
 40
-0.0655248199938727
 40
-0.0655248199938727
 40
-0.0655248199938727
 40
-0.0000000000000004
 40
-0.0000000000000004
 40
-0.0000000000000004
 10
-299.4999999999994
 20
512.9999999999992
 30
48.99999999999535
 10
-299.4999999999994
 20
512.9999999999991
 30
58.9859825670615
 10
-299.4999999999994
 20
512.9999999999991
 30
68.97196513412764
  0
SPLINE
  5
74
330
1F
100
AcDbEntity
  8
FP_DD60D$Fisher _ Paykel-1
100
AcDbSpline
210
0.0
220
0.0
230
1.0
 70
    24
 71
     2
 72
     6
 73
     3
 74
     0
 42
0.0000000001
 43
0.0000000001
 40
-1.30577427821522
 40
-1.30577427821522
 40
-1.30577427821522
 40
0.0
 40
0.0
 40
0.0
 10
299.5
 20
512.9999999999992
 30
48.99999999999535
 10
299.5
 20
313.9999999999996
 30
48.99999999999535
 10
299.5
 20
115.0
 30
48.99999999999535
  0
SPLINE
  5
75
330
1F
100
AcDbEntity
  8
FP_DD60D$Fisher _ Paykel-1
100
AcDbSpline
210
0.0
220
0.0
230
1.0
 70
    24
 71
     2
 72
     6
 73
     3
 74
     0
 42
0.0000000001
 43
0.0000000001
 40
-1.30577427821522
 40
-1.30577427821522
 40
-1.30577427821522
 40
0.0
 40
0.0
 40
0.0
 10
-299.4999999999994
 20
115.0
 30
48.99999999999535
 10
-299.4999999999994
 20
313.9999999999996
 30
48.99999999999535
 10
-299.4999999999994
 20
512.9999999999992
 30
48.99999999999535
  0
SPLINE
  5
76
330
1F
100
AcDbEntity
  8
FP_DD60D$Fisher _ Paykel-1
100
AcDbSpline
210
0.0
220
0.0
230
1.0
 70
    24
 71
     2
 72
     6
 73
     3
 74
     0
 42
0.0000000001
 43
0.0000000001
 40
-2.360899020057226
 40
-2.360899020057226
 40
-2.360899020057226
 40
0.0
 40
0.0
 40
0.0
 10
299.5
 20
10.00000053048134
 30
140.3979786865507
 10
299.5
 20
10.00000053048134
 30
500.1989893432719
 10
299.5
 20
10.00000053048134
 30
859.9999999999932
  0
SPLINE
  5
77
330
1F
100
AcDbEntity
  8
FP_DD60D$Fisher _ Paykel-1
100
AcDbSpline
210
0.0
220
0.0
230
1.0
 70
    24
 71
     2
 72
     6
 73
     3
 74
     0
 42
0.0000000001
 43
0.0000000001
 40
-1.965223097112859
 40
-1.965223097112859
 40
-1.965223097112859
 40
0.0
 40
0.0
 40
0.0
 10
299.5
 20
10.00000053048134
 30
859.9999999999932
 10
0.0000000000002842
 20
10.00000053048134
 30
859.9999999999932
 10
-299.4999999999994
 20
10.00000053048134
 30
859.9999999999932
  0
SPLINE
  5
78
330
1F
100
AcDbEntity
  8
FP_DD60D$Fisher _ Paykel-1
100
AcDbSpline
210
0.0
220
0.0
230
1.0
 70
    24
 71
     2
 72
     6
 73
     3
 74
     0
 42
0.0000000001
 43
0.0000000001
 40
-2.360899020057226
 40
-2.360899020057226
 40
-2.360899020057226
 40
0.0
 40
0.0
 40
0.0
 10
-299.4999999999994
 20
10.00000053048134
 30
859.9999999999932
 10
-299.4999999999994
 20
10.00000053048134
 30
500.1989893432719
 10
-299.4999999999994
 20
10.00000053048134
 30
140.3979786865507
  0
SPLINE
  5
79
330
1F
100
AcDbEntity
  8
FP_DD60D$Fisher _ Paykel-1
100
AcDbSpline
210
0.0
220
0.0
230
1.0
 70
    24
 71
     2
 72
     6
 73
     3
 74
     0
 42
0.0000000001
 43
0.0000000001
 40
-1.781496061251653
 40
-1.781496061251653
 40
-1.781496061251653
 40
0.0
 40
0.0
 40
0.0
 10
299.5
 20
10.00000053048134
 30
859.9999999999932
 10
299.5
 20
281.5000002652333
 30
859.9999999999932
 10
299.5
 20
552.9999999999852
 30
859.9999999999932
  0
SPLINE
  5
7A
330
1F
100
AcDbEntity
  8
FP_DD60D$Fisher _ Paykel-1
100
AcDbSpline
210
0.0
220
0.0
230
1.0
 70
    24
 71
     2
 72
     6
 73
     3
 74
     0
 42
0.0000000001
 43
0.0000000001
 40
-1.781496061251653
 40
-1.781496061251653
 40
-1.781496061251653
 40
0.0
 40
0.0
 40
0.0
 10
-299.4999999999994
 20
552.9999999999852
 30
859.9999999999932
 10
-299.4999999999994
 20
281.5000002652333
 30
859.9999999999932
 10
-299.4999999999994
 20
10.00000053048134
 30
859.9999999999932
  0
LINE
  5
7B
330
1F
100
AcDbEntity
  8
FP_DD60D$Fisher _ Paykel-1
100
AcDbLine
 10
299.5
 20
62.50000026524071
 30
136.950400742248
 11
-299.4999999999994
 21
62.50000026524071
 31
136.950400742248
  0
LINE
  5
7C
330
1F
100
AcDbEntity
  8
FP_DD60D$Fisher _ Paykel-1
100
AcDbLine
 10
0.0000000000002842
 20
10.00000053048134
 30
140.3979786865507
 11
0.0000000000002842
 21
115.0000000000001
 31
133.5028227979453
  0
LINE
  5
7D
330
1F
100
AcDbEntity
  8
FP_DD60D$Fisher _ Paykel-1
100
AcDbLine
 10
299.5
 20
115.0
 30
91.25141139897026
 11
-299.4999999999994
 21
115.0
 31
91.25141139897026
  0
LINE
  5
7E
330
1F
100
AcDbEntity
  8
FP_DD60D$Fisher _ Paykel-1
100
AcDbLine
 10
0.0000000000002842
 20
115.0
 30
133.5028227979451
 11
0.0000000000002842
 21
115.0
 31
48.99999999999536
  0
LINE
  5
7F
330
1F
100
AcDbEntity
  8
FP_DD60D$Fisher _ Paykel-1
100
AcDbLine
 10
299.5
 20
542.9999999999922
 30
88.97196513412784
 11
-299.4999999999994
 21
542.9999999999922
 31
88.97196513412784
  0
LINE
  5
80
330
1F
100
AcDbEntity
  8
FP_DD60D$Fisher _ Paykel-1
100
AcDbLine
 10
0.0000000000002842
 20
532.9999999999992
 30
88.97196513412781
 11
0.0000000000002842
 21
552.9999999999852
 31
88.97196513412788
  0
ARC
  5
81
330
1F
100
AcDbEntity
  8
FP_DD60D$Fisher _ Paykel-1
100
AcDbCircle
 10
-532.9999999999992
 20
68.97196513412773
 30
0.0
 40
20.0
210
-1.0
220
0.0
230
0.0
100
AcDbArc
 50
359.9999999999999
 51
90.0
  0
LINE
  5
82
330
1F
100
AcDbEntity
  8
FP_DD60D$Fisher _ Paykel-1
100
AcDbLine
 10
299.5
 20
552.9999999999852
 30
474.4859825670605
 11
-299.4999999999994
 21
552.9999999999852
 31
474.4859825670605
  0
LINE
  5
83
330
1F
100
AcDbEntity
  8
FP_DD60D$Fisher _ Paykel-1
100
AcDbLine
 10
0.0000000000002842
 20
552.9999999999852
 30
88.97196513412781
 11
0.0000000000002842
 21
552.9999999999852
 31
859.9999999999932
  0
LINE
  5
84
330
1F
100
AcDbEntity
  8
FP_DD60D$Fisher _ Paykel-1
100
AcDbLine
 10
299.5
 20
512.9999999999992
 30
58.98598256706155
 11
-299.4999999999994
 21
512.9999999999992
 31
58.98598256706155
  0
LINE
  5
85
330
1F
100
AcDbEntity
  8
FP_DD60D$Fisher _ Paykel-1
100
AcDbLine
 10
0.0000000000002842
 20
512.9999999999992
 30
48.99999999999537
 11
0.0000000000002842
 21
512.9999999999992
 31
68.9719651341277
  0
LINE
  5
86
330
1F
100
AcDbEntity
  8
FP_DD60D$Fisher _ Paykel-1
100
AcDbLine
 10
299.5
 20
313.9999999999996
 30
48.99999999999536
 11
-299.4999999999994
 21
313.9999999999996
 31
48.99999999999536
  0
LINE
  5
87
330
1F
100
AcDbEntity
  8
FP_DD60D$Fisher _ Paykel-1
100
AcDbLine
 10
0.0000000000002842
 20
115.0
 30
48.99999999999536
 11
0.0000000000002842
 21
512.9999999999992
 31
48.99999999999536
  0
LINE
  5
88
330
1F
100
AcDbEntity
  8
FP_DD60D$Fisher _ Paykel-1
100
AcDbLine
 10
299.5
 20
10.00000053048134
 30
500.1989893432719
 11
-299.4999999999994
 21
10.00000053048134
 31
500.1989893432719
  0
LINE
  5
89
330
1F
100
AcDbEntity
  8
FP_DD60D$Fisher _ Paykel-1
100
AcDbLine
 10
0.0000000000002842
 20
10.00000053048134
 30
859.9999999999933
 11
0.0000000000002842
 21
10.00000053048134
 31
140.3979786865507
  0
LINE
  5
8A
330
1F
100
AcDbEntity
  8
FP_DD60D$Fisher _ Paykel-1
100
AcDbLine
 10
299.5
 20
281.5000002652333
 30
859.9999999999932
 11
-299.4999999999994
 21
281.5000002652333
 31
859.9999999999932
  0
LINE
  5
8B
330
1F
100
AcDbEntity
  8
FP_DD60D$Fisher _ Paykel-1
100
AcDbLine
 10
0.0000000000002842
 20
552.9999999999852
 30
859.9999999999932
 11
0.0000000000002842
 21
10.00000053048134
 31
859.9999999999932
  0
LINE
  5
8C
330
1F
100
AcDbEntity
  8
FP_DD60D$Fisher _ Paykel-1
100
AcDbLine
 10
-299.4999999999994
 20
10.00000053048134
 30
454.4999999999943
 11
-299.4999999999994
 21
552.9999999999852
 31
454.4999999999943
  0
LINE
  5
8D
330
1F
100
AcDbEntity
  8
FP_DD60D$Fisher _ Paykel-1
100
AcDbLine
 10
-299.4999999999994
 20
281.5000002652333
 30
859.9999999999932
 11
-299.4999999999994
 21
281.5000002652333
 31
48.99999999999535
  0
LINE
  5
8E
330
1F
100
AcDbEntity
  8
FP_DD60D$Fisher _ Paykel-1
100
AcDbLine
 10
299.5
 20
552.9999999999852
 30
454.4999999999943
 11
299.5
 21
10.00000053048135
 31
454.4999999999943
  0
LINE
  5
8F
330
1F
100
AcDbEntity
  8
FP_DD60D$Fisher _ Paykel-1
100
AcDbLine
 10
299.5
 20
281.5000002652333
 30
859.9999999999932
 11
299.5
 21
281.5000002652333
 31
48.99999999999535
  0
ARC
  5
91
330
1F
100
AcDbEntity
  8
FP_DD60D$Fisher _ Paykel-2
100
AcDbCircle
 10
241.0000000000004
 20
406.9999999999895
 30
0.0
 40
2.500000000000057
210
0.0
220
-1.0
230
0.0
100
AcDbArc
 50
180.0000000000013
 51
0.0
  0
LINE
  5
92
330
1F
100
AcDbEntity
  8
FP_DD60D$Fisher _ Paykel-2
100
AcDbLine
 10
243.5000000000005
 20
0.0
 30
406.9999999999894
 11
243.5000000000005
 21
10.00000053048134
 31
406.9999999999894
  0
ARC
  5
93
330
1F
100
AcDbEntity
  8
FP_DD60D$Fisher _ Paykel-2
100
AcDbCircle
 10
-241.0000000000004
 20
406.9999999999895
 30
10.00000053048134
 40
2.500000000000057
210
0.0
220
1.0
230
0.0
100
AcDbArc
 50
180.0000000000013
 51
0.0
  0
LINE
  5
94
330
1F
100
AcDbEntity
  8
FP_DD60D$Fisher _ Paykel-2
100
AcDbLine
 10
238.5000000000004
 20
10.00000053048134
 30
406.9999999999894
 11
238.5000000000004
 21
0.0
 31
406.9999999999894
  0
ARC
  5
95
330
1F
100
AcDbEntity
  8
FP_DD60D$Fisher _ Paykel-2
100
AcDbCircle
 10
241.0000000000005
 20
406.9999999999894
 30
0.0
 40
2.500000000000028
210
0.0
220
-1.0
230
0.0
100
AcDbArc
 50
0.0
 51
180.0
  0
ARC
  5
96
330
1F
100
AcDbEntity
  8
FP_DD60D$Fisher _ Paykel-2
100
AcDbCircle
 10
241.0000000000005
 20
406.9999999999894
 30
-10.00000053048134
 40
2.500000000000028
210
0.0
220
-1.0
230
0.0
100
AcDbArc
 50
0.0
 51
180.0
  0
ARC
  5
97
330
1F
100
AcDbEntity
  8
FP_DD60D$Fisher _ Paykel-2
100
AcDbCircle
 10
262.0000000000005
 20
373.4999999999895
 30
0.0
 40
2.5
210
0.0
220
-1.0
230
0.0
100
AcDbArc
 50
180.0
 51
0.0
  0
LINE
  5
98
330
1F
100
AcDbEntity
  8
FP_DD60D$Fisher _ Paykel-2
100
AcDbLine
 10
264.5000000000005
 20
0.0
 30
373.4999999999895
 11
264.5000000000005
 21
10.00000053048134
 31
373.4999999999895
  0
ARC
  5
99
330
1F
100
AcDbEntity
  8
FP_DD60D$Fisher _ Paykel-2
100
AcDbCircle
 10
-262.0000000000005
 20
373.4999999999895
 30
10.00000053048134
 40
2.5
210
0.0
220
1.0
230
0.0
100
AcDbArc
 50
180.0
 51
0.0
  0
LINE
  5
9A
330
1F
100
AcDbEntity
  8
FP_DD60D$Fisher _ Paykel-2
100
AcDbLine
 10
259.5000000000005
 20
10.00000053048134
 30
373.4999999999895
 11
259.5000000000005
 21
0.0
 31
373.4999999999895
  0
ARC
  5
9B
330
1F
100
AcDbEntity
  8
FP_DD60D$Fisher _ Paykel-2
100
AcDbCircle
 10
-262.0000000000005
 20
373.4999999999895
 30
0.0
 40
2.499999999999943
210
0.0
220
1.0
230
0.0
100
AcDbArc
 50
0.0
 51
179.9999999999987
  0
ARC
  5
9C
330
1F
100
AcDbEntity
  8
FP_DD60D$Fisher _ Paykel-2
100
AcDbCircle
 10
262.0000000000005
 20
373.4999999999895
 30
-10.00000053048134
 40
2.500000000000057
210
0.0
220
-1.0
230
0.0
100
AcDbArc
 50
0.0
 51
179.9999999999987
  0
ARC
  5
9D
330
1F
100
AcDbEntity
  8
FP_DD60D$Fisher _ Paykel-2
100
AcDbCircle
 10
262.0000000000005
 20
277.9999999999893
 30
0.0
 40
2.5
210
0.0
220
-1.0
230
0.0
100
AcDbArc
 50
180.0
 51
0.0
  0
LINE
  5
9E
330
1F
100
AcDbEntity
  8
FP_DD60D$Fisher _ Paykel-2
100
AcDbLine
 10
264.5000000000005
 20
0.0
 30
277.9999999999893
 11
264.5000000000005
 21
10.00000053048134
 31
277.9999999999893
  0
ARC
  5
9F
330
1F
100
AcDbEntity
  8
FP_DD60D$Fisher _ Paykel-2
100
AcDbCircle
 10
-262.0000000000005
 20
277.9999999999893
 30
10.00000053048134
 40
2.5
210
0.0
220
1.0
230
0.0
100
AcDbArc
 50
180.0
 51
0.0
  0
LINE
  5
A0
330
1F
100
AcDbEntity
  8
FP_DD60D$Fisher _ Paykel-2
100
AcDbLine
 10
259.5000000000005
 20
10.00000053048134
 30
277.9999999999893
 11
259.5000000000005
 21
0.0
 31
277.9999999999893
  0
ARC
  5
A1
330
1F
100
AcDbEntity
  8
FP_DD60D$Fisher _ Paykel-2
100
AcDbCircle
 10
-262.0000000000005
 20
277.9999999999893
 30
0.0
 40
2.499999999999943
210
0.0
220
1.0
230
0.0
100
AcDbArc
 50
0.0
 51
179.9999999999987
  0
ARC
  5
A2
330
1F
100
AcDbEntity
  8
FP_DD60D$Fisher _ Paykel-2
100
AcDbCircle
 10
262.0000000000005
 20
277.9999999999893
 30
-10.00000053048134
 40
2.500000000000057
210
0.0
220
-1.0
230
0.0
100
AcDbArc
 50
0.0
 51
179.9999999999987
  0
ARC
  5
A3
330
1F
100
AcDbEntity
  8
FP_DD60D$Fisher _ Paykel-2
100
AcDbCircle
 10
-241.0000000000005
 20
406.9999999999894
 30
0.0
 40
2.500000000000028
210
0.0
220
-1.0
230
0.0
100
AcDbArc
 50
180.0
 51
0.0
  0
LINE
  5
A4
330
1F
100
AcDbEntity
  8
FP_DD60D$Fisher _ Paykel-2
100
AcDbLine
 10
-238.5000000000004
 20
0.0
 30
406.9999999999894
 11
-238.5000000000004
 21
10.00000053048134
 31
406.9999999999894
  0
ARC
  5
A5
330
1F
100
AcDbEntity
  8
FP_DD60D$Fisher _ Paykel-2
100
AcDbCircle
 10
241.0000000000004
 20
406.9999999999894
 30
10.00000053048134
 40
2.500000000000057
210
0.0
220
1.0
230
0.0
100
AcDbArc
 50
180.0
 51
0.0
  0
LINE
  5
A6
330
1F
100
AcDbEntity
  8
FP_DD60D$Fisher _ Paykel-2
100
AcDbLine
 10
-243.5000000000005
 20
10.00000053048134
 30
406.9999999999894
 11
-243.5000000000005
 21
0.0
 31
406.9999999999894
  0
ARC
  5
A7
330
1F
100
AcDbEntity
  8
FP_DD60D$Fisher _ Paykel-2
100
AcDbCircle
 10
241.0000000000004
 20
406.9999999999895
 30
0.0
 40
2.500000000000057
210
0.0
220
1.0
230
0.0
100
AcDbArc
 50
359.9999999999987
 51
180.0
  0
ARC
  5
A8
330
1F
100
AcDbEntity
  8
FP_DD60D$Fisher _ Paykel-2
100
AcDbCircle
 10
241.0000000000004
 20
406.9999999999895
 30
10.00000053048134
 40
2.500000000000057
210
0.0
220
1.0
230
0.0
100
AcDbArc
 50
359.9999999999987
 51
180.0
  0
ARC
  5
A9
330
1F
100
AcDbEntity
  8
FP_DD60D$Fisher _ Paykel-2
100
AcDbCircle
 10
-262.0000000000004
 20
373.4999999999897
 30
0.0
 40
2.5
210
0.0
220
-1.0
230
0.0
100
AcDbArc
 50
180.0000000000026
 51
359.9999999999987
  0
LINE
  5
AA
330
1F
100
AcDbEntity
  8
FP_DD60D$Fisher _ Paykel-2
100
AcDbLine
 10
-259.5000000000005
 20
0.0
 30
373.4999999999895
 11
-259.5000000000005
 21
10.00000053048134
 31
373.4999999999895
  0
ARC
  5
AB
330
1F
100
AcDbEntity
  8
FP_DD60D$Fisher _ Paykel-2
100
AcDbCircle
 10
262.0000000000005
 20
373.4999999999897
 30
10.00000053048134
 40
2.499999999999943
210
0.0
220
1.0
230
0.0
100
AcDbArc
 50
180.0000000000026
 51
359.9999999999987
  0
LINE
  5
AC
330
1F
100
AcDbEntity
  8
FP_DD60D$Fisher _ Paykel-2
100
AcDbLine
 10
-264.5000000000004
 20
10.00000053048134
 30
373.4999999999895
 11
-264.5000000000004
 21
0.0
 31
373.4999999999895
  0
ARC
  5
AD
330
1F
100
AcDbEntity
  8
FP_DD60D$Fisher _ Paykel-2
100
AcDbCircle
 10
-262.0000000000005
 20
373.4999999999895
 30
0.0
 40
2.5
210
0.0
220
-1.0
230
0.0
100
AcDbArc
 50
0.0
 51
180.0
  0
ARC
  5
AE
330
1F
100
AcDbEntity
  8
FP_DD60D$Fisher _ Paykel-2
100
AcDbCircle
 10
-262.0000000000005
 20
373.4999999999895
 30
-10.00000053048134
 40
2.5
210
0.0
220
-1.0
230
0.0
100
AcDbArc
 50
0.0
 51
180.0
  0
ARC
  5
AF
330
1F
100
AcDbEntity
  8
FP_DD60D$Fisher _ Paykel-2
100
AcDbCircle
 10
-262.0000000000004
 20
277.9999999999894
 30
0.0
 40
2.5
210
0.0
220
-1.0
230
0.0
100
AcDbArc
 50
180.0000000000026
 51
359.9999999999987
  0
LINE
  5
B0
330
1F
100
AcDbEntity
  8
FP_DD60D$Fisher _ Paykel-2
100
AcDbLine
 10
-259.5000000000005
 20
0.0
 30
277.9999999999893
 11
-259.5000000000005
 21
10.00000053048134
 31
277.9999999999893
  0
ARC
  5
B1
330
1F
100
AcDbEntity
  8
FP_DD60D$Fisher _ Paykel-2
100
AcDbCircle
 10
262.0000000000005
 20
277.9999999999894
 30
10.00000053048134
 40
2.499999999999943
210
0.0
220
1.0
230
0.0
100
AcDbArc
 50
180.0000000000026
 51
359.9999999999987
  0
LINE
  5
B2
330
1F
100
AcDbEntity
  8
FP_DD60D$Fisher _ Paykel-2
100
AcDbLine
 10
-264.5000000000004
 20
10.00000053048134
 30
277.9999999999893
 11
-264.5000000000004
 21
0.0
 31
277.9999999999893
  0
ARC
  5
B3
330
1F
100
AcDbEntity
  8
FP_DD60D$Fisher _ Paykel-2
100
AcDbCircle
 10
-262.0000000000005
 20
277.9999999999893
 30
0.0
 40
2.5
210
0.0
220
-1.0
230
0.0
100
AcDbArc
 50
0.0
 51
180.0
  0
ARC
  5
B4
330
1F
100
AcDbEntity
  8
FP_DD60D$Fisher _ Paykel-2
100
AcDbCircle
 10
-262.0000000000005
 20
277.9999999999893
 30
-10.00000053048134
 40
2.5
210
0.0
220
-1.0
230
0.0
100
AcDbArc
 50
0.0
 51
180.0
  0
SPLINE
  5
B5
330
1F
100
AcDbEntity
  8
FP_DD60D$Fisher _ Paykel-2
100
AcDbSpline
210
0.0
220
0.0
230
1.0
 70
    24
 71
     2
 72
     6
 73
     3
 74
     0
 42
0.0000000001
 43
0.0000000001
 40
-0.7644357219769544
 40
-0.7644357219769544
 40
-0.7644357219769544
 40
0.0
 40
0.0
 40
0.0
 10
274.0000086307519
 20
0.0
 30
418.9999999999894
 10
274.0000086307519
 20
0.0
 30
302.4999959707015
 10
274.0000086307519
 20
0.0
 30
185.9999919414137
  0
SPLINE
  5
B6
330
1F
100
AcDbEntity
  8
FP_DD60D$Fisher _ Paykel-2
100
AcDbSpline
210
0.0
220
0.0
230
1.0
 70
    24
 71
     2
 72
     6
 73
     3
 74
     0
 42
0.0000000001
 43
0.0000000001
 40
-0.0328084006905556
 40
-0.0328084006905556
 40
-0.0328084006905556
 40
0.0
 40
0.0
 40
0.0
 10
274.0000086307519
 20
0.0
 30
185.9999919414137
 10
274.0000086307519
 20
5.000000265240669
 30
185.9999919414137
 10
274.0000086307519
 20
10.00000053048134
 30
185.9999919414137
  0
SPLINE
  5
B7
330
1F
100
AcDbEntity
  8
FP_DD60D$Fisher _ Paykel-2
100
AcDbSpline
210
0.0
220
0.0
230
1.0
 70
    24
 71
     2
 72
     6
 73
     3
 74
     0
 42
0.0000000001
 43
0.0000000001
 40
-0.7644357219769544
 40
-0.7644357219769544
 40
-0.7644357219769544
 40
0.0
 40
0.0
 40
0.0
 10
274.0000086307519
 20
10.00000053048134
 30
185.9999919414137
 10
274.0000086307519
 20
10.00000053048134
 30
302.4999959707015
 10
274.0000086307519
 20
10.00000053048134
 30
418.9999999999894
  0
SPLINE
  5
B8
330
1F
100
AcDbEntity
  8
FP_DD60D$Fisher _ Paykel-2
100
AcDbSpline
210
0.0
220
0.0
230
1.0
 70
    24
 71
     2
 72
     6
 73
     3
 74
     0
 42
0.0000000001
 43
0.0000000001
 40
-0.0328084006905556
 40
-0.0328084006905556
 40
-0.0328084006905556
 40
0.0
 40
0.0
 40
0.0
 10
274.0000086307519
 20
10.00000053048134
 30
418.9999999999894
 10
274.0000086307519
 20
5.000000265240669
 30
418.9999999999894
 10
274.0000086307519
 20
0.0
 30
418.9999999999894
  0
SPLINE
  5
B9
330
1F
100
AcDbEntity
  8
FP_DD60D$Fisher _ Paykel-2
100
AcDbSpline
210
0.0
220
0.0
230
1.0
 70
    24
 71
     2
 72
     6
 73
     3
 74
     0
 42
0.0000000001
 43
0.0000000001
 40
-0.0787401795387261
 40
-0.0787401795387261
 40
-0.0787401795387261
 40
0.0
 40
0.0
 40
0.0
 10
274.0000086307519
 20
0.0
 30
185.9999919414137
 10
262.00000526905
 20
0.0
 30
185.9999919414137
 10
250.0000019073482
 20
0.0
 30
185.9999919414137
  0
SPLINE
  5
BA
330
1F
100
AcDbEntity
  8
FP_DD60D$Fisher _ Paykel-2
100
AcDbSpline
210
0.0
220
0.0
230
1.0
 70
    24
 71
     2
 72
     6
 73
     3
 74
     0
 42
0.0000000001
 43
0.0000000001
 40
-0.0328084006905556
 40
-0.0328084006905556
 40
-0.0328084006905556
 40
0.0
 40
0.0
 40
0.0
 10
250.0000019073482
 20
0.0
 30
185.9999919414137
 10
250.0000019073482
 20
5.000000265240669
 30
185.9999919414137
 10
250.0000019073482
 20
10.00000053048134
 30
185.9999919414137
  0
SPLINE
  5
BB
330
1F
100
AcDbEntity
  8
FP_DD60D$Fisher _ Paykel-2
100
AcDbSpline
210
0.0
220
0.0
230
1.0
 70
    24
 71
     2
 72
     6
 73
     3
 74
     0
 42
0.0000000001
 43
0.0000000001
 40
-0.0787401795387261
 40
-0.0787401795387261
 40
-0.0787401795387261
 40
0.0
 40
0.0
 40
0.0
 10
250.0000019073482
 20
10.00000053048134
 30
185.9999919414137
 10
262.00000526905
 20
10.00000053048134
 30
185.9999919414137
 10
274.0000086307519
 20
10.00000053048134
 30
185.9999919414137
  0
SPLINE
  5
BC
330
1F
100
AcDbEntity
  8
FP_DD60D$Fisher _ Paykel-2
100
AcDbSpline
210
0.0
220
0.0
230
1.0
 70
    24
 71
     2
 72
     6
 73
     3
 74
     0
 42
0.0000000001
 43
0.0000000001
 40
-0.1509187262593387
 40
-0.1509187262593387
 40
-0.1509187262593387
 40
0.0
 40
0.0
 40
0.0
 10
250.0000019073482
 20
0.0
 30
185.9999919414137
 10
250.0000019073482
 20
0.0
 30
162.9999780594905
 10
250.0000019073482
 20
0.0
 30
139.9999641775673
  0
SPLINE
  5
BD
330
1F
100
AcDbEntity
  8
FP_DD60D$Fisher _ Paykel-2
100
AcDbSpline
210
0.0
220
0.0
230
1.0
 70
    24
 71
     2
 72
     6
 73
     3
 74
     0
 42
0.0000000001
 43
0.0000000001
 40
-0.0328084006905556
 40
-0.0328084006905556
 40
-0.0328084006905556
 40
0.0
 40
0.0
 40
0.0
 10
250.0000019073482
 20
0.0
 30
139.9999641775673
 10
250.0000019073482
 20
5.000000265240669
 30
139.9999641775673
 10
250.0000019073482
 20
10.00000053048134
 30
139.9999641775673
  0
SPLINE
  5
BE
330
1F
100
AcDbEntity
  8
FP_DD60D$Fisher _ Paykel-2
100
AcDbSpline
210
0.0
220
0.0
230
1.0
 70
    24
 71
     2
 72
     6
 73
     3
 74
     0
 42
0.0000000001
 43
0.0000000001
 40
-0.1509187262593387
 40
-0.1509187262593387
 40
-0.1509187262593387
 40
0.0
 40
0.0
 40
0.0
 10
250.0000019073482
 20
10.00000053048134
 30
139.9999641775673
 10
250.0000019073482
 20
10.00000053048134
 30
162.9999780594905
 10
250.0000019073482
 20
10.00000053048134
 30
185.9999919414137
  0
SPLINE
  5
BF
330
1F
100
AcDbEntity
  8
FP_DD60D$Fisher _ Paykel-2
100
AcDbSpline
210
0.0
220
0.0
230
1.0
 70
    24
 71
     2
 72
     6
 73
     3
 74
     0
 42
0.0000000001
 43
0.0000000001
 40
-1.640419960021972
 40
-1.640419960021972
 40
-1.640419960021972
 40
0.0
 40
0.0
 40
0.0
 10
250.0000019073482
 20
0.0
 30
139.9999641775673
 10
-0.0000000000003695
 20
0.0
 30
139.9999641775673
 10
-250.0000019073489
 20
0.0
 30
139.9999641775673
  0
SPLINE
  5
C0
330
1F
100
AcDbEntity
  8
FP_DD60D$Fisher _ Paykel-2
100
AcDbSpline
210
0.0
220
0.0
230
1.0
 70
    24
 71
     2
 72
     6
 73
     3
 74
     0
 42
0.0000000001
 43
0.0000000001
 40
-0.0328084006905556
 40
-0.0328084006905556
 40
-0.0328084006905556
 40
0.0
 40
0.0
 40
0.0
 10
-250.0000019073489
 20
0.0
 30
139.9999641775673
 10
-250.0000019073489
 20
5.000000265240669
 30
139.9999641775673
 10
-250.0000019073489
 20
10.00000053048134
 30
139.9999641775673
  0
SPLINE
  5
C1
330
1F
100
AcDbEntity
  8
FP_DD60D$Fisher _ Paykel-2
100
AcDbSpline
210
0.0
220
0.0
230
1.0
 70
    24
 71
     2
 72
     6
 73
     3
 74
     0
 42
0.0000000001
 43
0.0000000001
 40
-1.640419960021972
 40
-1.640419960021972
 40
-1.640419960021972
 40
0.0
 40
0.0
 40
0.0
 10
-250.0000019073489
 20
10.00000053048134
 30
139.9999641775673
 10
-0.0000000000003695
 20
10.00000053048134
 30
139.9999641775673
 10
250.0000019073482
 20
10.00000053048134
 30
139.9999641775673
  0
SPLINE
  5
C2
330
1F
100
AcDbEntity
  8
FP_DD60D$Fisher _ Paykel-2
100
AcDbSpline
210
0.0
220
0.0
230
1.0
 70
    24
 71
     2
 72
     6
 73
     3
 74
     0
 42
0.0000000001
 43
0.0000000001
 40
-0.1509187262594045
 40
-0.1509187262594045
 40
-0.1509187262594045
 40
0.0
 40
0.0
 40
0.0
 10
-250.0000019073489
 20
0.0
 30
139.9999641775673
 10
-250.0000019073489
 20
0.0
 30
162.9999780595005
 10
-250.0000019073489
 20
0.0
 30
185.9999919414338
  0
SPLINE
  5
C3
330
1F
100
AcDbEntity
  8
FP_DD60D$Fisher _ Paykel-2
100
AcDbSpline
210
0.0
220
0.0
230
1.0
 70
    24
 71
     2
 72
     6
 73
     3
 74
     0
 42
0.0000000001
 43
0.0000000001
 40
-0.0328084006905556
 40
-0.0328084006905556
 40
-0.0328084006905556
 40
0.0
 40
0.0
 40
0.0
 10
-250.0000019073489
 20
0.0
 30
185.9999919414338
 10
-250.0000019073489
 20
5.000000265240669
 30
185.9999919414338
 10
-250.0000019073489
 20
10.00000053048134
 30
185.9999919414338
  0
SPLINE
  5
C4
330
1F
100
AcDbEntity
  8
FP_DD60D$Fisher _ Paykel-2
100
AcDbSpline
210
0.0
220
0.0
230
1.0
 70
    24
 71
     2
 72
     6
 73
     3
 74
     0
 42
0.0000000001
 43
0.0000000001
 40
-0.1509187262594045
 40
-0.1509187262594045
 40
-0.1509187262594045
 40
0.0
 40
0.0
 40
0.0
 10
-250.0000019073489
 20
10.00000053048134
 30
185.9999919414338
 10
-250.0000019073489
 20
10.00000053048134
 30
162.9999780595005
 10
-250.0000019073489
 20
10.00000053048134
 30
139.9999641775673
  0
SPLINE
  5
C5
330
1F
100
AcDbEntity
  8
FP_DD60D$Fisher _ Paykel-2
100
AcDbSpline
210
0.0
220
0.0
230
1.0
 70
    24
 71
     2
 72
     6
 73
     3
 74
     0
 42
0.0000000001
 43
0.0000000001
 40
-0.0787401199340835
 40
-0.0787401199340835
 40
-0.0787401199340835
 40
0.0
 40
0.0
 40
0.0
 10
-250.0000019073489
 20
0.0
 30
185.9999919414338
 10
-261.9999961853032
 20
0.0
 30
185.9999919414338
 10
-273.9999904632576
 20
0.0
 30
185.9999919414338
  0
SPLINE
  5
C6
330
1F
100
AcDbEntity
  8
FP_DD60D$Fisher _ Paykel-2
100
AcDbSpline
210
0.0
220
0.0
230
1.0
 70
    24
 71
     2
 72
     6
 73
     3
 74
     0
 42
0.0000000001
 43
0.0000000001
 40
-0.0328084006905556
 40
-0.0328084006905556
 40
-0.0328084006905556
 40
0.0
 40
0.0
 40
0.0
 10
-273.9999904632576
 20
0.0
 30
185.9999919414338
 10
-273.9999904632576
 20
5.000000265240669
 30
185.9999919414338
 10
-273.9999904632576
 20
10.00000053048134
 30
185.9999919414338
  0
SPLINE
  5
C7
330
1F
100
AcDbEntity
  8
FP_DD60D$Fisher _ Paykel-2
100
AcDbSpline
210
0.0
220
0.0
230
1.0
 70
    24
 71
     2
 72
     6
 73
     3
 74
     0
 42
0.0000000001
 43
0.0000000001
 40
-0.0787401199340835
 40
-0.0787401199340835
 40
-0.0787401199340835
 40
0.0
 40
0.0
 40
0.0
 10
-273.9999904632576
 20
10.00000053048134
 30
185.9999919414338
 10
-261.9999961853032
 20
10.00000053048134
 30
185.9999919414338
 10
-250.0000019073489
 20
10.00000053048134
 30
185.9999919414338
  0
SPLINE
  5
C8
330
1F
100
AcDbEntity
  8
FP_DD60D$Fisher _ Paykel-2
100
AcDbSpline
210
0.0
220
0.0
230
1.0
 70
    24
 71
     2
 72
     6
 73
     3
 74
     0
 42
0.0000000001
 43
0.0000000001
 40
-0.7644357219768887
 40
-0.7644357219768887
 40
-0.7644357219768887
 40
0.0
 40
0.0
 40
0.0
 10
-273.9999904632576
 20
0.0
 30
185.9999919414338
 10
-273.9999904632576
 20
0.0
 30
302.4999959707116
 10
-273.9999904632576
 20
0.0
 30
418.9999999999894
  0
SPLINE
  5
C9
330
1F
100
AcDbEntity
  8
FP_DD60D$Fisher _ Paykel-2
100
AcDbSpline
210
0.0
220
0.0
230
1.0
 70
    24
 71
     2
 72
     6
 73
     3
 74
     0
 42
0.0000000001
 43
0.0000000001
 40
-0.0328084006905556
 40
-0.0328084006905556
 40
-0.0328084006905556
 40
0.0
 40
0.0
 40
0.0
 10
-273.9999904632576
 20
0.0
 30
418.9999999999894
 10
-273.9999904632576
 20
5.000000265240669
 30
418.9999999999894
 10
-273.9999904632576
 20
10.00000053048134
 30
418.9999999999894
  0
SPLINE
  5
CA
330
1F
100
AcDbEntity
  8
FP_DD60D$Fisher _ Paykel-2
100
AcDbSpline
210
0.0
220
0.0
230
1.0
 70
    24
 71
     2
 72
     6
 73
     3
 74
     0
 42
0.0000000001
 43
0.0000000001
 40
-0.7644357219768887
 40
-0.7644357219768887
 40
-0.7644357219768887
 40
0.0
 40
0.0
 40
0.0
 10
-273.9999904632576
 20
10.00000053048134
 30
418.9999999999894
 10
-273.9999904632576
 20
10.00000053048134
 30
302.4999959707116
 10
-273.9999904632576
 20
10.00000053048134
 30
185.9999919414338
  0
SPLINE
  5
CB
330
1F
100
AcDbEntity
  8
FP_DD60D$Fisher _ Paykel-2
100
AcDbSpline
210
0.0
220
0.0
230
1.0
 70
    24
 71
     2
 72
     6
 73
     3
 74
     0
 42
0.0000000001
 43
0.0000000001
 40
-1.797900259494782
 40
-1.797900259494782
 40
-1.797900259494782
 40
0.0
 40
0.0
 40
0.0
 10
-273.9999904632576
 20
0.0
 30
418.9999999999894
 10
0.0000090837471589
 20
0.0
 30
418.9999999999894
 10
274.0000086307519
 20
0.0
 30
418.9999999999894
  0
SPLINE
  5
CC
330
1F
100
AcDbEntity
  8
FP_DD60D$Fisher _ Paykel-2
100
AcDbSpline
210
0.0
220
0.0
230
1.0
 70
    24
 71
     2
 72
     6
 73
     3
 74
     0
 42
0.0000000001
 43
0.0000000001
 40
-1.797900259494782
 40
-1.797900259494782
 40
-1.797900259494782
 40
0.0
 40
0.0
 40
0.0
 10
274.0000086307519
 20
10.00000053048134
 30
418.9999999999894
 10
0.0000090837471589
 20
10.00000053048134
 30
418.9999999999894
 10
-273.9999904632576
 20
10.00000053048134
 30
418.9999999999894
  0
ARC
  5
CD
330
1F
100
AcDbEntity
  8
FP_DD60D$Fisher _ Paykel-2
100
AcDbCircle
 10
261.9993239879608
 20
719.1982782363658
 30
0.0
 40
2.499992752075173
210
0.0
220
-1.0
230
0.0
100
AcDbArc
 50
180.0000000000026
 51
0.0
  0
LINE
  5
CE
330
1F
100
AcDbEntity
  8
FP_DD60D$Fisher _ Paykel-2
100
AcDbLine
 10
264.499316740036
 20
0.0
 30
719.1982782363657
 11
264.499316740036
 21
10.00000053048134
 31
719.1982782363657
  0
ARC
  5
CF
330
1F
100
AcDbEntity
  8
FP_DD60D$Fisher _ Paykel-2
100
AcDbCircle
 10
-261.9993239879608
 20
719.1982782363658
 30
10.00000053048134
 40
2.499992752075173
210
0.0
220
1.0
230
0.0
100
AcDbArc
 50
180.0000000000026
 51
0.0
  0
LINE
  5
D0
330
1F
100
AcDbEntity
  8
FP_DD60D$Fisher _ Paykel-2
100
AcDbLine
 10
259.4993312358857
 20
10.00000053048134
 30
719.1982782363657
 11
259.4993312358857
 21
0.0
 31
719.1982782363657
  0
ARC
  5
D1
330
1F
100
AcDbEntity
  8
FP_DD60D$Fisher _ Paykel-2
100
AcDbCircle
 10
-261.9993239879608
 20
719.1982782363657
 30
0.0
 40
2.499992752075173
210
0.0
220
1.0
230
0.0
100
AcDbArc
 50
0.0
 51
180.0
  0
ARC
  5
D2
330
1F
100
AcDbEntity
  8
FP_DD60D$Fisher _ Paykel-2
100
AcDbCircle
 10
261.9993239879609
 20
719.1982782363657
 30
-10.00000053048134
 40
2.499992752075116
210
0.0
220
-1.0
230
0.0
100
AcDbArc
 50
0.0
 51
180.0
  0
ARC
  5
D3
330
1F
100
AcDbEntity
  8
FP_DD60D$Fisher _ Paykel-2
100
AcDbCircle
 10
261.9993239879608
 20
770.6980449676429
 30
0.0
 40
2.499992752075173
210
0.0
220
-1.0
230
0.0
100
AcDbArc
 50
180.0000000000026
 51
0.0
  0
LINE
  5
D4
330
1F
100
AcDbEntity
  8
FP_DD60D$Fisher _ Paykel-2
100
AcDbLine
 10
264.499316740036
 20
0.0
 30
770.6980449676428
 11
264.499316740036
 21
10.00000053048134
 31
770.6980449676428
  0
ARC
  5
D5
330
1F
100
AcDbEntity
  8
FP_DD60D$Fisher _ Paykel-2
100
AcDbCircle
 10
-261.9993239879608
 20
770.6980449676429
 30
10.00000053048134
 40
2.499992752075173
210
0.0
220
1.0
230
0.0
100
AcDbArc
 50
180.0000000000026
 51
0.0
  0
LINE
  5
D6
330
1F
100
AcDbEntity
  8
FP_DD60D$Fisher _ Paykel-2
100
AcDbLine
 10
259.4993312358857
 20
10.00000053048134
 30
770.6980449676428
 11
259.4993312358857
 21
0.0
 31
770.6980449676428
  0
ARC
  5
D7
330
1F
100
AcDbEntity
  8
FP_DD60D$Fisher _ Paykel-2
100
AcDbCircle
 10
-261.9993239879608
 20
770.6980449676428
 30
0.0
 40
2.499992752075173
210
0.0
220
1.0
230
0.0
100
AcDbArc
 50
0.0
 51
180.0
  0
ARC
  5
D8
330
1F
100
AcDbEntity
  8
FP_DD60D$Fisher _ Paykel-2
100
AcDbCircle
 10
261.9993239879609
 20
770.6980449676428
 30
-10.00000053048134
 40
2.499992752075116
210
0.0
220
-1.0
230
0.0
100
AcDbArc
 50
0.0
 51
180.0
  0
ARC
  5
D9
330
1F
100
AcDbEntity
  8
FP_DD60D$Fisher _ Paykel-2
100
AcDbCircle
 10
240.9993703365363
 20
804.1978897094647
 30
0.0
 40
2.499992752075173
210
0.0
220
-1.0
230
0.0
100
AcDbArc
 50
180.0
 51
0.0
  0
LINE
  5
DA
330
1F
100
AcDbEntity
  8
FP_DD60D$Fisher _ Paykel-2
100
AcDbLine
 10
243.4993630886115
 20
0.0
 30
804.1978897094647
 11
243.4993630886115
 21
10.00000053048134
 31
804.1978897094647
  0
ARC
  5
DB
330
1F
100
AcDbEntity
  8
FP_DD60D$Fisher _ Paykel-2
100
AcDbCircle
 10
-240.9993703365363
 20
804.1978897094647
 30
10.00000053048134
 40
2.499992752075173
210
0.0
220
1.0
230
0.0
100
AcDbArc
 50
180.0
 51
0.0
  0
LINE
  5
DC
330
1F
100
AcDbEntity
  8
FP_DD60D$Fisher _ Paykel-2
100
AcDbLine
 10
238.4993775844612
 20
10.00000053048134
 30
804.1978897094647
 11
238.4993775844612
 21
0.0
 31
804.1978897094647
  0
ARC
  5
DD
330
1F
100
AcDbEntity
  8
FP_DD60D$Fisher _ Paykel-2
100
AcDbCircle
 10
240.9993703365363
 20
804.1978897094647
 30
0.0
 40
2.499992752075173
210
0.0
220
-1.0
230
0.0
100
AcDbArc
 50
0.0
 51
180.0
  0
ARC
  5
DE
330
1F
100
AcDbEntity
  8
FP_DD60D$Fisher _ Paykel-2
100
AcDbCircle
 10
-240.9993703365363
 20
804.1978897094647
 30
10.00000053048134
 40
2.499992752075173
210
0.0
220
1.0
230
0.0
100
AcDbArc
 50
0.0
 51
180.0
  0
SPLINE
  5
DF
330
1F
100
AcDbEntity
  8
FP_DD60D$Fisher _ Paykel-2
100
AcDbSpline
210
0.0
220
0.0
230
1.0
 70
    24
 71
     2
 72
     6
 73
     3
 74
     0
 42
0.0000000001
 43
0.0000000001
 40
-0.0787401795387261
 40
-0.0787401795387261
 40
-0.0787401795387261
 40
0.0
 40
0.0
 40
0.0
 10
274.0000086307523
 20
0.0
 30
583.2000023841603
 10
262.0000052690505
 20
0.0
 30
583.2000023841603
 10
250.0000019073486
 20
0.0
 30
583.2000023841603
  0
SPLINE
  5
E0
330
1F
100
AcDbEntity
  8
FP_DD60D$Fisher _ Paykel-2
100
AcDbSpline
210
0.0
220
0.0
230
1.0
 70
    24
 71
     2
 72
     6
 73
     3
 74
     0
 42
0.0000000001
 43
0.0000000001
 40
-0.0328084006905556
 40
-0.0328084006905556
 40
-0.0328084006905556
 40
0.0
 40
0.0
 40
0.0
 10
250.0000019073486
 20
0.0
 30
583.2000023841603
 10
250.0000019073486
 20
5.000000265240669
 30
583.2000023841603
 10
250.0000019073486
 20
10.00000053048134
 30
583.2000023841603
  0
SPLINE
  5
E1
330
1F
100
AcDbEntity
  8
FP_DD60D$Fisher _ Paykel-2
100
AcDbSpline
210
0.0
220
0.0
230
1.0
 70
    24
 71
     2
 72
     6
 73
     3
 74
     0
 42
0.0000000001
 43
0.0000000001
 40
-0.0787401795387261
 40
-0.0787401795387261
 40
-0.0787401795387261
 40
0.0
 40
0.0
 40
0.0
 10
250.0000019073486
 20
10.00000053048134
 30
583.2000023841603
 10
262.0000052690505
 20
10.00000053048134
 30
583.2000023841603
 10
274.0000086307523
 20
10.00000053048134
 30
583.2000023841603
  0
SPLINE
  5
E2
330
1F
100
AcDbEntity
  8
FP_DD60D$Fisher _ Paykel-2
100
AcDbSpline
210
0.0
220
0.0
230
1.0
 70
    24
 71
     2
 72
     6
 73
     3
 74
     0
 42
0.0000000001
 43
0.0000000001
 40
-0.0328084006905556
 40
-0.0328084006905556
 40
-0.0328084006905556
 40
0.0
 40
0.0
 40
0.0
 10
274.0000086307523
 20
10.00000053048134
 30
583.2000023841603
 10
274.0000086307523
 20
5.000000265240669
 30
583.2000023841603
 10
274.0000086307523
 20
0.0
 30
583.2000023841603
  0
ARC
  5
E3
330
1F
100
AcDbEntity
  8
FP_DD60D$Fisher _ Paykel-2
100
AcDbCircle
 10
-261.9993239879608
 20
719.1982782363852
 30
0.0
 40
2.499992752075173
210
0.0
220
-1.0
230
0.0
100
AcDbArc
 50
180.0
 51
0.0
  0
LINE
  5
E4
330
1F
100
AcDbEntity
  8
FP_DD60D$Fisher _ Paykel-2
100
AcDbLine
 10
-259.4993312358856
 20
0.0
 30
719.1982782363852
 11
-259.4993312358856
 21
10.00000053048134
 31
719.1982782363852
  0
ARC
  5
E5
330
1F
100
AcDbEntity
  8
FP_DD60D$Fisher _ Paykel-2
100
AcDbCircle
 10
261.9993239879609
 20
719.1982782363852
 30
10.00000053048134
 40
2.499992752075229
210
0.0
220
1.0
230
0.0
100
AcDbArc
 50
180.0
 51
0.0
  0
LINE
  5
E6
330
1F
100
AcDbEntity
  8
FP_DD60D$Fisher _ Paykel-2
100
AcDbLine
 10
-264.499316740036
 20
10.00000053048134
 30
719.1982782363852
 11
-264.499316740036
 21
0.0
 31
719.1982782363852
  0
ARC
  5
E7
330
1F
100
AcDbEntity
  8
FP_DD60D$Fisher _ Paykel-2
100
AcDbCircle
 10
261.9993239879609
 20
719.1982782363852
 30
0.0
 40
2.499992752075173
210
0.0
220
1.0
230
0.0
100
AcDbArc
 50
0.0
 51
180.0
  0
ARC
  5
E8
330
1F
100
AcDbEntity
  8
FP_DD60D$Fisher _ Paykel-2
100
AcDbCircle
 10
261.9993239879609
 20
719.1982782363852
 30
10.00000053048134
 40
2.499992752075173
210
0.0
220
1.0
230
0.0
100
AcDbArc
 50
0.0
 51
180.0
  0
ARC
  5
E9
330
1F
100
AcDbEntity
  8
FP_DD60D$Fisher _ Paykel-2
100
AcDbCircle
 10
-261.9993239879608
 20
770.6980449676428
 30
0.0
 40
2.499992752075173
210
0.0
220
-1.0
230
0.0
100
AcDbArc
 50
180.0
 51
0.0
  0
LINE
  5
EA
330
1F
100
AcDbEntity
  8
FP_DD60D$Fisher _ Paykel-2
100
AcDbLine
 10
-259.4993312358856
 20
0.0
 30
770.6980449676428
 11
-259.4993312358856
 21
10.00000053048134
 31
770.6980449676428
  0
ARC
  5
EB
330
1F
100
AcDbEntity
  8
FP_DD60D$Fisher _ Paykel-2
100
AcDbCircle
 10
261.9993239879609
 20
770.6980449676428
 30
10.00000053048134
 40
2.499992752075229
210
0.0
220
1.0
230
0.0
100
AcDbArc
 50
180.0
 51
0.0
  0
LINE
  5
EC
330
1F
100
AcDbEntity
  8
FP_DD60D$Fisher _ Paykel-2
100
AcDbLine
 10
-264.499316740036
 20
10.00000053048134
 30
770.6980449676428
 11
-264.499316740036
 21
0.0
 31
770.6980449676428
  0
ARC
  5
ED
330
1F
100
AcDbEntity
  8
FP_DD60D$Fisher _ Paykel-2
100
AcDbCircle
 10
-261.9993239879607
 20
770.6980449676429
 30
0.0
 40
2.499992752075229
210
0.0
220
-1.0
230
0.0
100
AcDbArc
 50
359.9999999999974
 51
180.0
  0
ARC
  5
EE
330
1F
100
AcDbEntity
  8
FP_DD60D$Fisher _ Paykel-2
100
AcDbCircle
 10
-261.9993239879607
 20
770.6980449676429
 30
-10.00000053048134
 40
2.499992752075229
210
0.0
220
-1.0
230
0.0
100
AcDbArc
 50
359.9999999999974
 51
180.0
  0
ARC
  5
EF
330
1F
100
AcDbEntity
  8
FP_DD60D$Fisher _ Paykel-2
100
AcDbCircle
 10
-240.9993703365363
 20
804.1978897094647
 30
0.0
 40
2.499992752075173
210
0.0
220
-1.0
230
0.0
100
AcDbArc
 50
180.0
 51
0.0
  0
LINE
  5
F0
330
1F
100
AcDbEntity
  8
FP_DD60D$Fisher _ Paykel-2
100
AcDbLine
 10
-238.4993775844612
 20
0.0
 30
804.1978897094647
 11
-238.4993775844612
 21
10.00000053048134
 31
804.1978897094647
  0
ARC
  5
F1
330
1F
100
AcDbEntity
  8
FP_DD60D$Fisher _ Paykel-2
100
AcDbCircle
 10
240.9993703365363
 20
804.1978897094647
 30
10.00000053048134
 40
2.499992752075173
210
0.0
220
1.0
230
0.0
100
AcDbArc
 50
180.0
 51
0.0
  0
LINE
  5
F2
330
1F
100
AcDbEntity
  8
FP_DD60D$Fisher _ Paykel-2
100
AcDbLine
 10
-243.4993630886115
 20
10.00000053048134
 30
804.1978897094647
 11
-243.4993630886115
 21
0.0
 31
804.1978897094647
  0
ARC
  5
F3
330
1F
100
AcDbEntity
  8
FP_DD60D$Fisher _ Paykel-2
100
AcDbCircle
 10
-240.9993703365363
 20
804.1978897094647
 30
0.0
 40
2.499992752075173
210
0.0
220
-1.0
230
0.0
100
AcDbArc
 50
0.0
 51
180.0
  0
ARC
  5
F4
330
1F
100
AcDbEntity
  8
FP_DD60D$Fisher _ Paykel-2
100
AcDbCircle
 10
240.9993703365363
 20
804.1978897094647
 30
10.00000053048134
 40
2.499992752075173
210
0.0
220
1.0
230
0.0
100
AcDbArc
 50
0.0
 51
180.0
  0
SPLINE
  5
F5
330
1F
100
AcDbEntity
  8
FP_DD60D$Fisher _ Paykel-2
100
AcDbSpline
210
0.0
220
0.0
230
1.0
 70
    24
 71
     2
 72
     6
 73
     3
 74
     0
 42
0.0000000001
 43
0.0000000001
 40
-0.7650917874859379
 40
-0.7650917874859379
 40
-0.7650917874859379
 40
0.0
 40
0.0
 40
0.0
 10
-273.9999904632573
 20
0.0
 30
583.2000023841795
 10
-273.9999904632573
 20
0.0
 30
699.7999907970363
 10
-273.9999904632573
 20
0.0
 30
816.3999792098932
  0
SPLINE
  5
F6
330
1F
100
AcDbEntity
  8
FP_DD60D$Fisher _ Paykel-2
100
AcDbSpline
210
0.0
220
0.0
230
1.0
 70
    24
 71
     2
 72
     6
 73
     3
 74
     0
 42
0.0000000001
 43
0.0000000001
 40
-0.0328084006905556
 40
-0.0328084006905556
 40
-0.0328084006905556
 40
0.0
 40
0.0
 40
0.0
 10
-273.9999904632573
 20
0.0
 30
816.3999792098932
 10
-273.9999904632573
 20
5.000000265240669
 30
816.3999792098932
 10
-273.9999904632573
 20
10.00000053048134
 30
816.3999792098932
  0
SPLINE
  5
F7
330
1F
100
AcDbEntity
  8
FP_DD60D$Fisher _ Paykel-2
100
AcDbSpline
210
0.0
220
0.0
230
1.0
 70
    24
 71
     2
 72
     6
 73
     3
 74
     0
 42
0.0000000001
 43
0.0000000001
 40
-0.7650917874859379
 40
-0.7650917874859379
 40
-0.7650917874859379
 40
0.0
 40
0.0
 40
0.0
 10
-273.9999904632573
 20
10.00000053048134
 30
816.3999792098932
 10
-273.9999904632573
 20
10.00000053048134
 30
699.7999907970363
 10
-273.9999904632573
 20
10.00000053048134
 30
583.2000023841795
  0
SPLINE
  5
F8
330
1F
100
AcDbEntity
  8
FP_DD60D$Fisher _ Paykel-2
100
AcDbSpline
210
0.0
220
0.0
230
1.0
 70
    24
 71
     2
 72
     6
 73
     3
 74
     0
 42
0.0000000001
 43
0.0000000001
 40
-0.0328084006905556
 40
-0.0328084006905556
 40
-0.0328084006905556
 40
0.0
 40
0.0
 40
0.0
 10
-273.9999904632573
 20
10.00000053048134
 30
583.2000023841795
 10
-273.9999904632573
 20
5.000000265240669
 30
583.2000023841795
 10
-273.9999904632573
 20
0.0
 30
583.2000023841795
  0
SPLINE
  5
F9
330
1F
100
AcDbEntity
  8
FP_DD60D$Fisher _ Paykel-2
100
AcDbSpline
210
0.0
220
0.0
230
1.0
 70
    24
 71
     2
 72
     6
 73
     3
 74
     0
 42
0.0000000001
 43
0.0000000001
 40
-1.797900259494782
 40
-1.797900259494782
 40
-1.797900259494782
 40
0.0
 40
0.0
 40
0.0
 10
-273.9999904632573
 20
0.0
 30
816.3999792098932
 10
0.0000090837475
 20
0.0
 30
816.3999792098932
 10
274.0000086307523
 20
0.0
 30
816.3999792098932
  0
SPLINE
  5
FA
330
1F
100
AcDbEntity
  8
FP_DD60D$Fisher _ Paykel-2
100
AcDbSpline
210
0.0
220
0.0
230
1.0
 70
    24
 71
     2
 72
     6
 73
     3
 74
     0
 42
0.0000000001
 43
0.0000000001
 40
-0.0328084006905556
 40
-0.0328084006905556
 40
-0.0328084006905556
 40
0.0
 40
0.0
 40
0.0
 10
274.0000086307523
 20
0.0
 30
816.3999792098932
 10
274.0000086307523
 20
5.000000265240669
 30
816.3999792098932
 10
274.0000086307523
 20
10.00000053048134
 30
816.3999792098932
  0
SPLINE
  5
FB
330
1F
100
AcDbEntity
  8
FP_DD60D$Fisher _ Paykel-2
100
AcDbSpline
210
0.0
220
0.0
230
1.0
 70
    24
 71
     2
 72
     6
 73
     3
 74
     0
 42
0.0000000001
 43
0.0000000001
 40
-1.797900259494782
 40
-1.797900259494782
 40
-1.797900259494782
 40
0.0
 40
0.0
 40
0.0
 10
274.0000086307523
 20
10.00000053048134
 30
816.3999792098932
 10
0.0000090837475
 20
10.00000053048134
 30
816.3999792098932
 10
-273.9999904632573
 20
10.00000053048134
 30
816.3999792098932
  0
SPLINE
  5
FC
330
1F
100
AcDbEntity
  8
FP_DD60D$Fisher _ Paykel-2
100
AcDbSpline
210
0.0
220
0.0
230
1.0
 70
    24
 71
     2
 72
     6
 73
     3
 74
     0
 42
0.0000000001
 43
0.0000000001
 40
-0.7650917874860008
 40
-0.7650917874860008
 40
-0.7650917874860008
 40
0.0
 40
0.0
 40
0.0
 10
274.0000086307523
 20
0.0
 30
816.3999792098932
 10
274.0000086307523
 20
0.0
 30
699.7999907970268
 10
274.0000086307523
 20
0.0
 30
583.2000023841603
  0
SPLINE
  5
FD
330
1F
100
AcDbEntity
  8
FP_DD60D$Fisher _ Paykel-2
100
AcDbSpline
210
0.0
220
0.0
230
1.0
 70
    24
 71
     2
 72
     6
 73
     3
 74
     0
 42
0.0000000001
 43
0.0000000001
 40
-0.7650917874860008
 40
-0.7650917874860008
 40
-0.7650917874860008
 40
0.0
 40
0.0
 40
0.0
 10
274.0000086307523
 20
10.00000053048134
 30
583.2000023841603
 10
274.0000086307523
 20
10.00000053048134
 30
699.7999907970268
 10
274.0000086307523
 20
10.00000053048134
 30
816.3999792098932
  0
SPLINE
  5
FE
330
1F
100
AcDbEntity
  8
FP_DD60D$Fisher _ Paykel-2
100
AcDbSpline
210
0.0
220
0.0
230
1.0
 70
    24
 71
     2
 72
     6
 73
     3
 74
     0
 42
0.0000000001
 43
0.0000000001
 40
-0.4173614978790283
 40
-0.4173614978790283
 40
-0.4173614978790283
 40
0.0
 40
0.0
 40
0.0
 10
250.0000019073486
 20
0.0
 30
583.2000023841603
 10
250.0000019073486
 20
0.0
 30
519.5941101073963
 10
250.0000019073486
 20
0.0
 30
455.9882178306324
  0
SPLINE
  5
FF
330
1F
100
AcDbEntity
  8
FP_DD60D$Fisher _ Paykel-2
100
AcDbSpline
210
0.0
220
0.0
230
1.0
 70
    24
 71
     2
 72
     6
 73
     3
 74
     0
 42
0.0000000001
 43
0.0000000001
 40
-0.0328084006905556
 40
-0.0328084006905556
 40
-0.0328084006905556
 40
0.0
 40
0.0
 40
0.0
 10
250.0000019073486
 20
0.0
 30
455.9882178306324
 10
250.0000019073486
 20
5.000000265240669
 30
455.9882178306324
 10
250.0000019073486
 20
10.00000053048134
 30
455.9882178306324
  0
SPLINE
  5
100
330
1F
100
AcDbEntity
  8
FP_DD60D$Fisher _ Paykel-2
100
AcDbSpline
210
0.0
220
0.0
230
1.0
 70
    24
 71
     2
 72
     6
 73
     3
 74
     0
 42
0.0000000001
 43
0.0000000001
 40
-0.4173614978790283
 40
-0.4173614978790283
 40
-0.4173614978790283
 40
0.0
 40
0.0
 40
0.0
 10
250.0000019073486
 20
10.00000053048134
 30
455.9882178306324
 10
250.0000019073486
 20
10.00000053048134
 30
519.5941101073963
 10
250.0000019073486
 20
10.00000053048134
 30
583.2000023841603
  0
SPLINE
  5
101
330
1F
100
AcDbEntity
  8
FP_DD60D$Fisher _ Paykel-2
100
AcDbSpline
210
0.0
220
0.0
230
1.0
 70
    24
 71
     2
 72
     6
 73
     3
 74
     0
 42
0.0000000001
 43
0.0000000001
 40
-1.640419960021973
 40
-1.640419960021973
 40
-1.640419960021973
 40
0.0
 40
0.0
 40
0.0
 10
250.0000019073486
 20
0.0
 30
455.9882178306324
 10
-0.0000000000000853
 20
0.0
 30
455.9882178306324
 10
-250.0000019073488
 20
0.0
 30
455.9882178306324
  0
SPLINE
  5
102
330
1F
100
AcDbEntity
  8
FP_DD60D$Fisher _ Paykel-2
100
AcDbSpline
210
0.0
220
0.0
230
1.0
 70
    24
 71
     2
 72
     6
 73
     3
 74
     0
 42
0.0000000001
 43
0.0000000001
 40
-0.0328084006905556
 40
-0.0328084006905556
 40
-0.0328084006905556
 40
0.0
 40
0.0
 40
0.0
 10
-250.0000019073488
 20
0.0
 30
455.9882178306324
 10
-250.0000019073488
 20
5.000000265240669
 30
455.9882178306324
 10
-250.0000019073488
 20
10.00000053048134
 30
455.9882178306324
  0
SPLINE
  5
103
330
1F
100
AcDbEntity
  8
FP_DD60D$Fisher _ Paykel-2
100
AcDbSpline
210
0.0
220
0.0
230
1.0
 70
    24
 71
     2
 72
     6
 73
     3
 74
     0
 42
0.0000000001
 43
0.0000000001
 40
-1.640419960021973
 40
-1.640419960021973
 40
-1.640419960021973
 40
0.0
 40
0.0
 40
0.0
 10
-250.0000019073488
 20
10.00000053048134
 30
455.9882178306324
 10
-0.0000000000000853
 20
10.00000053048134
 30
455.9882178306324
 10
250.0000019073486
 20
10.00000053048134
 30
455.9882178306324
  0
SPLINE
  5
104
330
1F
100
AcDbEntity
  8
FP_DD60D$Fisher _ Paykel-2
100
AcDbSpline
210
0.0
220
0.0
230
1.0
 70
    24
 71
     2
 72
     6
 73
     3
 74
     0
 42
0.0000000001
 43
0.0000000001
 40
-0.4173614978790913
 40
-0.4173614978790913
 40
-0.4173614978790913
 40
0.0
 40
0.0
 40
0.0
 10
-250.0000019073488
 20
0.0
 30
455.9882178306324
 10
-250.0000019073488
 20
0.0
 30
519.5941101074059
 10
-250.0000019073488
 20
0.0
 30
583.2000023841795
  0
SPLINE
  5
105
330
1F
100
AcDbEntity
  8
FP_DD60D$Fisher _ Paykel-2
100
AcDbSpline
210
0.0
220
0.0
230
1.0
 70
    24
 71
     2
 72
     6
 73
     3
 74
     0
 42
0.0000000001
 43
0.0000000001
 40
-0.0328084006905556
 40
-0.0328084006905556
 40
-0.0328084006905556
 40
0.0
 40
0.0
 40
0.0
 10
-250.0000019073488
 20
0.0
 30
583.2000023841795
 10
-250.0000019073488
 20
5.000000265240669
 30
583.2000023841795
 10
-250.0000019073488
 20
10.00000053048134
 30
583.2000023841795
  0
SPLINE
  5
106
330
1F
100
AcDbEntity
  8
FP_DD60D$Fisher _ Paykel-2
100
AcDbSpline
210
0.0
220
0.0
230
1.0
 70
    24
 71
     2
 72
     6
 73
     3
 74
     0
 42
0.0000000001
 43
0.0000000001
 40
-0.4173614978790913
 40
-0.4173614978790913
 40
-0.4173614978790913
 40
0.0
 40
0.0
 40
0.0
 10
-250.0000019073488
 20
10.00000053048134
 30
583.2000023841795
 10
-250.0000019073488
 20
10.00000053048134
 30
519.5941101074059
 10
-250.0000019073488
 20
10.00000053048134
 30
455.9882178306324
  0
SPLINE
  5
107
330
1F
100
AcDbEntity
  8
FP_DD60D$Fisher _ Paykel-2
100
AcDbSpline
210
0.0
220
0.0
230
1.0
 70
    24
 71
     2
 72
     6
 73
     3
 74
     0
 42
0.0000000001
 43
0.0000000001
 40
-0.0787401199340831
 40
-0.0787401199340831
 40
-0.0787401199340831
 40
0.0
 40
0.0
 40
0.0
 10
-250.0000019073488
 20
0.0
 30
583.2000023841795
 10
-261.9999961853031
 20
0.0
 30
583.2000023841795
 10
-273.9999904632573
 20
0.0
 30
583.2000023841795
  0
SPLINE
  5
108
330
1F
100
AcDbEntity
  8
FP_DD60D$Fisher _ Paykel-2
100
AcDbSpline
210
0.0
220
0.0
230
1.0
 70
    24
 71
     2
 72
     6
 73
     3
 74
     0
 42
0.0000000001
 43
0.0000000001
 40
-0.0787401199340831
 40
-0.0787401199340831
 40
-0.0787401199340831
 40
0.0
 40
0.0
 40
0.0
 10
-273.9999904632573
 20
10.00000053048134
 30
583.2000023841795
 10
-261.9999961853031
 20
10.00000053048134
 30
583.2000023841795
 10
-250.0000019073488
 20
10.00000053048134
 30
583.2000023841795
  0
ARC
  5
109
330
1F
100
AcDbEntity
  8
FP_DD60D$Fisher _ Paykel-2
100
AcDbCircle
 10
-241.0000000000004
 20
406.9999999999895
 30
5.000000265240669
 40
2.500000000000057
210
0.0
220
1.0
230
0.0
100
AcDbArc
 50
180.0
 51
0.0
  0
LINE
  5
10A
330
1F
100
AcDbEntity
  8
FP_DD60D$Fisher _ Paykel-2
100
AcDbLine
 10
241.0000000000004
 20
0.0
 30
404.4999999999894
 11
241.0000000000004
 21
10.00000053048134
 31
404.4999999999894
  0
ARC
  5
10B
330
1F
100
AcDbEntity
  8
FP_DD60D$Fisher _ Paykel-2
100
AcDbCircle
 10
-241.0000000000004
 20
406.9999999999894
 30
5.000000265240669
 40
2.5
210
0.0
220
1.0
230
0.0
100
AcDbArc
 50
0.0
 51
180.0
  0
LINE
  5
10C
330
1F
100
AcDbEntity
  8
FP_DD60D$Fisher _ Paykel-2
100
AcDbLine
 10
241.0000000000004
 20
0.0
 30
409.4999999999894
 11
241.0000000000004
 21
10.00000053048134
 31
409.4999999999894
  0
ARC
  5
10D
330
1F
100
AcDbEntity
  8
FP_DD60D$Fisher _ Paykel-2
100
AcDbCircle
 10
-262.0000000000005
 20
373.4999999999895
 30
5.000000265240669
 40
2.5
210
0.0
220
1.0
230
0.0
100
AcDbArc
 50
180.0
 51
0.0
  0
LINE
  5
10E
330
1F
100
AcDbEntity
  8
FP_DD60D$Fisher _ Paykel-2
100
AcDbLine
 10
262.0000000000005
 20
0.0
 30
370.9999999999895
 11
262.0000000000005
 21
10.00000053048134
 31
370.9999999999895
  0
ARC
  5
10F
330
1F
100
AcDbEntity
  8
FP_DD60D$Fisher _ Paykel-2
100
AcDbCircle
 10
-262.0000000000004
 20
373.4999999999896
 30
5.000000265240669
 40
2.5
210
0.0
220
1.0
230
0.0
100
AcDbArc
 50
0.0
 51
180.0
  0
LINE
  5
110
330
1F
100
AcDbEntity
  8
FP_DD60D$Fisher _ Paykel-2
100
AcDbLine
 10
262.0000000000004
 20
0.0
 30
375.9999999999896
 11
262.0000000000004
 21
10.00000053048134
 31
375.9999999999896
  0
ARC
  5
111
330
1F
100
AcDbEntity
  8
FP_DD60D$Fisher _ Paykel-2
100
AcDbCircle
 10
-262.0000000000005
 20
277.9999999999893
 30
5.000000265240669
 40
2.5
210
0.0
220
1.0
230
0.0
100
AcDbArc
 50
180.0
 51
0.0
  0
LINE
  5
112
330
1F
100
AcDbEntity
  8
FP_DD60D$Fisher _ Paykel-2
100
AcDbLine
 10
262.0000000000005
 20
0.0
 30
275.4999999999893
 11
262.0000000000005
 21
10.00000053048134
 31
275.4999999999893
  0
ARC
  5
113
330
1F
100
AcDbEntity
  8
FP_DD60D$Fisher _ Paykel-2
100
AcDbCircle
 10
-262.0000000000004
 20
277.9999999999894
 30
5.000000265240669
 40
2.5
210
0.0
220
1.0
230
0.0
100
AcDbArc
 50
0.0
 51
180.0
  0
LINE
  5
114
330
1F
100
AcDbEntity
  8
FP_DD60D$Fisher _ Paykel-2
100
AcDbLine
 10
262.0000000000004
 20
0.0
 30
280.4999999999894
 11
262.0000000000004
 21
10.00000053048134
 31
280.4999999999894
  0
ARC
  5
115
330
1F
100
AcDbEntity
  8
FP_DD60D$Fisher _ Paykel-2
100
AcDbCircle
 10
241.0000000000004
 20
406.9999999999894
 30
5.000000265240669
 40
2.500000000000057
210
0.0
220
1.0
230
0.0
100
AcDbArc
 50
180.0
 51
0.0
  0
LINE
  5
116
330
1F
100
AcDbEntity
  8
FP_DD60D$Fisher _ Paykel-2
100
AcDbLine
 10
-241.0000000000004
 20
0.0
 30
404.4999999999894
 11
-241.0000000000004
 21
10.00000053048134
 31
404.4999999999894
  0
ARC
  5
117
330
1F
100
AcDbEntity
  8
FP_DD60D$Fisher _ Paykel-2
100
AcDbCircle
 10
241.0000000000004
 20
406.9999999999895
 30
5.000000265240669
 40
2.500000000000057
210
0.0
220
1.0
230
0.0
100
AcDbArc
 50
0.0
 51
180.0
  0
LINE
  5
118
330
1F
100
AcDbEntity
  8
FP_DD60D$Fisher _ Paykel-2
100
AcDbLine
 10
-241.0000000000004
 20
0.0
 30
409.4999999999895
 11
-241.0000000000004
 21
10.00000053048134
 31
409.4999999999895
  0
ARC
  5
119
330
1F
100
AcDbEntity
  8
FP_DD60D$Fisher _ Paykel-2
100
AcDbCircle
 10
262.0000000000004
 20
373.4999999999896
 30
5.000000265240669
 40
2.5
210
0.0
220
1.0
230
0.0
100
AcDbArc
 50
180.0
 51
0.0
  0
LINE
  5
11A
330
1F
100
AcDbEntity
  8
FP_DD60D$Fisher _ Paykel-2
100
AcDbLine
 10
-262.0000000000004
 20
0.0
 30
370.9999999999896
 11
-262.0000000000004
 21
10.00000053048134
 31
370.9999999999896
  0
ARC
  5
11B
330
1F
100
AcDbEntity
  8
FP_DD60D$Fisher _ Paykel-2
100
AcDbCircle
 10
262.0000000000005
 20
373.4999999999895
 30
5.000000265240669
 40
2.5
210
0.0
220
1.0
230
0.0
100
AcDbArc
 50
0.0
 51
180.0
  0
LINE
  5
11C
330
1F
100
AcDbEntity
  8
FP_DD60D$Fisher _ Paykel-2
100
AcDbLine
 10
-262.0000000000005
 20
0.0
 30
375.9999999999895
 11
-262.0000000000005
 21
10.00000053048134
 31
375.9999999999895
  0
ARC
  5
11D
330
1F
100
AcDbEntity
  8
FP_DD60D$Fisher _ Paykel-2
100
AcDbCircle
 10
262.0000000000004
 20
277.9999999999894
 30
5.000000265240669
 40
2.5
210
0.0
220
1.0
230
0.0
100
AcDbArc
 50
180.0
 51
0.0
  0
LINE
  5
11E
330
1F
100
AcDbEntity
  8
FP_DD60D$Fisher _ Paykel-2
100
AcDbLine
 10
-262.0000000000004
 20
0.0
 30
275.4999999999894
 11
-262.0000000000004
 21
10.00000053048134
 31
275.4999999999894
  0
ARC
  5
11F
330
1F
100
AcDbEntity
  8
FP_DD60D$Fisher _ Paykel-2
100
AcDbCircle
 10
262.0000000000005
 20
277.9999999999893
 30
5.000000265240669
 40
2.5
210
0.0
220
1.0
230
0.0
100
AcDbArc
 50
0.0
 51
180.0
  0
LINE
  5
120
330
1F
100
AcDbEntity
  8
FP_DD60D$Fisher _ Paykel-2
100
AcDbLine
 10
-262.0000000000005
 20
0.0
 30
280.4999999999893
 11
-262.0000000000005
 21
10.00000053048134
 31
280.4999999999893
  0
LINE
  5
121
330
1F
100
AcDbEntity
  8
FP_DD60D$Fisher _ Paykel-2
100
AcDbLine
 10
274.0000086307519
 20
0.0
 30
302.4999959707016
 11
274.0000086307519
 21
10.00000053048134
 31
302.4999959707016
  0
LINE
  5
122
330
1F
100
AcDbEntity
  8
FP_DD60D$Fisher _ Paykel-2
100
AcDbLine
 10
274.0000086307519
 20
5.000000265240669
 30
185.9999919414138
 11
274.0000086307519
 21
5.000000265240669
 31
418.9999999999895
  0
LINE
  5
123
330
1F
100
AcDbEntity
  8
FP_DD60D$Fisher _ Paykel-2
100
AcDbLine
 10
262.00000526905
 20
0.0
 30
185.9999919414138
 11
262.00000526905
 21
10.00000053048134
 31
185.9999919414138
  0
LINE
  5
124
330
1F
100
AcDbEntity
  8
FP_DD60D$Fisher _ Paykel-2
100
AcDbLine
 10
250.0000019073482
 20
5.000000265240669
 30
185.9999919414138
 11
274.0000086307519
 21
5.000000265240669
 31
185.9999919414138
  0
LINE
  5
125
330
1F
100
AcDbEntity
  8
FP_DD60D$Fisher _ Paykel-2
100
AcDbLine
 10
250.0000019073482
 20
0.0
 30
162.9999780594905
 11
250.0000019073482
 21
10.00000053048134
 31
162.9999780594905
  0
LINE
  5
126
330
1F
100
AcDbEntity
  8
FP_DD60D$Fisher _ Paykel-2
100
AcDbLine
 10
250.0000019073482
 20
5.000000265240669
 30
139.9999641775673
 11
250.0000019073482
 21
5.000000265240669
 31
185.9999919414137
  0
LINE
  5
127
330
1F
100
AcDbEntity
  8
FP_DD60D$Fisher _ Paykel-2
100
AcDbLine
 10
-0.0000000000003695
 20
0.0
 30
139.9999641775673
 11
-0.0000000000003695
 21
10.00000053048134
 31
139.9999641775673
  0
LINE
  5
128
330
1F
100
AcDbEntity
  8
FP_DD60D$Fisher _ Paykel-2
100
AcDbLine
 10
-250.0000019073489
 20
5.000000265240669
 30
139.9999641775673
 11
250.0000019073482
 21
5.000000265240669
 31
139.9999641775673
  0
LINE
  5
129
330
1F
100
AcDbEntity
  8
FP_DD60D$Fisher _ Paykel-2
100
AcDbLine
 10
-250.0000019073489
 20
0.0
 30
162.9999780595006
 11
-250.0000019073489
 21
10.00000053048134
 31
162.9999780595006
  0
LINE
  5
12A
330
1F
100
AcDbEntity
  8
FP_DD60D$Fisher _ Paykel-2
100
AcDbLine
 10
-250.0000019073489
 20
5.000000265240669
 30
185.9999919414338
 11
-250.0000019073489
 21
5.000000265240669
 31
139.9999641775673
  0
LINE
  5
12B
330
1F
100
AcDbEntity
  8
FP_DD60D$Fisher _ Paykel-2
100
AcDbLine
 10
-261.9999961853032
 20
0.0
 30
185.9999919414338
 11
-261.9999961853032
 21
10.00000053048134
 31
185.9999919414338
  0
LINE
  5
12C
330
1F
100
AcDbEntity
  8
FP_DD60D$Fisher _ Paykel-2
100
AcDbLine
 10
-273.9999904632576
 20
5.000000265240669
 30
185.9999919414338
 11
-250.0000019073489
 21
5.000000265240669
 31
185.9999919414338
  0
LINE
  5
12D
330
1F
100
AcDbEntity
  8
FP_DD60D$Fisher _ Paykel-2
100
AcDbLine
 10
-273.9999904632576
 20
0.0
 30
302.4999959707117
 11
-273.9999904632576
 21
10.00000053048134
 31
302.4999959707117
  0
LINE
  5
12E
330
1F
100
AcDbEntity
  8
FP_DD60D$Fisher _ Paykel-2
100
AcDbLine
 10
-273.9999904632576
 20
5.000000265240669
 30
418.9999999999895
 11
-273.9999904632576
 21
5.000000265240669
 31
185.9999919414338
  0
LINE
  5
12F
330
1F
100
AcDbEntity
  8
FP_DD60D$Fisher _ Paykel-2
100
AcDbLine
 10
0.0000090837471589
 20
0.0
 30
418.9999999999895
 11
0.0000090837471589
 21
10.00000053048134
 31
418.9999999999895
  0
LINE
  5
130
330
1F
100
AcDbEntity
  8
FP_DD60D$Fisher _ Paykel-2
100
AcDbLine
 10
274.0000086307519
 20
5.000000265240669
 30
418.9999999999895
 11
-273.9999904632576
 21
5.000000265240669
 31
418.9999999999895
  0
LINE
  5
131
330
1F
100
AcDbEntity
  8
FP_DD60D$Fisher _ Paykel-2
100
AcDbLine
 10
274.0000086307519
 20
10.00000053048134
 30
279.4999820887784
 11
264.0000134332833
 21
10.00000053048134
 31
279.4999820887784
  0
LINE
  5
132
330
1F
100
AcDbEntity
  8
FP_DD60D$Fisher _ Paykel-2
100
AcDbLine
 10
259.9999865667176
 20
10.00000053048134
 30
279.4999820887784
 11
-259.9999865667177
 21
10.00000053048134
 31
279.4999820887784
  0
LINE
  5
133
330
1F
100
AcDbEntity
  8
FP_DD60D$Fisher _ Paykel-2
100
AcDbLine
 10
-264.0000134332832
 20
10.00000053048134
 30
279.4999820887784
 11
-273.9999904632576
 21
10.00000053048134
 31
279.4999820887784
  0
LINE
  5
134
330
1F
100
AcDbEntity
  8
FP_DD60D$Fisher _ Paykel-2
100
AcDbLine
 10
0.0000090837471589
 20
10.00000053048134
 30
139.9999641775673
 11
0.0000090837471589
 21
10.00000053048134
 31
418.9999999999895
  0
LINE
  5
135
330
1F
100
AcDbEntity
  8
FP_DD60D$Fisher _ Paykel-2
100
AcDbLine
 10
-273.9999904632576
 20
0.0
 30
279.4999820887784
 11
-264.0000134332831
 21
0.0
 31
279.4999820887784
  0
LINE
  5
136
330
1F
100
AcDbEntity
  8
FP_DD60D$Fisher _ Paykel-2
100
AcDbLine
 10
-259.9999865667177
 20
0.0
 30
279.4999820887784
 11
259.9999865667179
 21
0.0
 31
279.4999820887784
  0
LINE
  5
137
330
1F
100
AcDbEntity
  8
FP_DD60D$Fisher _ Paykel-2
100
AcDbLine
 10
264.0000134332831
 20
0.0
 30
279.4999820887784
 11
274.0000086307519
 21
0.0
 31
279.4999820887784
  0
LINE
  5
138
330
1F
100
AcDbEntity
  8
FP_DD60D$Fisher _ Paykel-2
100
AcDbLine
 10
0.0000090837471589
 20
0.0
 30
139.9999641775673
 11
0.0000090837471589
 21
0.0
 31
418.9999999999895
  0
ARC
  5
139
330
1F
100
AcDbEntity
  8
FP_DD60D$Fisher _ Paykel-2
100
AcDbCircle
 10
-261.9993239879608
 20
719.1982782363658
 30
5.000000265240669
 40
2.499992752075173
210
0.0
220
1.0
230
0.0
100
AcDbArc
 50
180.0
 51
0.0
  0
LINE
  5
13A
330
1F
100
AcDbEntity
  8
FP_DD60D$Fisher _ Paykel-2
100
AcDbLine
 10
261.9993239879608
 20
0.0
 30
716.6982854842906
 11
261.9993239879608
 21
10.00000053048134
 31
716.6982854842906
  0
ARC
  5
13B
330
1F
100
AcDbEntity
  8
FP_DD60D$Fisher _ Paykel-2
100
AcDbCircle
 10
-261.9993239879608
 20
719.1982782363657
 30
5.000000265240669
 40
2.499992752075059
210
0.0
220
1.0
230
0.0
100
AcDbArc
 50
0.0
 51
180.0
  0
LINE
  5
13C
330
1F
100
AcDbEntity
  8
FP_DD60D$Fisher _ Paykel-2
100
AcDbLine
 10
261.9993239879608
 20
0.0
 30
721.6982709884408
 11
261.9993239879608
 21
10.00000053048134
 31
721.6982709884408
  0
ARC
  5
13D
330
1F
100
AcDbEntity
  8
FP_DD60D$Fisher _ Paykel-2
100
AcDbCircle
 10
-261.9993239879608
 20
770.6980449676429
 30
5.000000265240669
 40
2.499992752075173
210
0.0
220
1.0
230
0.0
100
AcDbArc
 50
180.0
 51
0.0
  0
LINE
  5
13E
330
1F
100
AcDbEntity
  8
FP_DD60D$Fisher _ Paykel-2
100
AcDbLine
 10
261.9993239879608
 20
0.0
 30
768.1980522155677
 11
261.9993239879608
 21
10.00000053048134
 31
768.1980522155677
  0
ARC
  5
13F
330
1F
100
AcDbEntity
  8
FP_DD60D$Fisher _ Paykel-2
100
AcDbCircle
 10
-261.9993239879608
 20
770.6980449676428
 30
5.000000265240669
 40
2.499992752075059
210
0.0
220
1.0
230
0.0
100
AcDbArc
 50
0.0
 51
180.0
  0
LINE
  5
140
330
1F
100
AcDbEntity
  8
FP_DD60D$Fisher _ Paykel-2
100
AcDbLine
 10
261.9993239879608
 20
0.0
 30
773.1980377197178
 11
261.9993239879608
 21
10.00000053048134
 31
773.1980377197178
  0
ARC
  5
141
330
1F
100
AcDbEntity
  8
FP_DD60D$Fisher _ Paykel-2
100
AcDbCircle
 10
-240.9993703365363
 20
804.1978897094647
 30
5.000000265240669
 40
2.499992752075173
210
0.0
220
1.0
230
0.0
100
AcDbArc
 50
180.0
 51
0.0
  0
LINE
  5
142
330
1F
100
AcDbEntity
  8
FP_DD60D$Fisher _ Paykel-2
100
AcDbLine
 10
240.9993703365363
 20
0.0
 30
801.6978969573895
 11
240.9993703365363
 21
10.00000053048134
 31
801.6978969573895
  0
ARC
  5
143
330
1F
100
AcDbEntity
  8
FP_DD60D$Fisher _ Paykel-2
100
AcDbCircle
 10
-240.9993703365363
 20
804.1978897094647
 30
5.000000265240669
 40
2.499992752075173
210
0.0
220
1.0
230
0.0
100
AcDbArc
 50
0.0
 51
180.0
  0
LINE
  5
144
330
1F
100
AcDbEntity
  8
FP_DD60D$Fisher _ Paykel-2
100
AcDbLine
 10
240.9993703365363
 20
0.0
 30
806.6978824615398
 11
240.9993703365363
 21
10.00000053048134
 31
806.6978824615398
  0
LINE
  5
145
330
1F
100
AcDbEntity
  8
FP_DD60D$Fisher _ Paykel-2
100
AcDbLine
 10
262.0000052690505
 20
0.0
 30
583.2000023841603
 11
262.0000052690505
 21
10.00000053048134
 31
583.2000023841603
  0
LINE
  5
146
330
1F
100
AcDbEntity
  8
FP_DD60D$Fisher _ Paykel-2
100
AcDbLine
 10
250.0000019073487
 20
5.000000265240669
 30
583.2000023841603
 11
274.0000086307523
 21
5.000000265240669
 31
583.2000023841603
  0
ARC
  5
147
330
1F
100
AcDbEntity
  8
FP_DD60D$Fisher _ Paykel-2
100
AcDbCircle
 10
261.9993239879608
 20
719.1982782363852
 30
5.000000265240669
 40
2.499992752075286
210
0.0
220
1.0
230
0.0
100
AcDbArc
 50
180.0
 51
0.0
  0
LINE
  5
148
330
1F
100
AcDbEntity
  8
FP_DD60D$Fisher _ Paykel-2
100
AcDbLine
 10
-261.9993239879608
 20
0.0
 30
716.69828548431
 11
-261.9993239879608
 21
10.00000053048134
 31
716.69828548431
  0
ARC
  5
149
330
1F
100
AcDbEntity
  8
FP_DD60D$Fisher _ Paykel-2
100
AcDbCircle
 10
261.9993239879609
 20
719.1982782363852
 30
5.000000265240669
 40
2.499992752075173
210
0.0
220
1.0
230
0.0
100
AcDbArc
 50
0.0
 51
180.0
  0
LINE
  5
14A
330
1F
100
AcDbEntity
  8
FP_DD60D$Fisher _ Paykel-2
100
AcDbLine
 10
-261.9993239879609
 20
0.0
 30
721.6982709884604
 11
-261.9993239879609
 21
10.00000053048134
 31
721.6982709884604
  0
ARC
  5
14B
330
1F
100
AcDbEntity
  8
FP_DD60D$Fisher _ Paykel-2
100
AcDbCircle
 10
261.9993239879608
 20
770.6980449676428
 30
5.000000265240669
 40
2.499992752075286
210
0.0
220
1.0
230
0.0
100
AcDbArc
 50
180.0
 51
0.0
  0
LINE
  5
14C
330
1F
100
AcDbEntity
  8
FP_DD60D$Fisher _ Paykel-2
100
AcDbLine
 10
-261.9993239879608
 20
0.0
 30
768.1980522155675
 11
-261.9993239879608
 21
10.00000053048134
 31
768.1980522155675
  0
ARC
  5
14D
330
1F
100
AcDbEntity
  8
FP_DD60D$Fisher _ Paykel-2
100
AcDbCircle
 10
261.9993239879608
 20
770.6980449676429
 30
5.000000265240669
 40
2.499992752075173
210
0.0
220
1.0
230
0.0
100
AcDbArc
 50
0.0
 51
180.0
  0
LINE
  5
14E
330
1F
100
AcDbEntity
  8
FP_DD60D$Fisher _ Paykel-2
100
AcDbLine
 10
-261.9993239879608
 20
0.0
 30
773.1980377197181
 11
-261.9993239879608
 21
10.00000053048134
 31
773.1980377197181
  0
ARC
  5
14F
330
1F
100
AcDbEntity
  8
FP_DD60D$Fisher _ Paykel-2
100
AcDbCircle
 10
240.9993703365363
 20
804.1978897094647
 30
5.000000265240669
 40
2.499992752075173
210
0.0
220
1.0
230
0.0
100
AcDbArc
 50
180.0
 51
0.0
  0
LINE
  5
150
330
1F
100
AcDbEntity
  8
FP_DD60D$Fisher _ Paykel-2
100
AcDbLine
 10
-240.9993703365363
 20
0.0
 30
801.6978969573895
 11
-240.9993703365363
 21
10.00000053048134
 31
801.6978969573895
  0
ARC
  5
151
330
1F
100
AcDbEntity
  8
FP_DD60D$Fisher _ Paykel-2
100
AcDbCircle
 10
240.9993703365363
 20
804.1978897094647
 30
5.000000265240669
 40
2.499992752075173
210
0.0
220
1.0
230
0.0
100
AcDbArc
 50
0.0
 51
180.0
  0
LINE
  5
152
330
1F
100
AcDbEntity
  8
FP_DD60D$Fisher _ Paykel-2
100
AcDbLine
 10
-240.9993703365363
 20
0.0
 30
806.6978824615398
 11
-240.9993703365363
 21
10.00000053048134
 31
806.6978824615398
  0
LINE
  5
153
330
1F
100
AcDbEntity
  8
FP_DD60D$Fisher _ Paykel-2
100
AcDbLine
 10
-273.9999904632573
 20
0.0
 30
699.7999907970363
 11
-273.9999904632573
 21
10.00000053048134
 31
699.7999907970363
  0
LINE
  5
154
330
1F
100
AcDbEntity
  8
FP_DD60D$Fisher _ Paykel-2
100
AcDbLine
 10
-273.9999904632573
 20
5.000000265240669
 30
816.3999792098933
 11
-273.9999904632573
 21
5.000000265240669
 31
583.2000023841795
  0
LINE
  5
155
330
1F
100
AcDbEntity
  8
FP_DD60D$Fisher _ Paykel-2
100
AcDbLine
 10
0.0000090837475
 20
0.0
 30
816.3999792098933
 11
0.0000090837475
 21
10.00000053048134
 31
816.3999792098933
  0
LINE
  5
156
330
1F
100
AcDbEntity
  8
FP_DD60D$Fisher _ Paykel-2
100
AcDbLine
 10
274.0000086307523
 20
5.000000265240669
 30
816.3999792098933
 11
-273.9999904632573
 21
5.000000265240669
 31
816.3999792098933
  0
LINE
  5
157
330
1F
100
AcDbEntity
  8
FP_DD60D$Fisher _ Paykel-2
100
AcDbLine
 10
274.0000086307523
 20
0.0
 30
699.7999907970268
 11
274.0000086307523
 21
10.00000053048134
 31
699.7999907970268
  0
LINE
  5
158
330
1F
100
AcDbEntity
  8
FP_DD60D$Fisher _ Paykel-2
100
AcDbLine
 10
274.0000086307523
 20
5.000000265240669
 30
583.2000023841603
 11
274.0000086307523
 21
5.000000265240669
 31
816.3999792098933
  0
LINE
  5
159
330
1F
100
AcDbEntity
  8
FP_DD60D$Fisher _ Paykel-2
100
AcDbLine
 10
250.0000019073486
 20
0.0
 30
519.5941101073963
 11
250.0000019073486
 21
10.00000053048134
 31
519.5941101073963
  0
LINE
  5
15A
330
1F
100
AcDbEntity
  8
FP_DD60D$Fisher _ Paykel-2
100
AcDbLine
 10
250.0000019073486
 20
5.000000265240669
 30
455.9882178306324
 11
250.0000019073486
 21
5.000000265240669
 31
583.2000023841601
  0
LINE
  5
15B
330
1F
100
AcDbEntity
  8
FP_DD60D$Fisher _ Paykel-2
100
AcDbLine
 10
-0.0000000000000853
 20
0.0
 30
455.9882178306324
 11
-0.0000000000000853
 21
10.00000053048134
 31
455.9882178306324
  0
LINE
  5
15C
330
1F
100
AcDbEntity
  8
FP_DD60D$Fisher _ Paykel-2
100
AcDbLine
 10
-250.0000019073488
 20
5.000000265240669
 30
455.9882178306324
 11
250.0000019073487
 21
5.000000265240669
 31
455.9882178306324
  0
LINE
  5
15D
330
1F
100
AcDbEntity
  8
FP_DD60D$Fisher _ Paykel-2
100
AcDbLine
 10
-250.0000019073488
 20
0.0
 30
519.594110107406
 11
-250.0000019073488
 21
10.00000053048134
 31
519.594110107406
  0
LINE
  5
15E
330
1F
100
AcDbEntity
  8
FP_DD60D$Fisher _ Paykel-2
100
AcDbLine
 10
-250.0000019073488
 20
5.000000265240669
 30
583.2000023841794
 11
-250.0000019073488
 21
5.000000265240669
 31
455.9882178306324
  0
LINE
  5
15F
330
1F
100
AcDbEntity
  8
FP_DD60D$Fisher _ Paykel-2
100
AcDbLine
 10
-261.9999961853031
 20
0.0
 30
583.2000023841795
 11
-261.9999961853031
 21
10.00000053048134
 31
583.2000023841795
  0
LINE
  5
160
330
1F
100
AcDbEntity
  8
FP_DD60D$Fisher _ Paykel-2
100
AcDbLine
 10
-273.9999904632573
 20
5.000000265240669
 30
583.2000023841795
 11
-250.0000019073488
 21
5.000000265240669
 31
583.2000023841795
  0
LINE
  5
161
330
1F
100
AcDbEntity
  8
FP_DD60D$Fisher _ Paykel-2
100
AcDbLine
 10
274.0000086307523
 20
10.00000053048134
 30
636.1940985202629
 11
-273.9999904632573
 21
10.00000053048134
 31
636.1940985202629
  0
LINE
  5
162
330
1F
100
AcDbEntity
  8
FP_DD60D$Fisher _ Paykel-2
100
AcDbLine
 10
0.0000090837475
 20
10.00000053048134
 30
455.9882178306324
 11
0.0000090837475
 21
10.00000053048134
 31
816.3999792098933
  0
LINE
  5
163
330
1F
100
AcDbEntity
  8
FP_DD60D$Fisher _ Paykel-2
100
AcDbLine
 10
-273.9999904632573
 20
0.0
 30
636.1940985202629
 11
274.0000086307523
 21
0.0
 31
636.1940985202629
  0
LINE
  5
164
330
1F
100
AcDbEntity
  8
FP_DD60D$Fisher _ Paykel-2
100
AcDbLine
 10
0.0000090837475
 20
0.0
 30
455.9882178306324
 11
0.0000090837475
 21
0.0
 31
816.3999792098933
  0
SPLINE
  5
166
330
1F
100
AcDbEntity
  8
FP_DD60D$Fisher _ Paykel-3
100
AcDbSpline
210
0.0
220
0.0
230
1.0
 70
    24
 71
     2
 72
     6
 73
     3
 74
     0
 42
0.0000000001
 43
0.0000000001
 40
-2.362204841937009
 40
-2.362204841937009
 40
-2.362204841937009
 40
0.0
 40
0.0
 40
0.0
 10
-299.5000000000005
 20
0.0
 30
139.9999641775836
 10
-299.5000000000005
 20
0.0
 30
499.9999820887838
 10
-299.5000000000005
 20
0.0
 30
859.9999999999839
  0
SPLINE
  5
167
330
1F
100
AcDbEntity
  8
FP_DD60D$Fisher _ Paykel-3
100
AcDbSpline
210
0.0
220
0.0
230
1.0
 70
    24
 71
     2
 72
     6
 73
     3
 74
     0
 42
0.0000000001
 43
0.0000000001
 40
-0.0328084006905556
 40
-0.0328084006905556
 40
-0.0328084006905556
 40
0.0
 40
0.0
 40
0.0
 10
-299.5000000000005
 20
0.0
 30
859.9999999999839
 10
-299.5000000000005
 20
5.000000265240669
 30
859.9999999999839
 10
-299.5000000000005
 20
10.00000053048134
 30
859.9999999999839
  0
SPLINE
  5
168
330
1F
100
AcDbEntity
  8
FP_DD60D$Fisher _ Paykel-3
100
AcDbSpline
210
0.0
220
0.0
230
1.0
 70
    24
 71
     2
 72
     6
 73
     3
 74
     0
 42
0.0000000001
 43
0.0000000001
 40
-2.362204841937009
 40
-2.362204841937009
 40
-2.362204841937009
 40
0.0
 40
0.0
 40
0.0
 10
-299.5000000000005
 20
10.00000053048134
 30
859.9999999999839
 10
-299.5000000000005
 20
10.00000053048134
 30
499.9999820887838
 10
-299.5000000000005
 20
10.00000053048134
 30
139.9999641775836
  0
SPLINE
  5
169
330
1F
100
AcDbEntity
  8
FP_DD60D$Fisher _ Paykel-3
100
AcDbSpline
210
0.0
220
0.0
230
1.0
 70
    24
 71
     2
 72
     6
 73
     3
 74
     0
 42
0.0000000001
 43
0.0000000001
 40
-0.0328084006905556
 40
-0.0328084006905556
 40
-0.0328084006905556
 40
0.0
 40
0.0
 40
0.0
 10
-299.5000000000005
 20
10.00000053048134
 30
139.9999641775836
 10
-299.5000000000005
 20
5.000000265240669
 30
139.9999641775836
 10
-299.5000000000005
 20
0.0
 30
139.9999641775836
  0
SPLINE
  5
16A
330
1F
100
AcDbEntity
  8
FP_DD60D$Fisher _ Paykel-3
100
AcDbSpline
210
0.0
220
0.0
230
1.0
 70
    24
 71
     2
 72
     6
 73
     3
 74
     0
 42
0.0000000001
 43
0.0000000001
 40
-1.965223097112858
 40
-1.965223097112858
 40
-1.965223097112858
 40
0.0
 40
0.0
 40
0.0
 10
-299.5000000000005
 20
0.0
 30
859.9999999999839
 10
-0.0000000000008811
 20
0.0
 30
859.9999999999839
 10
299.4999999999987
 20
0.0
 30
859.9999999999839
  0
SPLINE
  5
16B
330
1F
100
AcDbEntity
  8
FP_DD60D$Fisher _ Paykel-3
100
AcDbSpline
210
0.0
220
0.0
230
1.0
 70
    24
 71
     2
 72
     6
 73
     3
 74
     0
 42
0.0000000001
 43
0.0000000001
 40
-0.0328084006905556
 40
-0.0328084006905556
 40
-0.0328084006905556
 40
0.0
 40
0.0
 40
0.0
 10
299.4999999999987
 20
0.0
 30
859.9999999999839
 10
299.4999999999987
 20
5.000000265240669
 30
859.9999999999839
 10
299.4999999999987
 20
10.00000053048134
 30
859.9999999999839
  0
SPLINE
  5
16C
330
1F
100
AcDbEntity
  8
FP_DD60D$Fisher _ Paykel-3
100
AcDbSpline
210
0.0
220
0.0
230
1.0
 70
    24
 71
     2
 72
     6
 73
     3
 74
     0
 42
0.0000000001
 43
0.0000000001
 40
-1.965223097112858
 40
-1.965223097112858
 40
-1.965223097112858
 40
0.0
 40
0.0
 40
0.0
 10
299.4999999999987
 20
10.00000053048134
 30
859.9999999999839
 10
-0.0000000000008811
 20
10.00000053048134
 30
859.9999999999839
 10
-299.5000000000005
 20
10.00000053048134
 30
859.9999999999839
  0
SPLINE
  5
16D
330
1F
100
AcDbEntity
  8
FP_DD60D$Fisher _ Paykel-3
100
AcDbSpline
210
0.0
220
0.0
230
1.0
 70
    24
 71
     2
 72
     6
 73
     3
 74
     0
 42
0.0000000001
 43
0.0000000001
 40
-2.362204841937009
 40
-2.362204841937009
 40
-2.362204841937009
 40
0.0
 40
0.0
 40
0.0
 10
299.4999999999987
 20
0.0
 30
859.9999999999839
 10
299.4999999999987
 20
0.0
 30
499.9999820887838
 10
299.4999999999987
 20
0.0
 30
139.9999641775836
  0
SPLINE
  5
16E
330
1F
100
AcDbEntity
  8
FP_DD60D$Fisher _ Paykel-3
100
AcDbSpline
210
0.0
220
0.0
230
1.0
 70
    24
 71
     2
 72
     6
 73
     3
 74
     0
 42
0.0000000001
 43
0.0000000001
 40
-0.0328084006905556
 40
-0.0328084006905556
 40
-0.0328084006905556
 40
0.0
 40
0.0
 40
0.0
 10
299.4999999999987
 20
0.0
 30
139.9999641775836
 10
299.4999999999987
 20
5.000000265240669
 30
139.9999641775836
 10
299.4999999999987
 20
10.00000053048134
 30
139.9999641775836
  0
SPLINE
  5
16F
330
1F
100
AcDbEntity
  8
FP_DD60D$Fisher _ Paykel-3
100
AcDbSpline
210
0.0
220
0.0
230
1.0
 70
    24
 71
     2
 72
     6
 73
     3
 74
     0
 42
0.0000000001
 43
0.0000000001
 40
-2.362204841937009
 40
-2.362204841937009
 40
-2.362204841937009
 40
0.0
 40
0.0
 40
0.0
 10
299.4999999999987
 20
10.00000053048134
 30
139.9999641775836
 10
299.4999999999987
 20
10.00000053048134
 30
499.9999820887838
 10
299.4999999999987
 20
10.00000053048134
 30
859.9999999999839
  0
SPLINE
  5
170
330
1F
100
AcDbEntity
  8
FP_DD60D$Fisher _ Paykel-3
100
AcDbSpline
210
0.0
220
0.0
230
1.0
 70
    24
 71
     2
 72
     6
 73
     3
 74
     0
 42
0.0000000001
 43
0.0000000001
 40
-0.0508530255690601
 40
-0.0508530255690601
 40
-0.0508530255690601
 40
0.0
 40
0.0
 40
0.0
 10
299.4999999999987
 20
0.0
 30
139.9999641775836
 10
291.7499989032739
 20
0.0
 30
139.9999641775836
 10
283.9999978065491
 20
0.0
 30
139.9999641775836
  0
SPLINE
  5
171
330
1F
100
AcDbEntity
  8
FP_DD60D$Fisher _ Paykel-3
100
AcDbSpline
210
0.0
220
0.0
230
1.0
 70
    24
 71
     2
 72
     6
 73
     3
 74
     0
 42
0.0000000001
 43
0.0000000001
 40
-0.0328084006905556
 40
-0.0328084006905556
 40
-0.0328084006905556
 40
0.0
 40
0.0
 40
0.0
 10
283.9999978065491
 20
0.0
 30
139.9999641775836
 10
283.9999978065491
 20
5.000000265240669
 30
139.9999641775836
 10
283.9999978065491
 20
10.00000053048134
 30
139.9999641775836
  0
SPLINE
  5
172
330
1F
100
AcDbEntity
  8
FP_DD60D$Fisher _ Paykel-3
100
AcDbSpline
210
0.0
220
0.0
230
1.0
 70
    24
 71
     2
 72
     6
 73
     3
 74
     0
 42
0.0000000001
 43
0.0000000001
 40
-0.0508530255690601
 40
-0.0508530255690601
 40
-0.0508530255690601
 40
0.0
 40
0.0
 40
0.0
 10
283.9999978065491
 20
10.00000053048134
 30
139.9999641775836
 10
291.7499989032739
 20
10.00000053048134
 30
139.9999641775836
 10
299.4999999999987
 20
10.00000053048134
 30
139.9999641775836
  0
SPLINE
  5
173
330
1F
100
AcDbEntity
  8
FP_DD60D$Fisher _ Paykel-3
100
AcDbSpline
210
0.0
220
0.0
230
1.0
 70
    24
 71
     2
 72
     6
 73
     3
 74
     0
 42
0.0000000001
 43
0.0000000001
 40
-2.329396560631733
 40
-2.329396560631733
 40
-2.329396560631733
 40
0.0
 40
0.0
 40
0.0
 10
283.9999978065491
 20
0.0
 30
139.9999641775836
 10
283.9999978065491
 20
0.0
 30
495.0000000178597
 10
283.999997806549
 20
0.0
 30
850.0000358581358
  0
SPLINE
  5
174
330
1F
100
AcDbEntity
  8
FP_DD60D$Fisher _ Paykel-3
100
AcDbSpline
210
0.0
220
0.0
230
1.0
 70
    24
 71
     2
 72
     6
 73
     3
 74
     0
 42
0.0000000001
 43
0.0000000001
 40
-0.0328084006905556
 40
-0.0328084006905556
 40
-0.0328084006905556
 40
0.0
 40
0.0
 40
0.0
 10
283.999997806549
 20
0.0
 30
850.0000358581358
 10
283.999997806549
 20
5.000000265240669
 30
850.0000358581358
 10
283.999997806549
 20
10.00000053048134
 30
850.0000358581358
  0
SPLINE
  5
175
330
1F
100
AcDbEntity
  8
FP_DD60D$Fisher _ Paykel-3
100
AcDbSpline
210
0.0
220
0.0
230
1.0
 70
    24
 71
     2
 72
     6
 73
     3
 74
     0
 42
0.0000000001
 43
0.0000000001
 40
-2.329396560631733
 40
-2.329396560631733
 40
-2.329396560631733
 40
0.0
 40
0.0
 40
0.0
 10
283.999997806549
 20
10.00000053048134
 30
850.0000358581358
 10
283.9999978065491
 20
10.00000053048134
 30
495.0000000178597
 10
283.9999978065491
 20
10.00000053048134
 30
139.9999641775836
  0
SPLINE
  5
176
330
1F
100
AcDbEntity
  8
FP_DD60D$Fisher _ Paykel-3
100
AcDbSpline
210
0.0
220
0.0
230
1.0
 70
    24
 71
     2
 72
     6
 73
     3
 74
     0
 42
0.0000000001
 43
0.0000000001
 40
-1.863514602184292
 40
-1.863514602184292
 40
-1.863514602184292
 40
0.0
 40
0.0
 40
0.0
 10
283.999997806549
 20
0.0
 30
850.0000358581358
 10
0.0003724336629887
 20
0.0
 30
850.0000358581358
 10
-283.999252939223
 20
0.0
 30
850.0000358581358
  0
SPLINE
  5
177
330
1F
100
AcDbEntity
  8
FP_DD60D$Fisher _ Paykel-3
100
AcDbSpline
210
0.0
220
0.0
230
1.0
 70
    24
 71
     2
 72
     6
 73
     3
 74
     0
 42
0.0000000001
 43
0.0000000001
 40
-0.0328084006905556
 40
-0.0328084006905556
 40
-0.0328084006905556
 40
0.0
 40
0.0
 40
0.0
 10
-283.999252939223
 20
0.0
 30
850.0000358581358
 10
-283.999252939223
 20
5.000000265240669
 30
850.0000358581358
 10
-283.999252939223
 20
10.00000053048134
 30
850.0000358581358
  0
SPLINE
  5
178
330
1F
100
AcDbEntity
  8
FP_DD60D$Fisher _ Paykel-3
100
AcDbSpline
210
0.0
220
0.0
230
1.0
 70
    24
 71
     2
 72
     6
 73
     3
 74
     0
 42
0.0000000001
 43
0.0000000001
 40
-1.863514602184292
 40
-1.863514602184292
 40
-1.863514602184292
 40
0.0
 40
0.0
 40
0.0
 10
-283.999252939223
 20
10.00000053048134
 30
850.0000358581358
 10
0.0003724336629887
 20
10.00000053048134
 30
850.0000358581358
 10
283.999997806549
 20
10.00000053048134
 30
850.0000358581358
  0
SPLINE
  5
179
330
1F
100
AcDbEntity
  8
FP_DD60D$Fisher _ Paykel-3
100
AcDbSpline
210
0.0
220
0.0
230
1.0
 70
    24
 71
     2
 72
     6
 73
     3
 74
     0
 42
0.0000000001
 43
0.0000000001
 40
-2.329396560631733
 40
-2.329396560631733
 40
-2.329396560631733
 40
0.0
 40
0.0
 40
0.0
 10
-283.999252939223
 20
0.0
 30
850.0000358581358
 10
-283.999252939223
 20
0.0
 30
495.0000000178597
 10
-283.999252939223
 20
0.0
 30
139.9999641775836
  0
SPLINE
  5
17A
330
1F
100
AcDbEntity
  8
FP_DD60D$Fisher _ Paykel-3
100
AcDbSpline
210
0.0
220
0.0
230
1.0
 70
    24
 71
     2
 72
     6
 73
     3
 74
     0
 42
0.0000000001
 43
0.0000000001
 40
-0.0328084006905556
 40
-0.0328084006905556
 40
-0.0328084006905556
 40
0.0
 40
0.0
 40
0.0
 10
-283.999252939223
 20
0.0
 30
139.9999641775836
 10
-283.999252939223
 20
5.000000265240669
 30
139.9999641775836
 10
-283.999252939223
 20
10.00000053048134
 30
139.9999641775836
  0
SPLINE
  5
17B
330
1F
100
AcDbEntity
  8
FP_DD60D$Fisher _ Paykel-3
100
AcDbSpline
210
0.0
220
0.0
230
1.0
 70
    24
 71
     2
 72
     6
 73
     3
 74
     0
 42
0.0000000001
 43
0.0000000001
 40
-2.329396560631733
 40
-2.329396560631733
 40
-2.329396560631733
 40
0.0
 40
0.0
 40
0.0
 10
-283.999252939223
 20
10.00000053048134
 30
139.9999641775836
 10
-283.999252939223
 20
10.00000053048134
 30
495.0000000178597
 10
-283.999252939223
 20
10.00000053048134
 30
850.0000358581358
  0
SPLINE
  5
17C
330
1F
100
AcDbEntity
  8
FP_DD60D$Fisher _ Paykel-3
100
AcDbSpline
210
0.0
220
0.0
230
1.0
 70
    24
 71
     2
 72
     6
 73
     3
 74
     0
 42
0.0000000001
 43
0.0000000001
 40
-0.050855469359506
 40
-0.050855469359506
 40
-0.050855469359506
 40
0.0
 40
0.0
 40
0.0
 10
-283.999252939223
 20
0.0
 30
139.9999641775836
 10
-291.7496264696117
 20
0.0
 30
139.9999641775836
 10
-299.5000000000005
 20
0.0
 30
139.9999641775836
  0
SPLINE
  5
17D
330
1F
100
AcDbEntity
  8
FP_DD60D$Fisher _ Paykel-3
100
AcDbSpline
210
0.0
220
0.0
230
1.0
 70
    24
 71
     2
 72
     6
 73
     3
 74
     0
 42
0.0000000001
 43
0.0000000001
 40
-0.050855469359506
 40
-0.050855469359506
 40
-0.050855469359506
 40
0.0
 40
0.0
 40
0.0
 10
-299.5000000000005
 20
10.00000053048134
 30
139.9999641775836
 10
-291.7496264696117
 20
10.00000053048134
 30
139.9999641775836
 10
-283.999252939223
 20
10.00000053048134
 30
139.9999641775836
  0
LINE
  5
17E
330
1F
100
AcDbEntity
  8
FP_DD60D$Fisher _ Paykel-3
100
AcDbLine
 10
-299.5000000000005
 20
0.0
 30
499.9999820887838
 11
-299.5000000000005
 21
10.00000053048134
 31
499.9999820887838
  0
LINE
  5
17F
330
1F
100
AcDbEntity
  8
FP_DD60D$Fisher _ Paykel-3
100
AcDbLine
 10
-299.5000000000005
 20
5.000000265240669
 30
859.999999999984
 11
-299.5000000000005
 21
5.000000265240669
 31
139.9999641775837
  0
LINE
  5
180
330
1F
100
AcDbEntity
  8
FP_DD60D$Fisher _ Paykel-3
100
AcDbLine
 10
-0.0000000000008527
 20
0.0
 30
859.999999999984
 11
-0.0000000000008527
 21
10.00000053048134
 31
859.999999999984
  0
LINE
  5
181
330
1F
100
AcDbEntity
  8
FP_DD60D$Fisher _ Paykel-3
100
AcDbLine
 10
299.4999999999987
 20
5.000000265240669
 30
859.999999999984
 11
-299.5000000000004
 21
5.000000265240669
 31
859.999999999984
  0
LINE
  5
182
330
1F
100
AcDbEntity
  8
FP_DD60D$Fisher _ Paykel-3
100
AcDbLine
 10
299.4999999999987
 20
0.0
 30
499.9999820887838
 11
299.4999999999987
 21
10.00000053048134
 31
499.9999820887838
  0
LINE
  5
183
330
1F
100
AcDbEntity
  8
FP_DD60D$Fisher _ Paykel-3
100
AcDbLine
 10
299.4999999999987
 20
5.000000265240669
 30
139.9999641775837
 11
299.4999999999987
 21
5.000000265240669
 31
859.999999999984
  0
LINE
  5
184
330
1F
100
AcDbEntity
  8
FP_DD60D$Fisher _ Paykel-3
100
AcDbLine
 10
291.7499989032739
 20
0.0
 30
139.9999641775837
 11
291.7499989032739
 21
10.00000053048134
 31
139.9999641775837
  0
LINE
  5
185
330
1F
100
AcDbEntity
  8
FP_DD60D$Fisher _ Paykel-3
100
AcDbLine
 10
283.9999978065492
 20
5.000000265240669
 30
139.9999641775837
 11
299.4999999999986
 21
5.000000265240669
 31
139.9999641775837
  0
LINE
  5
186
330
1F
100
AcDbEntity
  8
FP_DD60D$Fisher _ Paykel-3
100
AcDbLine
 10
283.9999978065491
 20
0.0
 30
495.0000000178597
 11
283.9999978065491
 21
10.00000053048134
 31
495.0000000178597
  0
LINE
  5
187
330
1F
100
AcDbEntity
  8
FP_DD60D$Fisher _ Paykel-3
100
AcDbLine
 10
283.9999978065491
 20
5.000000265240669
 30
850.0000358581358
 11
283.9999978065491
 21
5.000000265240669
 31
139.9999641775837
  0
LINE
  5
188
330
1F
100
AcDbEntity
  8
FP_DD60D$Fisher _ Paykel-3
100
AcDbLine
 10
0.0003724336630171
 20
0.0
 30
850.0000358581358
 11
0.0003724336630171
 21
10.00000053048134
 31
850.0000358581358
  0
LINE
  5
189
330
1F
100
AcDbEntity
  8
FP_DD60D$Fisher _ Paykel-3
100
AcDbLine
 10
-283.999252939223
 20
5.000000265240669
 30
850.0000358581358
 11
283.9999978065491
 21
5.000000265240669
 31
850.0000358581358
  0
LINE
  5
18A
330
1F
100
AcDbEntity
  8
FP_DD60D$Fisher _ Paykel-3
100
AcDbLine
 10
-283.999252939223
 20
0.0
 30
495.0000000178597
 11
-283.999252939223
 21
10.00000053048134
 31
495.0000000178597
  0
LINE
  5
18B
330
1F
100
AcDbEntity
  8
FP_DD60D$Fisher _ Paykel-3
100
AcDbLine
 10
-283.999252939223
 20
5.000000265240669
 30
139.9999641775837
 11
-283.999252939223
 21
5.000000265240669
 31
850.0000358581359
  0
LINE
  5
18C
330
1F
100
AcDbEntity
  8
FP_DD60D$Fisher _ Paykel-3
100
AcDbLine
 10
-291.7496264696117
 20
0.0
 30
139.9999641775837
 11
-291.7496264696117
 21
10.00000053048134
 31
139.9999641775837
  0
LINE
  5
18D
330
1F
100
AcDbEntity
  8
FP_DD60D$Fisher _ Paykel-3
100
AcDbLine
 10
-299.5000000000005
 20
5.000000265240669
 30
139.9999641775837
 11
-283.999252939223
 21
5.000000265240669
 31
139.9999641775837
  0
LINE
  5
18E
330
1F
100
AcDbEntity
  8
FP_DD60D$Fisher _ Paykel-3
100
AcDbLine
 10
299.4999999999986
 20
10.00000053048134
 30
499.9999820887838
 11
283.9999978065491
 21
10.00000053048134
 31
499.9999820887838
  0
LINE
  5
18F
330
1F
100
AcDbEntity
  8
FP_DD60D$Fisher _ Paykel-3
100
AcDbLine
 10
-283.999252939223
 20
10.00000053048134
 30
499.9999820887838
 11
-299.5000000000005
 21
10.00000053048134
 31
499.9999820887838
  0
LINE
  5
190
330
1F
100
AcDbEntity
  8
FP_DD60D$Fisher _ Paykel-3
100
AcDbLine
 10
-0.0000000000009095
 20
10.00000053048134
 30
850.0000358581358
 11
-0.0000000000009095
 21
10.00000053048134
 31
859.999999999984
  0
LINE
  5
191
330
1F
100
AcDbEntity
  8
FP_DD60D$Fisher _ Paykel-3
100
AcDbLine
 10
-299.5000000000005
 20
0.0
 30
499.9999820887838
 11
-283.999252939223
 21
0.0
 31
499.9999820887838
  0
LINE
  5
192
330
1F
100
AcDbEntity
  8
FP_DD60D$Fisher _ Paykel-3
100
AcDbLine
 10
283.9999978065492
 20
0.0
 30
499.9999820887838
 11
299.4999999999987
 21
0.0
 31
499.9999820887838
  0
LINE
  5
193
330
1F
100
AcDbEntity
  8
FP_DD60D$Fisher _ Paykel-3
100
AcDbLine
 10
-0.0000000000009095
 20
0.0
 30
850.0000358581358
 11
-0.0000000000009095
 21
0.0
 31
859.999999999984
  0
ARC
  5
194
330
1F
100
AcDbEntity
  8
FP_DD60D$Fisher _ Paykel-3
100
AcDbCircle
 10
-260.5999998807907
 20
170.1000049114294
 30
-49.0000000000027
 40
4.000001120567333
210
0.0
220
0.0
230
-1.0
100
AcDbArc
 50
0.0
 51
180.0
  0
LINE
  5
195
330
1F
100
AcDbEntity
  8
FP_DD60D$Fisher _ Paykel-3
100
AcDbLine
 10
264.600001001358
 20
170.1000049114294
 30
49.0000000000027
 11
264.600001001358
 21
170.1000049114294
 31
7.000000257790089
  0
ARC
  5
196
330
1F
100
AcDbEntity
  8
FP_DD60D$Fisher _ Paykel-3
100
AcDbCircle
 10
260.5999998807907
 20
170.1000049114294
 30
7.000000257790089
 40
4.000001120567333
100
AcDbArc
 50
0.0
 51
180.0
  0
LINE
  5
197
330
1F
100
AcDbEntity
  8
FP_DD60D$Fisher _ Paykel-3
100
AcDbLine
 10
256.5999987602233
 20
170.1000049114294
 30
7.000000257790089
 11
256.5999987602233
 21
170.1000049114294
 31
49.0000000000027
  0
ARC
  5
198
330
1F
100
AcDbEntity
  8
FP_DD60D$Fisher _ Paykel-3
100
AcDbCircle
 10
-260.5999998807907
 20
170.1000049114295
 30
-49.0000000000027
 40
4.000001120567333
210
0.0
220
0.0
230
-1.0
100
AcDbArc
 50
180.0000000000004
 51
0.0
  0
ARC
  5
199
330
1F
100
AcDbEntity
  8
FP_DD60D$Fisher _ Paykel-3
100
AcDbCircle
 10
-260.5999998807907
 20
170.1000049114295
 30
-7.000000257790089
 40
4.000001120567333
210
0.0
220
0.0
230
-1.0
100
AcDbArc
 50
180.0000000000004
 51
0.0
  0
ARC
  5
19A
330
1F
100
AcDbEntity
  8
FP_DD60D$Fisher _ Paykel-3
100
AcDbCircle
 10
-260.5999998807907
 20
478.2999972343513
 30
-49.0000000000027
 40
4.000001120567333
210
0.0
220
0.0
230
-1.0
100
AcDbArc
 50
359.9999999999992
 51
180.0
  0
LINE
  5
19B
330
1F
100
AcDbEntity
  8
FP_DD60D$Fisher _ Paykel-3
100
AcDbLine
 10
264.6000010013581
 20
478.2999972343512
 30
49.0000000000027
 11
264.6000010013581
 21
478.2999972343512
 31
7.000000257790089
  0
ARC
  5
19C
330
1F
100
AcDbEntity
  8
FP_DD60D$Fisher _ Paykel-3
100
AcDbCircle
 10
260.5999998807907
 20
478.2999972343513
 30
7.000000257790089
 40
4.000001120567333
100
AcDbArc
 50
359.9999999999992
 51
180.0
  0
LINE
  5
19D
330
1F
100
AcDbEntity
  8
FP_DD60D$Fisher _ Paykel-3
100
AcDbLine
 10
256.5999987602234
 20
478.2999972343512
 30
7.000000257790089
 11
256.5999987602234
 21
478.2999972343512
 31
49.0000000000027
  0
ARC
  5
19E
330
1F
100
AcDbEntity
  8
FP_DD60D$Fisher _ Paykel-3
100
AcDbCircle
 10
260.5999998807907
 20
478.2999972343512
 30
49.0000000000027
 40
4.00000112056739
100
AcDbArc
 50
180.0
 51
0.0
  0
ARC
  5
19F
330
1F
100
AcDbEntity
  8
FP_DD60D$Fisher _ Paykel-3
100
AcDbCircle
 10
-260.5999998807907
 20
478.2999972343512
 30
-7.000000257790089
 40
4.000001120567276
210
0.0
220
0.0
230
-1.0
100
AcDbArc
 50
180.0
 51
0.0
  0
ARC
  5
1A0
330
1F
100
AcDbEntity
  8
FP_DD60D$Fisher _ Paykel-3
100
AcDbCircle
 10
260.5999998807907
 20
170.1000049114294
 30
-49.0000000000027
 40
4.000001120567333
210
0.0
220
0.0
230
-1.0
100
AcDbArc
 50
0.0
 51
180.0
  0
LINE
  5
1A1
330
1F
100
AcDbEntity
  8
FP_DD60D$Fisher _ Paykel-3
100
AcDbLine
 10
-256.5999987602234
 20
170.1000049114294
 30
49.0000000000027
 11
-256.5999987602234
 21
170.1000049114294
 31
7.000000257790089
  0
ARC
  5
1A2
330
1F
100
AcDbEntity
  8
FP_DD60D$Fisher _ Paykel-3
100
AcDbCircle
 10
-260.5999998807907
 20
170.1000049114294
 30
7.000000257790089
 40
4.000001120567333
100
AcDbArc
 50
0.0
 51
179.9999999999996
  0
LINE
  5
1A3
330
1F
100
AcDbEntity
  8
FP_DD60D$Fisher _ Paykel-3
100
AcDbLine
 10
-264.600001001358
 20
170.1000049114294
 30
7.000000257790089
 11
-264.600001001358
 21
170.1000049114294
 31
49.0000000000027
  0
ARC
  5
1A4
330
1F
100
AcDbEntity
  8
FP_DD60D$Fisher _ Paykel-3
100
AcDbCircle
 10
260.5999998807907
 20
170.1000049114294
 30
-49.0000000000027
 40
4.000001120567333
210
0.0
220
0.0
230
-1.0
100
AcDbArc
 50
180.0
 51
0.0
  0
ARC
  5
1A5
330
1F
100
AcDbEntity
  8
FP_DD60D$Fisher _ Paykel-3
100
AcDbCircle
 10
260.5999998807907
 20
170.1000049114294
 30
-7.000000257790089
 40
4.000001120567333
210
0.0
220
0.0
230
-1.0
100
AcDbArc
 50
180.0
 51
0.0
  0
ARC
  5
1A6
330
1F
100
AcDbEntity
  8
FP_DD60D$Fisher _ Paykel-3
100
AcDbCircle
 10
260.5999998807908
 20
478.2999972343512
 30
-49.00000000000271
 40
4.000001120567333
210
0.0
220
0.0
230
-1.0
100
AcDbArc
 50
0.0
 51
180.0
  0
LINE
  5
1A7
330
1F
100
AcDbEntity
  8
FP_DD60D$Fisher _ Paykel-3
100
AcDbLine
 10
-256.5999987602234
 20
478.2999972343512
 30
49.00000000000271
 11
-256.5999987602234
 21
478.2999972343512
 31
7.000000257790089
  0
ARC
  5
1A8
330
1F
100
AcDbEntity
  8
FP_DD60D$Fisher _ Paykel-3
100
AcDbCircle
 10
-260.5999998807907
 20
478.2999972343512
 30
7.000000257790089
 40
4.00000112056739
100
AcDbArc
 50
0.0
 51
180.0
  0
LINE
  5
1A9
330
1F
100
AcDbEntity
  8
FP_DD60D$Fisher _ Paykel-3
100
AcDbLine
 10
-264.6000010013581
 20
478.2999972343512
 30
7.000000257790089
 11
-264.6000010013581
 21
478.2999972343512
 31
49.00000000000271
  0
ARC
  5
1AA
330
1F
100
AcDbEntity
  8
FP_DD60D$Fisher _ Paykel-3
100
AcDbCircle
 10
-260.5999998807907
 20
478.2999972343513
 30
49.00000000000271
 40
4.000001120567333
100
AcDbArc
 50
180.0000000000008
 51
0.0
  0
ARC
  5
1AB
330
1F
100
AcDbEntity
  8
FP_DD60D$Fisher _ Paykel-3
100
AcDbCircle
 10
260.5999998807907
 20
478.2999972343513
 30
-7.000000257790089
 40
4.000001120567333
210
0.0
220
0.0
230
-1.0
100
AcDbArc
 50
180.0000000000008
 51
0.0
  0
ARC
  5
1AC
330
1F
100
AcDbEntity
  8
FP_DD60D$Fisher _ Paykel-3
100
AcDbCircle
 10
260.5999998807907
 20
170.1000049114294
 30
28.00000012889639
 40
4.000001120567333
100
AcDbArc
 50
0.0
 51
180.0
  0
LINE
  5
1AD
330
1F
100
AcDbEntity
  8
FP_DD60D$Fisher _ Paykel-3
100
AcDbLine
 10
260.5999998807907
 20
174.1000060319968
 30
7.000000257790089
 11
260.5999998807907
 21
174.1000060319968
 31
49.0000000000027
  0
ARC
  5
1AE
330
1F
100
AcDbEntity
  8
FP_DD60D$Fisher _ Paykel-3
100
AcDbCircle
 10
260.5999998807907
 20
170.1000049114295
 30
28.00000012889639
 40
4.000001120567333
100
AcDbArc
 50
180.0
 51
0.0
  0
LINE
  5
1AF
330
1F
100
AcDbEntity
  8
FP_DD60D$Fisher _ Paykel-3
100
AcDbLine
 10
260.5999998807907
 20
166.1000037908621
 30
7.000000257790089
 11
260.5999998807907
 21
166.1000037908621
 31
49.0000000000027
  0
LINE
  5
1B0
330
1F
100
AcDbEntity
  8
FP_DD60D$Fisher _ Paykel-3
100
AcDbLine
 10
260.5999998807908
 20
174.1000060319968
 30
7.000000257790089
 11
260.5999998807908
 21
166.1000037908621
 31
7.000000257790089
  0
LINE
  5
1B1
330
1F
100
AcDbEntity
  8
FP_DD60D$Fisher _ Paykel-3
100
AcDbLine
 10
264.6000010013581
 20
170.1000049114294
 30
7.000000257790089
 11
256.5999987602234
 21
170.1000049114294
 31
7.000000257790089
  0
LINE
  5
1B2
330
1F
100
AcDbEntity
  8
FP_DD60D$Fisher _ Paykel-3
100
AcDbLine
 10
260.5999998807908
 20
166.1000037908621
 30
49.0000000000027
 11
260.5999998807908
 21
174.1000060319968
 31
49.0000000000027
  0
LINE
  5
1B3
330
1F
100
AcDbEntity
  8
FP_DD60D$Fisher _ Paykel-3
100
AcDbLine
 10
264.6000010013581
 20
170.1000049114294
 30
49.0000000000027
 11
256.5999987602235
 21
170.1000049114294
 31
49.0000000000027
  0
ARC
  5
1B4
330
1F
100
AcDbEntity
  8
FP_DD60D$Fisher _ Paykel-3
100
AcDbCircle
 10
260.5999998807907
 20
478.2999972343513
 30
28.00000012889639
 40
4.000001120567333
100
AcDbArc
 50
0.0
 51
180.0
  0
LINE
  5
1B5
330
1F
100
AcDbEntity
  8
FP_DD60D$Fisher _ Paykel-3
100
AcDbLine
 10
260.5999998807907
 20
482.2999983549186
 30
7.000000257790089
 11
260.5999998807907
 21
482.2999983549186
 31
49.0000000000027
  0
ARC
  5
1B6
330
1F
100
AcDbEntity
  8
FP_DD60D$Fisher _ Paykel-3
100
AcDbCircle
 10
260.5999998807908
 20
478.2999972343512
 30
28.00000012889639
 40
4.000001120567333
100
AcDbArc
 50
180.0
 51
0.0
  0
LINE
  5
1B7
330
1F
100
AcDbEntity
  8
FP_DD60D$Fisher _ Paykel-3
100
AcDbLine
 10
260.5999998807908
 20
474.2999961137839
 30
7.000000257790089
 11
260.5999998807908
 21
474.2999961137839
 31
49.0000000000027
  0
LINE
  5
1B8
330
1F
100
AcDbEntity
  8
FP_DD60D$Fisher _ Paykel-3
100
AcDbLine
 10
260.5999998807908
 20
482.2999983549185
 30
7.000000257790089
 11
260.5999998807908
 21
474.2999961137839
 31
7.000000257790089
  0
LINE
  5
1B9
330
1F
100
AcDbEntity
  8
FP_DD60D$Fisher _ Paykel-3
100
AcDbLine
 10
264.6000010013581
 20
478.2999972343512
 30
7.000000257790089
 11
256.5999987602234
 21
478.2999972343512
 31
7.000000257790089
  0
LINE
  5
1BA
330
1F
100
AcDbEntity
  8
FP_DD60D$Fisher _ Paykel-3
100
AcDbLine
 10
260.5999998807908
 20
474.2999961137839
 30
49.0000000000027
 11
260.5999998807908
 21
482.2999983549185
 31
49.0000000000027
  0
LINE
  5
1BB
330
1F
100
AcDbEntity
  8
FP_DD60D$Fisher _ Paykel-3
100
AcDbLine
 10
264.6000010013581
 20
478.2999972343512
 30
49.0000000000027
 11
256.5999987602234
 21
478.2999972343512
 31
49.0000000000027
  0
ARC
  5
1BC
330
1F
100
AcDbEntity
  8
FP_DD60D$Fisher _ Paykel-3
100
AcDbCircle
 10
-260.5999998807907
 20
170.1000049114295
 30
28.00000012889639
 40
4.000001120567333
100
AcDbArc
 50
0.0
 51
180.0
  0
LINE
  5
1BD
330
1F
100
AcDbEntity
  8
FP_DD60D$Fisher _ Paykel-3
100
AcDbLine
 10
-260.5999998807907
 20
174.1000060319968
 30
7.000000257790089
 11
-260.5999998807907
 21
174.1000060319968
 31
49.0000000000027
  0
ARC
  5
1BE
330
1F
100
AcDbEntity
  8
FP_DD60D$Fisher _ Paykel-3
100
AcDbCircle
 10
-260.5999998807907
 20
170.1000049114294
 30
28.00000012889639
 40
4.000001120567333
100
AcDbArc
 50
180.0
 51
0.0
  0
LINE
  5
1BF
330
1F
100
AcDbEntity
  8
FP_DD60D$Fisher _ Paykel-3
100
AcDbLine
 10
-260.5999998807907
 20
166.1000037908621
 30
7.000000257790089
 11
-260.5999998807907
 21
166.1000037908621
 31
49.0000000000027
  0
LINE
  5
1C0
330
1F
100
AcDbEntity
  8
FP_DD60D$Fisher _ Paykel-3
100
AcDbLine
 10
-260.5999998807907
 20
174.1000060319968
 30
7.000000257790089
 11
-260.5999998807907
 21
166.1000037908621
 31
7.000000257790089
  0
LINE
  5
1C1
330
1F
100
AcDbEntity
  8
FP_DD60D$Fisher _ Paykel-3
100
AcDbLine
 10
-256.5999987602234
 20
170.1000049114294
 30
7.000000257790089
 11
-264.6000010013581
 21
170.1000049114294
 31
7.000000257790089
  0
LINE
  5
1C2
330
1F
100
AcDbEntity
  8
FP_DD60D$Fisher _ Paykel-3
100
AcDbLine
 10
-260.5999998807907
 20
166.1000037908621
 30
49.0000000000027
 11
-260.5999998807907
 21
174.1000060319968
 31
49.0000000000027
  0
LINE
  5
1C3
330
1F
100
AcDbEntity
  8
FP_DD60D$Fisher _ Paykel-3
100
AcDbLine
 10
-256.5999987602234
 20
170.1000049114294
 30
49.0000000000027
 11
-264.6000010013581
 21
170.1000049114294
 31
49.0000000000027
  0
ARC
  5
1C4
330
1F
100
AcDbEntity
  8
FP_DD60D$Fisher _ Paykel-3
100
AcDbCircle
 10
-260.5999998807908
 20
478.2999972343512
 30
28.00000012889637
 40
4.000001120567333
100
AcDbArc
 50
0.0
 51
180.0
  0
LINE
  5
1C5
330
1F
100
AcDbEntity
  8
FP_DD60D$Fisher _ Paykel-3
100
AcDbLine
 10
-260.5999998807908
 20
482.2999983549186
 30
7.000000257790089
 11
-260.5999998807908
 21
482.2999983549186
 31
49.0000000000027
  0
ARC
  5
1C6
330
1F
100
AcDbEntity
  8
FP_DD60D$Fisher _ Paykel-3
100
AcDbCircle
 10
-260.5999998807907
 20
478.2999972343513
 30
28.00000012889637
 40
4.000001120567333
100
AcDbArc
 50
180.0
 51
0.0
  0
LINE
  5
1C7
330
1F
100
AcDbEntity
  8
FP_DD60D$Fisher _ Paykel-3
100
AcDbLine
 10
-260.5999998807907
 20
474.2999961137839
 30
7.000000257790089
 11
-260.5999998807907
 21
474.2999961137839
 31
49.0000000000027
  0
LINE
  5
1C8
330
1F
100
AcDbEntity
  8
FP_DD60D$Fisher _ Paykel-3
100
AcDbLine
 10
-260.5999998807907
 20
482.2999983549185
 30
7.000000257790089
 11
-260.5999998807907
 21
474.2999961137839
 31
7.000000257790089
  0
LINE
  5
1C9
330
1F
100
AcDbEntity
  8
FP_DD60D$Fisher _ Paykel-3
100
AcDbLine
 10
-256.5999987602234
 20
478.2999972343512
 30
7.000000257790089
 11
-264.6000010013581
 21
478.2999972343512
 31
7.000000257790089
  0
LINE
  5
1CA
330
1F
100
AcDbEntity
  8
FP_DD60D$Fisher _ Paykel-3
100
AcDbLine
 10
-260.5999998807907
 20
474.2999961137839
 30
49.0000000000027
 11
-260.5999998807907
 21
482.2999983549185
 31
49.0000000000027
  0
LINE
  5
1CB
330
1F
100
AcDbEntity
  8
FP_DD60D$Fisher _ Paykel-3
100
AcDbLine
 10
-256.5999987602234
 20
478.2999972343512
 30
49.0000000000027
 11
-264.6000010013581
 21
478.2999972343512
 31
49.0000000000027
  0
ARC
  5
1CC
330
1F
100
AcDbEntity
  8
FP_DD60D$Fisher _ Paykel-3
100
AcDbCircle
 10
-260.5999998807907
 20
478.2999972343513
 30
-7.000000257790089
 40
17.81616361141204
210
0.0
220
0.0
230
-1.0
100
AcDbArc
 50
359.9999999999998
 51
180.0
  0
LINE
  5
1CD
330
1F
100
AcDbEntity
  8
FP_DD60D$Fisher _ Paykel-3
100
AcDbLine
 10
278.4161634922028
 20
478.2999972343512
 30
7.000000257790089
 11
278.4161634922028
 21
478.2999972343512
 31
0.0
  0
ARC
  5
1CE
330
1F
100
AcDbEntity
  8
FP_DD60D$Fisher _ Paykel-3
100
AcDbCircle
 10
260.5999998807907
 20
478.2999972343513
 30
0.0
 40
17.81616361141204
100
AcDbArc
 50
359.9999999999998
 51
180.0
  0
LINE
  5
1CF
330
1F
100
AcDbEntity
  8
FP_DD60D$Fisher _ Paykel-3
100
AcDbLine
 10
242.7838362693787
 20
478.2999972343512
 30
0.0
 11
242.7838362693787
 21
478.2999972343512
 31
7.000000257790089
  0
ARC
  5
1D0
330
1F
100
AcDbEntity
  8
FP_DD60D$Fisher _ Paykel-3
100
AcDbCircle
 10
-260.5999998807907
 20
478.2999972343512
 30
-7.000000257790089
 40
17.81616361141198
210
0.0
220
0.0
230
-1.0
100
AcDbArc
 50
180.0
 51
0.0
  0
ARC
  5
1D1
330
1F
100
AcDbEntity
  8
FP_DD60D$Fisher _ Paykel-3
100
AcDbCircle
 10
-260.5999998807907
 20
478.2999972343512
 30
0.0
 40
17.81616361141198
210
0.0
220
0.0
230
-1.0
100
AcDbArc
 50
180.0
 51
0.0
  0
ARC
  5
1D2
330
1F
100
AcDbEntity
  8
FP_DD60D$Fisher _ Paykel-3
100
AcDbCircle
 10
-260.5999998807907
 20
170.1000049114295
 30
-7.000000257790089
 40
17.81616361141204
210
0.0
220
0.0
230
-1.0
100
AcDbArc
 50
0.0
 51
180.0
  0
LINE
  5
1D3
330
1F
100
AcDbEntity
  8
FP_DD60D$Fisher _ Paykel-3
100
AcDbLine
 10
278.4161634922028
 20
170.1000049114294
 30
7.000000257790089
 11
278.4161634922028
 21
170.1000049114295
 31
0.0
  0
ARC
  5
1D4
330
1F
100
AcDbEntity
  8
FP_DD60D$Fisher _ Paykel-3
100
AcDbCircle
 10
260.5999998807907
 20
170.1000049114295
 30
0.0
 40
17.81616361141204
100
AcDbArc
 50
359.9999999999999
 51
180.0
  0
LINE
  5
1D5
330
1F
100
AcDbEntity
  8
FP_DD60D$Fisher _ Paykel-3
100
AcDbLine
 10
242.7838362693787
 20
170.1000049114295
 30
0.0
 11
242.7838362693787
 21
170.1000049114295
 31
7.000000257790089
  0
ARC
  5
1D6
330
1F
100
AcDbEntity
  8
FP_DD60D$Fisher _ Paykel-3
100
AcDbCircle
 10
-260.5999998807907
 20
170.1000049114295
 30
-7.000000257790089
 40
17.81616361141204
210
0.0
220
0.0
230
-1.0
100
AcDbArc
 50
180.0000000000002
 51
0.0
  0
ARC
  5
1D7
330
1F
100
AcDbEntity
  8
FP_DD60D$Fisher _ Paykel-3
100
AcDbCircle
 10
260.5999998807907
 20
170.1000049114295
 30
0.0
 40
17.81616361141204
100
AcDbArc
 50
180.0
 51
0.0
  0
ARC
  5
1D8
330
1F
100
AcDbEntity
  8
FP_DD60D$Fisher _ Paykel-3
100
AcDbCircle
 10
260.5999998807907
 20
478.2999972343512
 30
-7.000000257790089
 40
17.81616361141198
210
0.0
220
0.0
230
-1.0
100
AcDbArc
 50
0.0
 51
180.0
  0
LINE
  5
1D9
330
1F
100
AcDbEntity
  8
FP_DD60D$Fisher _ Paykel-3
100
AcDbLine
 10
-242.7838362693787
 20
478.2999972343512
 30
7.000000257790089
 11
-242.7838362693787
 21
478.2999972343512
 31
0.0
  0
ARC
  5
1DA
330
1F
100
AcDbEntity
  8
FP_DD60D$Fisher _ Paykel-3
100
AcDbCircle
 10
-260.5999998807907
 20
478.2999972343512
 30
0.0
 40
17.81616361141209
100
AcDbArc
 50
0.0
 51
180.0
  0
LINE
  5
1DB
330
1F
100
AcDbEntity
  8
FP_DD60D$Fisher _ Paykel-3
100
AcDbLine
 10
-278.4161634922028
 20
478.2999972343512
 30
0.0
 11
-278.4161634922028
 21
478.2999972343512
 31
7.000000257790089
  0
ARC
  5
1DC
330
1F
100
AcDbEntity
  8
FP_DD60D$Fisher _ Paykel-3
100
AcDbCircle
 10
260.5999998807907
 20
478.2999972343513
 30
-7.000000257790089
 40
17.81616361141204
210
0.0
220
0.0
230
-1.0
100
AcDbArc
 50
180.0000000000002
 51
0.0
  0
ARC
  5
1DD
330
1F
100
AcDbEntity
  8
FP_DD60D$Fisher _ Paykel-3
100
AcDbCircle
 10
-260.5999998807907
 20
478.2999972343513
 30
0.0
 40
17.81616361141204
100
AcDbArc
 50
180.0000000000002
 51
0.0
  0
ARC
  5
1DE
330
1F
100
AcDbEntity
  8
FP_DD60D$Fisher _ Paykel-3
100
AcDbCircle
 10
260.5999998807907
 20
170.1000049114295
 30
-7.00000025779009
 40
17.81616361141204
210
0.0
220
0.0
230
-1.0
100
AcDbArc
 50
0.0
 51
180.0
  0
LINE
  5
1DF
330
1F
100
AcDbEntity
  8
FP_DD60D$Fisher _ Paykel-3
100
AcDbLine
 10
-242.7838362693787
 20
170.1000049114294
 30
7.000000257790089
 11
-242.7838362693787
 21
170.1000049114295
 31
0.0
  0
ARC
  5
1E0
330
1F
100
AcDbEntity
  8
FP_DD60D$Fisher _ Paykel-3
100
AcDbCircle
 10
-260.5999998807907
 20
170.1000049114295
 30
0.0
 40
17.81616361141204
100
AcDbArc
 50
359.9999999999999
 51
180.0
  0
LINE
  5
1E1
330
1F
100
AcDbEntity
  8
FP_DD60D$Fisher _ Paykel-3
100
AcDbLine
 10
-278.4161634922028
 20
170.1000049114295
 30
0.0
 11
-278.4161634922028
 21
170.1000049114295
 31
7.000000257790089
  0
ARC
  5
1E2
330
1F
100
AcDbEntity
  8
FP_DD60D$Fisher _ Paykel-3
100
AcDbCircle
 10
260.5999998807907
 20
170.1000049114295
 30
-7.000000257790089
 40
17.81616361141204
210
0.0
220
0.0
230
-1.0
100
AcDbArc
 50
180.0000000000002
 51
0.0
  0
ARC
  5
1E3
330
1F
100
AcDbEntity
  8
FP_DD60D$Fisher _ Paykel-3
100
AcDbCircle
 10
260.5999998807907
 20
170.1000049114295
 30
0.0
 40
17.81616361141204
210
0.0
220
0.0
230
-1.0
100
AcDbArc
 50
180.0000000000001
 51
0.0
  0
ARC
  5
1E4
330
1F
100
AcDbEntity
  8
FP_DD60D$Fisher _ Paykel-3
100
AcDbCircle
 10
260.5999998807907
 20
478.2999972343513
 30
3.500000128895044
 40
17.81616361141204
100
AcDbArc
 50
0.0
 51
180.0
  0
LINE
  5
1E5
330
1F
100
AcDbEntity
  8
FP_DD60D$Fisher _ Paykel-3
100
AcDbLine
 10
260.5999998807907
 20
496.1161608457633
 30
0.0
 11
260.5999998807907
 21
496.1161608457633
 31
7.000000257790089
  0
ARC
  5
1E6
330
1F
100
AcDbEntity
  8
FP_DD60D$Fisher _ Paykel-3
100
AcDbCircle
 10
260.5999998807908
 20
478.2999972343512
 30
3.500000128895044
 40
17.81616361141204
100
AcDbArc
 50
180.0
 51
0.0
  0
LINE
  5
1E7
330
1F
100
AcDbEntity
  8
FP_DD60D$Fisher _ Paykel-3
100
AcDbLine
 10
260.5999998807908
 20
460.4838336229392
 30
0.0
 11
260.5999998807908
 21
460.4838336229392
 31
7.000000257790089
  0
LINE
  5
1E8
330
1F
100
AcDbEntity
  8
FP_DD60D$Fisher _ Paykel-3
100
AcDbLine
 10
260.5999998807907
 20
496.1161608457633
 30
0.0
 11
260.5999998807907
 21
460.4838336229392
 31
0.0
  0
LINE
  5
1E9
330
1F
100
AcDbEntity
  8
FP_DD60D$Fisher _ Paykel-3
100
AcDbLine
 10
278.4161634922028
 20
478.2999972343513
 30
0.0
 11
242.7838362693788
 21
478.2999972343513
 31
0.0
  0
LINE
  5
1EA
330
1F
100
AcDbEntity
  8
FP_DD60D$Fisher _ Paykel-3
100
AcDbLine
 10
260.5999998807907
 20
460.4838336229392
 30
7.000000257790089
 11
260.5999998807907
 21
496.1161608457631
 31
7.000000257790089
  0
LINE
  5
1EB
330
1F
100
AcDbEntity
  8
FP_DD60D$Fisher _ Paykel-3
100
AcDbLine
 10
278.4161634922028
 20
478.2999972343512
 30
7.000000257790089
 11
242.7838362693787
 21
478.2999972343512
 31
7.000000257790089
  0
ARC
  5
1EC
330
1F
100
AcDbEntity
  8
FP_DD60D$Fisher _ Paykel-3
100
AcDbCircle
 10
260.5999998807907
 20
170.1000049114295
 30
3.500000128895044
 40
17.81616361141204
100
AcDbArc
 50
0.0
 51
180.0
  0
LINE
  5
1ED
330
1F
100
AcDbEntity
  8
FP_DD60D$Fisher _ Paykel-3
100
AcDbLine
 10
260.5999998807907
 20
187.9161685228415
 30
0.0
 11
260.5999998807907
 21
187.9161685228415
 31
7.000000257790089
  0
ARC
  5
1EE
330
1F
100
AcDbEntity
  8
FP_DD60D$Fisher _ Paykel-3
100
AcDbCircle
 10
260.5999998807907
 20
170.1000049114295
 30
3.500000128895044
 40
17.81616361141204
100
AcDbArc
 50
180.0
 51
0.0
  0
LINE
  5
1EF
330
1F
100
AcDbEntity
  8
FP_DD60D$Fisher _ Paykel-3
100
AcDbLine
 10
260.5999998807907
 20
152.2838413000175
 30
0.0
 11
260.5999998807907
 21
152.2838413000175
 31
7.000000257790089
  0
LINE
  5
1F0
330
1F
100
AcDbEntity
  8
FP_DD60D$Fisher _ Paykel-3
100
AcDbLine
 10
260.5999998807907
 20
187.9161685228415
 30
0.0
 11
260.5999998807907
 21
152.2838413000175
 31
0.0
  0
LINE
  5
1F1
330
1F
100
AcDbEntity
  8
FP_DD60D$Fisher _ Paykel-3
100
AcDbLine
 10
278.4161634922028
 20
170.1000049114295
 30
0.0
 11
242.7838362693787
 21
170.1000049114295
 31
0.0
  0
LINE
  5
1F2
330
1F
100
AcDbEntity
  8
FP_DD60D$Fisher _ Paykel-3
100
AcDbLine
 10
260.5999998807907
 20
152.2838413000174
 30
7.000000257790089
 11
260.5999998807907
 21
187.9161685228414
 31
7.000000257790089
  0
LINE
  5
1F3
330
1F
100
AcDbEntity
  8
FP_DD60D$Fisher _ Paykel-3
100
AcDbLine
 10
278.4161634922027
 20
170.1000049114293
 30
7.000000257790089
 11
242.7838362693788
 21
170.1000049114293
 31
7.000000257790089
  0
ARC
  5
1F4
330
1F
100
AcDbEntity
  8
FP_DD60D$Fisher _ Paykel-3
100
AcDbCircle
 10
-260.5999998807908
 20
478.2999972343512
 30
3.500000128895044
 40
17.81616361141204
100
AcDbArc
 50
0.0
 51
180.0
  0
LINE
  5
1F5
330
1F
100
AcDbEntity
  8
FP_DD60D$Fisher _ Paykel-3
100
AcDbLine
 10
-260.5999998807908
 20
496.1161608457633
 30
0.0
 11
-260.5999998807908
 21
496.1161608457633
 31
7.000000257790089
  0
ARC
  5
1F6
330
1F
100
AcDbEntity
  8
FP_DD60D$Fisher _ Paykel-3
100
AcDbCircle
 10
-260.5999998807907
 20
478.2999972343513
 30
3.500000128895044
 40
17.81616361141204
100
AcDbArc
 50
180.0
 51
0.0
  0
LINE
  5
1F7
330
1F
100
AcDbEntity
  8
FP_DD60D$Fisher _ Paykel-3
100
AcDbLine
 10
-260.5999998807907
 20
460.4838336229392
 30
0.0
 11
-260.5999998807907
 21
460.4838336229392
 31
7.000000257790089
  0
LINE
  5
1F8
330
1F
100
AcDbEntity
  8
FP_DD60D$Fisher _ Paykel-3
100
AcDbLine
 10
-260.5999998807907
 20
496.1161608457633
 30
0.0
 11
-260.5999998807907
 21
460.4838336229392
 31
0.0
  0
LINE
  5
1F9
330
1F
100
AcDbEntity
  8
FP_DD60D$Fisher _ Paykel-3
100
AcDbLine
 10
-242.7838362693787
 20
478.2999972343513
 30
0.0
 11
-278.4161634922028
 21
478.2999972343513
 31
0.0
  0
LINE
  5
1FA
330
1F
100
AcDbEntity
  8
FP_DD60D$Fisher _ Paykel-3
100
AcDbLine
 10
-260.5999998807907
 20
460.4838336229392
 30
7.000000257790089
 11
-260.5999998807907
 21
496.1161608457631
 31
7.000000257790089
  0
LINE
  5
1FB
330
1F
100
AcDbEntity
  8
FP_DD60D$Fisher _ Paykel-3
100
AcDbLine
 10
-242.7838362693787
 20
478.2999972343512
 30
7.000000257790089
 11
-278.4161634922028
 21
478.2999972343512
 31
7.000000257790089
  0
ARC
  5
1FC
330
1F
100
AcDbEntity
  8
FP_DD60D$Fisher _ Paykel-3
100
AcDbCircle
 10
-260.5999998807907
 20
170.1000049114295
 30
3.500000128895045
 40
17.81616361141204
100
AcDbArc
 50
0.0
 51
180.0
  0
LINE
  5
1FD
330
1F
100
AcDbEntity
  8
FP_DD60D$Fisher _ Paykel-3
100
AcDbLine
 10
-260.5999998807907
 20
187.9161685228415
 30
0.0
 11
-260.5999998807907
 21
187.9161685228415
 31
7.00000025779009
  0
ARC
  5
1FE
330
1F
100
AcDbEntity
  8
FP_DD60D$Fisher _ Paykel-3
100
AcDbCircle
 10
-260.5999998807907
 20
170.1000049114295
 30
3.500000128895044
 40
17.81616361141204
100
AcDbArc
 50
180.0
 51
0.0
  0
LINE
  5
1FF
330
1F
100
AcDbEntity
  8
FP_DD60D$Fisher _ Paykel-3
100
AcDbLine
 10
-260.5999998807907
 20
152.2838413000175
 30
0.0
 11
-260.5999998807907
 21
152.2838413000175
 31
7.000000257790089
  0
LINE
  5
200
330
1F
100
AcDbEntity
  8
FP_DD60D$Fisher _ Paykel-3
100
AcDbLine
 10
-260.5999998807907
 20
187.9161685228415
 30
0.0
 11
-260.5999998807907
 21
152.2838413000175
 31
0.0
  0
LINE
  5
201
330
1F
100
AcDbEntity
  8
FP_DD60D$Fisher _ Paykel-3
100
AcDbLine
 10
-242.7838362693787
 20
170.1000049114295
 30
0.0
 11
-278.4161634922028
 21
170.1000049114295
 31
0.0
  0
LINE
  5
202
330
1F
100
AcDbEntity
  8
FP_DD60D$Fisher _ Paykel-3
100
AcDbLine
 10
-260.5999998807907
 20
152.2838413000175
 30
7.000000257790089
 11
-260.5999998807907
 21
187.9161685228414
 31
7.000000257790089
  0
LINE
  5
203
330
1F
100
AcDbEntity
  8
FP_DD60D$Fisher _ Paykel-3
100
AcDbLine
 10
-242.7838362693787
 20
170.1000049114294
 30
7.000000257790089
 11
-278.4161634922028
 21
170.1000049114294
 31
7.000000257790089
  0
ARC
  5
204
330
1F
100
AcDbEntity
  8
FP_DD60D$Fisher _ Paykel-3
100
AcDbCircle
 10
-537.9380587577887
 20
38.13158761261161
 30
154.5000035405212
 40
8.999999999999886
210
-1.0
220
0.0
230
0.0
100
AcDbArc
 50
180.0
 51
0.0
  0
LINE
  5
205
330
1F
100
AcDbEntity
  8
FP_DD60D$Fisher _ Paykel-3
100
AcDbLine
 10
-154.5000035405212
 20
528.9380587577887
 30
38.13158761261159
 11
-349.4999989986458
 21
528.9380587577887
 31
38.13158761261163
  0
ARC
  5
206
330
1F
100
AcDbEntity
  8
FP_DD60D$Fisher _ Paykel-3
100
AcDbCircle
 10
537.9380587577887
 20
38.13158761261161
 30
-349.4999989986459
 40
9.000000000000114
210
1.0
220
0.0
230
0.0
100
AcDbArc
 50
179.9999999999999
 51
0.0
  0
LINE
  5
207
330
1F
100
AcDbEntity
  8
FP_DD60D$Fisher _ Paykel-3
100
AcDbLine
 10
-349.4999989986458
 20
546.9380587577887
 30
38.13158761261161
 11
-154.5000035405212
 21
546.9380587577887
 31
38.1315876126116
  0
ARC
  5
208
330
1F
100
AcDbEntity
  8
FP_DD60D$Fisher _ Paykel-3
100
AcDbCircle
 10
537.9380587577887
 20
38.13158761261161
 30
-349.4999989986458
 40
8.999999999999886
210
1.0
220
0.0
230
0.0
100
AcDbArc
 50
0.0
 51
180.0
  0
SPLINE
  5
209
330
1F
100
AcDbEntity
  8
FP_DD60D$Fisher _ Paykel-3
100
AcDbSpline
 70
     0
 71
     3
 72
    22
 73
    18
 74
     0
 42
0.0000000001
 43
0.0000000001
 40
-1.0
 40
-1.0
 40
-1.0
 40
-1.0
 40
-0.8749656106150041
 40
-0.8749656106150041
 40
-0.7499682433291777
 40
-0.7499682433291777
 40
-0.6249857638775818
 40
-0.6249857638775818
 40
-0.5000000000003619
 40
-0.5000000000003619
 40
-0.37501427444372
 40
-0.37501427444372
 40
-0.2500327583113587
 40
-0.2500327583113587
 40
-0.1250402046173323
 40
-0.1250402046173323
 40
0.0
 40
0.0
 40
0.0
 40
0.0
 10
-154.5000035405212
 20
546.9380587577887
 30
38.1315876126116
 10
-153.1922982819811
 20
546.9380587577887
 30
38.25429786349033
 10
-151.907444653701
 20
546.936199644069
 30
38.44342928723437
 10
-149.3739623939246
 20
546.9352008049128
 30
38.99155598621166
 10
-148.126473722082
 20
546.9356789774545
 30
39.35065943842652
 10
-145.7035104264464
 20
546.9369736734385
 30
40.28271628813799
 10
-144.528075993976
 20
546.9376157742578
 30
40.85678998139292
 10
-142.3172297492599
 20
546.9381001085999
 30
42.2467082739665
 10
-141.2837942913357
 20
546.9380587577887
 30
43.06352517486511
 10
-139.4319403257195
 20
546.9380587577888
 30
44.91537914047822
 10
-138.6151236404179
 20
546.93810010857
 30
45.94881424806283
 10
-137.2252107706739
 20
546.9376157765256
 30
48.15965154651336
 10
-136.6511404771932
 20
546.9369736857135
 30
49.33507636483832
 10
-135.7191017468781
 20
546.935679016247
 30
51.75798247924644
 10
-135.3600064937458
 20
546.9352008315934
 30
53.00542132915103
 10
-134.8118617007693
 20
546.9361995204447
 30
55.5389101401969
 10
-134.6227184375759
 20
546.9380587577888
 30
56.82382259487809
 10
-134.5000024795568
 20
546.9380587577888
 30
58.13158867356447
  0
ARC
  5
20A
330
1F
100
AcDbEntity
  8
FP_DD60D$Fisher _ Paykel-3
100
AcDbCircle
 10
134.5000024795568
 20
537.9380587577887
 30
-58.13158867357022
 40
9.0
210
0.0
220
0.0
230
-1.0
100
AcDbArc
 50
89.99999999999982
 51
270.0000000000005
  0
ARC
  5
20B
330
1F
100
AcDbEntity
  8
FP_DD60D$Fisher _ Paykel-3
100
AcDbCircle
 10
537.9380587577888
 20
38.1315876126116
 30
-154.5000035405212
 40
8.999999999999991
210
1.0
220
0.0
230
0.0
100
AcDbArc
 50
90.0
 51
180.0
  0
SPLINE
  5
20C
330
1F
100
AcDbEntity
  8
FP_DD60D$Fisher _ Paykel-3
100
AcDbSpline
 70
     0
 71
     3
 72
    22
 73
    18
 74
     0
 42
0.0000000001
 43
0.0000000001
 40
-1.0
 40
-1.0
 40
-1.0
 40
-1.0
 40
-0.874959795382667
 40
-0.874959795382667
 40
-0.7499672416886405
 40
-0.7499672416886405
 40
-0.6249857255562783
 40
-0.6249857255562783
 40
-0.4999999999996352
 40
-0.4999999999996352
 40
-0.375014236122416
 40
-0.375014236122416
 40
-0.2500317566708199
 40
-0.2500317566708199
 40
-0.1250343893849947
 40
-0.1250343893849947
 40
0.0
 40
0.0
 40
0.0
 40
0.0
 10
-134.5000024795569
 20
528.9380587577888
 30
58.13158867356448
 10
-134.6227184375759
 20
528.9380587577888
 30
56.8238225948781
 10
-134.8118617007694
 20
528.9399179951329
 30
55.53891014019697
 10
-135.360006493746
 20
528.9409166839841
 30
53.00542132915112
 10
-135.7191017468783
 20
528.9404384993305
 30
51.75798247924646
 10
-136.6511404771933
 20
528.9391438298641
 30
49.33507636483837
 10
-137.225210770674
 20
528.938501739052
 30
48.15965154651343
 10
-138.615123640418
 20
528.9380174070076
 30
45.94881424806291
 10
-139.4319403257196
 20
528.9380587577888
 30
44.91537914047827
 10
-141.2837942913359
 20
528.9380587577887
 30
43.06352517486518
 10
-142.31722974926
 20
528.9380174069775
 30
42.2467082739666
 10
-144.528075993976
 20
528.9385017413196
 30
40.85678998139304
 10
-145.7035104264464
 20
528.9391438421388
 30
40.28271628813809
 10
-148.126473722082
 20
528.9404385381229
 30
39.3506594384266
 10
-149.3739623939245
 20
528.9409167106645
 30
38.99155598621171
 10
-151.907444653701
 20
528.9399178715083
 30
38.44342928723441
 10
-153.1922982819811
 20
528.9380587577887
 30
38.25429786349033
 10
-154.5000035405212
 20
528.9380587577887
 30
38.13158761261159
  0
ARC
  5
20D
330
1F
100
AcDbEntity
  8
FP_DD60D$Fisher _ Paykel-3
100
AcDbCircle
 10
134.5000024795568
 20
537.9380587577888
 30
-58.13158867356448
 40
9.000000000000028
210
0.0
220
0.0
230
-1.0
100
AcDbArc
 50
270.0000000000005
 51
0.0
  0
ARC
  5
20E
330
1F
100
AcDbEntity
  8
FP_DD60D$Fisher _ Paykel-3
100
AcDbCircle
 10
134.5000024795568
 20
537.9380587577888
 30
-58.13158867357595
 40
9.0
210
0.0
220
0.0
230
-1.0
100
AcDbArc
 50
0.0
 51
90.0
  0
ARC
  5
20F
330
1F
100
AcDbEntity
  8
FP_DD60D$Fisher _ Paykel-3
100
AcDbCircle
 10
154.5000035405212
 20
58.13158867357594
 30
537.9380587577888
 40
11.00000106096435
210
0.0
220
1.0
230
0.0
100
AcDbArc
 50
180.0
 51
270.0
  0
ARC
  5
210
330
1F
100
AcDbEntity
  8
FP_DD60D$Fisher _ Paykel-3
100
AcDbCircle
 10
537.9380587577888
 20
38.13158761261177
 30
-154.5000035405212
 40
8.999999999999822
210
1.0
220
0.0
230
0.0
100
AcDbArc
 50
359.999999999999
 51
90.0
  0
ARC
  5
211
330
1F
100
AcDbEntity
  8
FP_DD60D$Fisher _ Paykel-3
100
AcDbCircle
 10
134.5000024795569
 20
537.9380587577888
 30
-88.97196513412524
 40
9.0
210
0.0
220
0.0
230
-1.0
100
AcDbArc
 50
90.00000000000072
 51
270.0
  0
LINE
  5
212
330
1F
100
AcDbEntity
  8
FP_DD60D$Fisher _ Paykel-3
100
AcDbLine
 10
-134.5000024795569
 20
528.9380587577888
 30
88.97196513412524
 11
-134.5000024795569
 21
528.9380587577888
 31
58.13158867356448
  0
LINE
  5
213
330
1F
100
AcDbEntity
  8
FP_DD60D$Fisher _ Paykel-3
100
AcDbLine
 10
-134.5000024795568
 20
546.9380587577888
 30
58.13158867356447
 11
-134.5000024795568
 21
546.9380587577888
 31
88.97196513412524
  0
ARC
  5
214
330
1F
100
AcDbEntity
  8
FP_DD60D$Fisher _ Paykel-3
100
AcDbCircle
 10
-134.5000024795567
 20
537.9380587577889
 30
88.97196513412524
 40
9.0
100
AcDbArc
 50
90.00000000000072
 51
269.9999999999984
  0
ARC
  5
215
330
1F
100
AcDbEntity
  8
FP_DD60D$Fisher _ Paykel-3
100
AcDbCircle
 10
537.9380587577888
 20
38.13158761261161
 30
-252.0000012695837
 40
9.0
210
1.0
220
0.0
230
0.0
100
AcDbArc
 50
180.0
 51
0.0
  0
LINE
  5
216
330
1F
100
AcDbEntity
  8
FP_DD60D$Fisher _ Paykel-3
100
AcDbLine
 10
-349.4999989986455
 20
537.9380587577888
 30
29.13158761261161
 11
-154.5000035405212
 21
537.9380587577888
 31
29.13158761261161
  0
ARC
  5
217
330
1F
100
AcDbEntity
  8
FP_DD60D$Fisher _ Paykel-3
100
AcDbCircle
 10
537.9380587577888
 20
38.13158761261161
 30
-252.0000012695837
 40
9.0
210
1.0
220
0.0
230
0.0
100
AcDbArc
 50
0.0
 51
180.0
  0
LINE
  5
218
330
1F
100
AcDbEntity
  8
FP_DD60D$Fisher _ Paykel-3
100
AcDbLine
 10
-349.4999989986455
 20
537.9380587577888
 30
47.13158761261161
 11
-154.5000035405212
 21
537.9380587577888
 31
47.13158761261161
  0
LINE
  5
219
330
1F
100
AcDbEntity
  8
FP_DD60D$Fisher _ Paykel-3
100
AcDbLine
 10
-349.4999989986455
 20
546.9380587577888
 30
38.13158761261165
 11
-349.4999989986455
 21
528.9380587577888
 31
38.13158761261165
  0
LINE
  5
21A
330
1F
100
AcDbEntity
  8
FP_DD60D$Fisher _ Paykel-3
100
AcDbLine
 10
-349.4999989986455
 20
537.9380587577888
 30
29.13158761261164
 11
-349.4999989986455
 21
537.9380587577888
 31
47.13158761261165
  0
ARC
  5
21B
330
1F
100
AcDbEntity
  8
FP_DD60D$Fisher _ Paykel-3
100
AcDbCircle
 10
154.5000035405212
 20
58.13158867357594
 30
528.9380587577889
 40
20.0000010609644
210
0.0
220
1.0
230
0.0
100
AcDbArc
 50
179.9999999999999
 51
269.9999999999998
  0
ARC
  5
21C
330
1F
100
AcDbEntity
  8
FP_DD60D$Fisher _ Paykel-3
100
AcDbCircle
 10
154.5000035405212
 20
58.13158867357594
 30
537.9380587577887
 40
29.00000106096435
210
0.0
220
1.0
230
0.0
100
AcDbArc
 50
180.0
 51
270.0
  0
ARC
  5
21D
330
1F
100
AcDbEntity
  8
FP_DD60D$Fisher _ Paykel-3
100
AcDbCircle
 10
154.5000035405212
 20
58.13158867357594
 30
546.9380587577889
 40
20.00000106096434
210
0.0
220
1.0
230
0.0
100
AcDbArc
 50
180.0000000000004
 51
224.999990077442
  0
ARC
  5
21E
330
1F
100
AcDbEntity
  8
FP_DD60D$Fisher _ Paykel-3
100
AcDbCircle
 10
154.5000035405212
 20
58.13158867357594
 30
546.9380587577889
 40
20.00000106096434
210
0.0
220
1.0
230
0.0
100
AcDbArc
 50
225.0000117505045
 51
270.0000000000001
  0
ARC
  5
21F
330
1F
100
AcDbEntity
  8
FP_DD60D$Fisher _ Paykel-3
100
AcDbCircle
 10
154.5000035405212
 20
58.13158867357594
 30
546.9380587577889
 40
20.00000106096434
210
0.0
220
1.0
230
0.0
100
AcDbArc
 50
224.9999921925221
 51
225.0000051918911
  0
ARC
  5
220
330
1F
100
AcDbEntity
  8
FP_DD60D$Fisher _ Paykel-3
100
AcDbCircle
 10
-134.5000024795569
 20
537.9380587577888
 30
73.5517769038338
 40
9.0
100
AcDbArc
 50
270.0
 51
90.0
  0
LINE
  5
221
330
1F
100
AcDbEntity
  8
FP_DD60D$Fisher _ Paykel-3
100
AcDbLine
 10
-125.5000024795569
 20
537.9380587577888
 30
58.13158867355312
 11
-125.5000024795569
 21
537.9380587577888
 31
88.97196513412526
  0
ARC
  5
222
330
1F
100
AcDbEntity
  8
FP_DD60D$Fisher _ Paykel-3
100
AcDbCircle
 10
-134.5000024795568
 20
537.9380587577889
 30
73.55177690383925
 40
9.0
100
AcDbArc
 50
89.99999999999928
 51
269.9999999999993
  0
LINE
  5
223
330
1F
100
AcDbEntity
  8
FP_DD60D$Fisher _ Paykel-3
100
AcDbLine
 10
-143.5000024795568
 20
537.938058757789
 30
58.13158867355312
 11
-143.5000024795568
 21
537.938058757789
 31
88.97196513412524
  0
LINE
  5
224
330
1F
100
AcDbEntity
  8
FP_DD60D$Fisher _ Paykel-3
100
AcDbLine
 10
-134.5000024795568
 20
546.9380587577887
 30
88.97196513412524
 11
-134.5000024795568
 21
528.9380587577888
 31
88.97196513412524
  0
LINE
  5
225
330
1F
100
AcDbEntity
  8
FP_DD60D$Fisher _ Paykel-3
100
AcDbLine
 10
-125.5000024795569
 20
537.9380587577889
 30
88.97196513412524
 11
-143.5000024795568
 21
537.9380587577889
 31
88.97196513412524
  0
ARC
  5
226
330
1F
100
AcDbEntity
  8
FP_DD60D$Fisher _ Paykel-3
100
AcDbCircle
 10
-537.9380587577887
 20
57.50658594368316
 30
209.500001060968
 40
8.999999999999886
210
-1.0
220
0.0
230
0.0
100
AcDbArc
 50
179.9999999999998
 51
359.9999999999999
  0
LINE
  5
227
330
1F
100
AcDbEntity
  8
FP_DD60D$Fisher _ Paykel-3
100
AcDbLine
 10
-209.500001060968
 20
528.9380587577887
 30
57.50658594368317
 11
-349.4999989986445
 21
528.9380587577887
 31
57.50658594368315
  0
ARC
  5
228
330
1F
100
AcDbEntity
  8
FP_DD60D$Fisher _ Paykel-3
100
AcDbCircle
 10
537.9380587577887
 20
57.50658594368315
 30
-349.4999989986443
 40
9.000000000000114
210
1.0
220
0.0
230
0.0
100
AcDbArc
 50
180.0
 51
0.0
  0
LINE
  5
229
330
1F
100
AcDbEntity
  8
FP_DD60D$Fisher _ Paykel-3
100
AcDbLine
 10
-349.4999989986445
 20
546.9380587577887
 30
57.50658594368315
 11
-209.500001060968
 21
546.9380587577887
 31
57.50658594368318
  0
ARC
  5
22A
330
1F
100
AcDbEntity
  8
FP_DD60D$Fisher _ Paykel-3
100
AcDbCircle
 10
537.9380587577887
 20
57.50658594368315
 30
-349.4999989986443
 40
8.999999999999886
210
1.0
220
0.0
230
0.0
100
AcDbArc
 50
0.0
 51
180.0
  0
ARC
  5
22B
330
1F
100
AcDbEntity
  8
FP_DD60D$Fisher _ Paykel-3
100
AcDbCircle
 10
189.5000000000037
 20
537.9380587577887
 30
-77.50658700464754
 40
9.0
210
0.0
220
0.0
230
-1.0
100
AcDbArc
 50
90.00000000000054
 51
269.9999999999998
  0
SPLINE
  5
22C
330
1F
100
AcDbEntity
  8
FP_DD60D$Fisher _ Paykel-3
100
AcDbSpline
 70
     0
 71
     3
 72
    22
 73
    18
 74
     0
 42
0.0000000001
 43
0.0000000001
 40
-1.0
 40
-1.0
 40
-1.0
 40
-1.0
 40
-0.874965610615002
 40
-0.874965610615002
 40
-0.7499682433291751
 40
-0.7499682433291751
 40
-0.6249857638775783
 40
-0.6249857638775783
 40
-0.4999999999999928
 40
-0.4999999999999928
 40
-0.3750142744437162
 40
-0.3750142744437162
 40
-0.250032758311356
 40
-0.250032758311356
 40
-0.1250402046173312
 40
-0.1250402046173312
 40
0.0
 40
0.0
 40
0.0
 40
0.0
 10
-189.5000000000037
 20
528.9380587577888
 30
77.50658700464756
 10
-189.622710250883
 20
528.9380587577888
 30
76.19888174610747
 10
-189.8118416746278
 20
528.9399178715084
 30
74.91402811782743
 10
-190.3599683736063
 20
528.9409167106646
 30
72.38054585805115
 10
-190.7190718258215
 20
528.940438538123
 30
71.13305718620872
 10
-191.6511286755338
 20
528.939143842139
 30
68.71009389057315
 10
-192.2252023687892
 20
528.9385017413198
 30
67.53465945810272
 10
-193.6151206613656
 20
528.9380174069775
 30
65.32381321338336
 10
-194.4319375622673
 20
528.9380587577888
 30
64.29037775545629
 10
-196.2837915278826
 20
528.9380587577887
 30
62.43852378984107
 10
-197.3172266354648
 20
528.9380174070075
 30
61.62170710454215
 10
-199.528063933913
 20
528.9385017390518
 30
60.23179423479981
 10
-200.7034887522383
 20
528.939143829864
 30
59.65772394131877
 10
-203.1263948666474
 20
528.9404384993304
 30
58.72568521100328
 10
-204.3738337165524
 20
528.940916683984
 30
58.36658995787082
 10
-206.9073225275994
 20
528.9399179951328
 30
57.81844516489446
 10
-208.1922349822812
 20
528.9380587577887
 30
57.62930190170139
 10
-209.500001060968
 20
528.9380587577887
 30
57.50658594368317
  0
ARC
  5
22D
330
1F
100
AcDbEntity
  8
FP_DD60D$Fisher _ Paykel-3
100
AcDbCircle
 10
537.9380587577888
 20
57.50658594368321
 30
-209.500001060968
 40
8.999999999999991
210
1.0
220
0.0
230
0.0
100
AcDbArc
 50
90.0
 51
180.0
  0
ARC
  5
22E
330
1F
100
AcDbEntity
  8
FP_DD60D$Fisher _ Paykel-3
100
AcDbCircle
 10
189.5000000000037
 20
537.9380587577888
 30
-77.50658700464754
 40
9.0
210
0.0
220
0.0
230
-1.0
100
AcDbArc
 50
270.0
 51
0.0
  0
ARC
  5
22F
330
1F
100
AcDbEntity
  8
FP_DD60D$Fisher _ Paykel-3
100
AcDbCircle
 10
189.5000000000037
 20
537.9380587577888
 30
-77.50658700464754
 40
9.0
210
0.0
220
0.0
230
-1.0
100
AcDbArc
 50
0.0
 51
90.00000000000054
  0
SPLINE
  5
230
330
1F
100
AcDbEntity
  8
FP_DD60D$Fisher _ Paykel-3
100
AcDbSpline
 70
     0
 71
     3
 72
    22
 73
    18
 74
     0
 42
0.0000000001
 43
0.0000000001
 40
-1.0
 40
-1.0
 40
-1.0
 40
-1.0
 40
-0.8749597953826663
 40
-0.8749597953826663
 40
-0.749967241688639
 40
-0.749967241688639
 40
-0.624985725556276
 40
-0.624985725556276
 40
-0.4999999999999969
 40
-0.4999999999999969
 40
-0.3750142361224136
 40
-0.3750142361224136
 40
-0.2500317566708191
 40
-0.2500317566708191
 40
-0.1250343893849948
 40
-0.1250343893849948
 40
0.0
 40
0.0
 40
0.0
 40
0.0
 10
-209.500001060968
 20
546.9380587577887
 30
57.50658594368318
 10
-208.1922349822812
 20
546.9380587577887
 30
57.62930190170138
 10
-206.9073225275995
 20
546.9361995204446
 30
57.81844516489441
 10
-204.3738337165525
 20
546.9352008315933
 30
58.36658995787072
 10
-203.1263948666474
 20
546.9356790162469
 30
58.7256852110032
 10
-200.7034887522383
 20
546.9369736857134
 30
59.65772394131869
 10
-199.5280639339129
 20
546.9376157765255
 30
60.23179423479966
 10
-197.3172266354647
 20
546.9381001085699
 30
61.62170710454198
 10
-196.2837915278824
 20
546.9380587577887
 30
62.43852378984099
 10
-194.4319375622672
 20
546.9380587577888
 30
64.29037775545622
 10
-193.6151206613655
 20
546.9381001086001
 30
65.32381321338323
 10
-192.2252023687891
 20
546.9376157742578
 30
67.53465945810261
 10
-191.6511286755338
 20
546.9369736734386
 30
68.71009389057308
 10
-190.7190718258214
 20
546.9356789774546
 30
71.13305718620862
 10
-190.3599683736061
 20
546.9352008049129
 30
72.38054585805104
 10
-189.8118416746277
 20
546.9361996440691
 30
74.91402811782736
 10
-189.6227102508831
 20
546.9380587577888
 30
76.19888174610745
 10
-189.5000000000036
 20
546.9380587577888
 30
77.50658700464754
  0
ARC
  5
231
330
1F
100
AcDbEntity
  8
FP_DD60D$Fisher _ Paykel-3
100
AcDbCircle
 10
209.500001060968
 20
77.50658700464753
 30
537.9380587577888
 40
11.00000106096434
210
0.0
220
1.0
230
0.0
100
AcDbArc
 50
179.9999999999998
 51
270.0
  0
ARC
  5
232
330
1F
100
AcDbEntity
  8
FP_DD60D$Fisher _ Paykel-3
100
AcDbCircle
 10
537.9380587577888
 20
57.50658594368336
 30
-209.500001060968
 40
8.99999999999983
210
1.0
220
0.0
230
0.0
100
AcDbArc
 50
359.9999999999989
 51
90.0
  0
ARC
  5
233
330
1F
100
AcDbEntity
  8
FP_DD60D$Fisher _ Paykel-3
100
AcDbCircle
 10
189.5000000000036
 20
537.9380587577887
 30
-88.97196513412838
 40
8.999999999999886
210
0.0
220
0.0
230
-1.0
100
AcDbArc
 50
90.0
 51
270.0
  0
LINE
  5
234
330
1F
100
AcDbEntity
  8
FP_DD60D$Fisher _ Paykel-3
100
AcDbLine
 10
-189.5000000000037
 20
528.9380587577887
 30
88.97196513412838
 11
-189.5000000000037
 21
528.9380587577888
 31
77.50658700464756
  0
LINE
  5
235
330
1F
100
AcDbEntity
  8
FP_DD60D$Fisher _ Paykel-3
100
AcDbLine
 10
-189.5000000000036
 20
546.9380587577888
 30
77.50658700464754
 11
-189.5000000000036
 21
546.9380587577887
 31
88.97196513412838
  0
ARC
  5
236
330
1F
100
AcDbEntity
  8
FP_DD60D$Fisher _ Paykel-3
100
AcDbCircle
 10
189.5000000000036
 20
537.9380587577887
 30
-88.97196513412838
 40
9.000000000000114
210
0.0
220
0.0
230
-1.0
100
AcDbArc
 50
270.0000000000002
 51
90.0
  0
ARC
  5
237
330
1F
100
AcDbEntity
  8
FP_DD60D$Fisher _ Paykel-3
100
AcDbCircle
 10
537.9380587577888
 20
57.50658594368315
 30
-279.5000000298078
 40
9.0
210
1.0
220
0.0
230
0.0
100
AcDbArc
 50
180.0
 51
0.0
  0
LINE
  5
238
330
1F
100
AcDbEntity
  8
FP_DD60D$Fisher _ Paykel-3
100
AcDbLine
 10
-349.4999989986455
 20
537.9380587577888
 30
48.50658594368315
 11
-209.500001060968
 21
537.9380587577888
 31
48.50658594368315
  0
ARC
  5
239
330
1F
100
AcDbEntity
  8
FP_DD60D$Fisher _ Paykel-3
100
AcDbCircle
 10
537.9380587577888
 20
57.50658594368315
 30
-279.5000000298078
 40
9.0
210
1.0
220
0.0
230
0.0
100
AcDbArc
 50
0.0
 51
180.0
  0
LINE
  5
23A
330
1F
100
AcDbEntity
  8
FP_DD60D$Fisher _ Paykel-3
100
AcDbLine
 10
-349.4999989986455
 20
537.9380587577888
 30
66.50658594368315
 11
-209.500001060968
 21
537.9380587577888
 31
66.50658594368315
  0
LINE
  5
23B
330
1F
100
AcDbEntity
  8
FP_DD60D$Fisher _ Paykel-3
100
AcDbLine
 10
-349.4999989986455
 20
546.9380587577888
 30
57.50658594368318
 11
-349.4999989986455
 21
528.9380587577888
 31
57.50658594368318
  0
LINE
  5
23C
330
1F
100
AcDbEntity
  8
FP_DD60D$Fisher _ Paykel-3
100
AcDbLine
 10
-349.4999989986455
 20
537.9380587577889
 30
48.50658594368319
 11
-349.4999989986455
 21
537.9380587577889
 31
66.50658594368318
  0
ARC
  5
23D
330
1F
100
AcDbEntity
  8
FP_DD60D$Fisher _ Paykel-3
100
AcDbCircle
 10
209.500001060968
 20
77.50658700464753
 30
528.9380587577889
 40
20.00000106096435
210
0.0
220
1.0
230
0.0
100
AcDbArc
 50
179.9999999999999
 51
269.9999999999998
  0
ARC
  5
23E
330
1F
100
AcDbEntity
  8
FP_DD60D$Fisher _ Paykel-3
100
AcDbCircle
 10
209.500001060968
 20
77.50658700464753
 30
537.9380587577887
 40
29.00000106096432
210
0.0
220
1.0
230
0.0
100
AcDbArc
 50
180.0
 51
270.0
  0
ARC
  5
23F
330
1F
100
AcDbEntity
  8
FP_DD60D$Fisher _ Paykel-3
100
AcDbCircle
 10
209.500001060968
 20
77.50658700464753
 30
546.9380587577889
 40
20.00000106096429
210
0.0
220
1.0
230
0.0
100
AcDbArc
 50
180.0000000000028
 51
224.9999915525031
  0
ARC
  5
240
330
1F
100
AcDbEntity
  8
FP_DD60D$Fisher _ Paykel-3
100
AcDbCircle
 10
209.500001060968
 20
77.50658700464753
 30
546.9380587577889
 40
20.00000106096429
210
0.0
220
1.0
230
0.0
100
AcDbArc
 50
225.0000041301613
 51
270.0000000000001
  0
ARC
  5
241
330
1F
100
AcDbEntity
  8
FP_DD60D$Fisher _ Paykel-3
100
AcDbCircle
 10
209.500001060968
 20
77.50658700464753
 30
546.9380587577889
 40
20.00000106096432
210
0.0
220
1.0
230
0.0
100
AcDbArc
 50
224.999989841623
 51
225.000008621477
  0
ARC
  5
242
330
1F
100
AcDbEntity
  8
FP_DD60D$Fisher _ Paykel-3
100
AcDbCircle
 10
-189.5000000000036
 20
537.9380587577888
 30
83.23927606938798
 40
9.0
100
AcDbArc
 50
270.0
 51
90.0
  0
LINE
  5
243
330
1F
100
AcDbEntity
  8
FP_DD60D$Fisher _ Paykel-3
100
AcDbLine
 10
-180.5000000000036
 20
537.9380587577888
 30
77.50658700464754
 11
-180.5000000000036
 21
537.9380587577888
 31
88.97196513412838
  0
ARC
  5
244
330
1F
100
AcDbEntity
  8
FP_DD60D$Fisher _ Paykel-3
100
AcDbCircle
 10
-189.5000000000036
 20
537.9380587577888
 30
83.23927606938798
 40
9.0
100
AcDbArc
 50
90.0
 51
270.0
  0
LINE
  5
245
330
1F
100
AcDbEntity
  8
FP_DD60D$Fisher _ Paykel-3
100
AcDbLine
 10
-198.5000000000036
 20
537.9380587577888
 30
77.50658700464754
 11
-198.5000000000036
 21
537.9380587577888
 31
88.97196513412838
  0
LINE
  5
246
330
1F
100
AcDbEntity
  8
FP_DD60D$Fisher _ Paykel-3
100
AcDbLine
 10
-189.5000000000038
 20
546.9380587577888
 30
88.97196513412838
 11
-189.5000000000038
 21
528.9380587577887
 31
88.97196513412838
  0
LINE
  5
247
330
1F
100
AcDbEntity
  8
FP_DD60D$Fisher _ Paykel-3
100
AcDbLine
 10
-180.5000000000038
 20
537.9380587577887
 30
88.97196513412838
 11
-198.5000000000037
 21
537.9380587577887
 31
88.97196513412838
  0
ARC
  5
248
330
1F
100
AcDbEntity
  8
FP_DD60D$Fisher _ Paykel-3
100
AcDbCircle
 10
-54.99267708201194
 20
533.9386534848713
 30
83.73601023203477
 40
5.0
100
AcDbArc
 50
0.0
 51
180.0
  0
LINE
  5
249
330
1F
100
AcDbEntity
  8
FP_DD60D$Fisher _ Paykel-3
100
AcDbLine
 10
-59.99267708201194
 20
533.9386534848713
 30
83.73601023203477
 11
-59.99267708201194
 21
533.9386534848713
 31
88.97196513411959
  0
ARC
  5
24A
330
1F
100
AcDbEntity
  8
FP_DD60D$Fisher _ Paykel-3
100
AcDbCircle
 10
54.99267708201194
 20
533.9386534848713
 30
-88.97196513411959
 40
5.0
210
0.0
220
0.0
230
-1.0
100
AcDbArc
 50
0.0
 51
180.0
  0
LINE
  5
24B
330
1F
100
AcDbEntity
  8
FP_DD60D$Fisher _ Paykel-3
100
AcDbLine
 10
-49.99267708201194
 20
533.9386534848713
 30
88.97196513411959
 11
-49.99267708201194
 21
533.9386534848713
 31
83.73601023203477
  0
ARC
  5
24C
330
1F
100
AcDbEntity
  8
FP_DD60D$Fisher _ Paykel-3
100
AcDbCircle
 10
-54.99267708201194
 20
533.9386534848713
 30
83.73601023203477
 40
5.0
100
AcDbArc
 50
180.0
 51
0.0
  0
ARC
  5
24D
330
1F
100
AcDbEntity
  8
FP_DD60D$Fisher _ Paykel-3
100
AcDbCircle
 10
54.99267708201194
 20
533.9386534848713
 30
-88.97196513411959
 40
5.0
210
0.0
220
0.0
230
-1.0
100
AcDbArc
 50
180.0
 51
0.0
  0
ARC
  5
24E
330
1F
100
AcDbEntity
  8
FP_DD60D$Fisher _ Paykel-3
100
AcDbCircle
 10
66.99267708201108
 20
83.73601023203483
 30
533.9386534848713
 40
16.99999999999916
210
0.0
220
1.0
230
0.0
100
AcDbArc
 50
180.0000000000002
 51
270.0000000000002
  0
ARC
  5
24F
330
1F
100
AcDbEntity
  8
FP_DD60D$Fisher _ Paykel-3
100
AcDbCircle
 10
533.9386534848713
 20
71.73601023203568
 30
-66.9926770820118
 40
4.999999999999986
210
1.0
220
0.0
230
0.0
100
AcDbArc
 50
270.0
 51
90.0
  0
ARC
  5
250
330
1F
100
AcDbEntity
  8
FP_DD60D$Fisher _ Paykel-3
100
AcDbCircle
 10
-66.99267708201106
 20
83.7360102320348
 30
-533.9386534848713
 40
6.999999999999119
210
0.0
220
-1.0
230
0.0
100
AcDbArc
 50
269.9999999999883
 51
359.9999999999998
  0
ARC
  5
251
330
1F
100
AcDbEntity
  8
FP_DD60D$Fisher _ Paykel-3
100
AcDbCircle
 10
533.9386534848713
 20
71.73601023203567
 30
-66.9926770820118
 40
5.0
210
1.0
220
0.0
230
0.0
100
AcDbArc
 50
90.0
 51
270.0
  0
ARC
  5
252
330
1F
100
AcDbEntity
  8
FP_DD60D$Fisher _ Paykel-3
100
AcDbCircle
 10
533.9386534848713
 20
71.73601023203565
 30
-349.499996852873
 40
4.999999999999972
210
1.0
220
0.0
230
0.0
100
AcDbArc
 50
270.0
 51
90.0
  0
LINE
  5
253
330
1F
100
AcDbEntity
  8
FP_DD60D$Fisher _ Paykel-3
100
AcDbLine
 10
-349.499996852873
 20
533.9386534848713
 30
76.73601023203567
 11
-66.99267708201248
 21
533.9386534848713
 31
76.73601023203567
  0
LINE
  5
254
330
1F
100
AcDbEntity
  8
FP_DD60D$Fisher _ Paykel-3
100
AcDbLine
 10
-66.99267708201248
 20
533.9386534848713
 30
66.73601023203568
 11
-349.499996852873
 21
533.9386534848713
 31
66.73601023203567
  0
ARC
  5
255
330
1F
100
AcDbEntity
  8
FP_DD60D$Fisher _ Paykel-3
100
AcDbCircle
 10
-533.9386534848713
 20
71.73601023203568
 30
349.499996852873
 40
5.000000000000028
210
-1.0
220
0.0
230
0.0
100
AcDbArc
 50
270.0
 51
90.0
  0
ARC
  5
256
330
1F
100
AcDbEntity
  8
FP_DD60D$Fisher _ Paykel-3
100
AcDbCircle
 10
54.99267708201194
 20
533.9386534848713
 30
-86.35398768307721
 40
5.0
210
0.0
220
0.0
230
-1.0
100
AcDbArc
 50
0.0
 51
180.0
  0
LINE
  5
257
330
1F
100
AcDbEntity
  8
FP_DD60D$Fisher _ Paykel-3
100
AcDbLine
 10
-54.99267708201194
 20
538.9386534848713
 30
88.9719651341196
 11
-54.99267708201194
 21
538.9386534848713
 31
83.73601023203479
  0
ARC
  5
258
330
1F
100
AcDbEntity
  8
FP_DD60D$Fisher _ Paykel-3
100
AcDbCircle
 10
54.99267708201194
 20
533.9386534848713
 30
-86.35398768307718
 40
5.0
210
0.0
220
0.0
230
-1.0
100
AcDbArc
 50
180.0
 51
0.0
  0
LINE
  5
259
330
1F
100
AcDbEntity
  8
FP_DD60D$Fisher _ Paykel-3
100
AcDbLine
 10
-54.99267708201194
 20
528.9386534848713
 30
88.9719651341196
 11
-54.99267708201194
 21
528.9386534848713
 31
83.73601023203479
  0
LINE
  5
25A
330
1F
100
AcDbEntity
  8
FP_DD60D$Fisher _ Paykel-3
100
AcDbLine
 10
-54.99267708201194
 20
538.9386534848713
 30
88.9719651341196
 11
-54.99267708201194
 21
528.9386534848711
 31
88.9719651341196
  0
LINE
  5
25B
330
1F
100
AcDbEntity
  8
FP_DD60D$Fisher _ Paykel-3
100
AcDbLine
 10
-59.99267708201194
 20
533.9386534848713
 30
88.9719651341196
 11
-49.99267708201194
 21
533.9386534848713
 31
88.9719651341196
  0
ARC
  5
25C
330
1F
100
AcDbEntity
  8
FP_DD60D$Fisher _ Paykel-3
100
AcDbCircle
 10
-66.99267708201107
 20
83.7360102320348
 30
-538.9386534848713
 40
11.99999999999913
210
0.0
220
-1.0
230
0.0
100
AcDbArc
 50
269.9999999999998
 51
359.9999999999998
  0
ARC
  5
25D
330
1F
100
AcDbEntity
  8
FP_DD60D$Fisher _ Paykel-3
100
AcDbCircle
 10
-533.9386534848713
 20
71.73601023203567
 30
66.99267708201111
 40
5.0
210
-1.0
220
0.0
230
0.0
100
AcDbArc
 50
90.0
 51
270.0
  0
ARC
  5
25E
330
1F
100
AcDbEntity
  8
FP_DD60D$Fisher _ Paykel-3
100
AcDbCircle
 10
-66.99267708201107
 20
83.7360102320348
 30
-528.9386534848713
 40
11.99999999999913
210
0.0
220
-1.0
230
0.0
100
AcDbArc
 50
269.9999999999998
 51
359.9999999999998
  0
ARC
  5
25F
330
1F
100
AcDbEntity
  8
FP_DD60D$Fisher _ Paykel-3
100
AcDbCircle
 10
-533.9386534848713
 20
71.73601023203565
 30
208.2463369674442
 40
5.0
210
-1.0
220
0.0
230
0.0
100
AcDbArc
 50
90.0
 51
270.0
  0
LINE
  5
260
330
1F
100
AcDbEntity
  8
FP_DD60D$Fisher _ Paykel-3
100
AcDbLine
 10
-66.9926770820111
 20
538.9386534848713
 30
71.73601023203565
 11
-349.4999968528729
 21
538.9386534848713
 31
71.73601023203565
  0
ARC
  5
261
330
1F
100
AcDbEntity
  8
FP_DD60D$Fisher _ Paykel-3
100
AcDbCircle
 10
-533.9386534848713
 20
71.73601023203571
 30
208.2463369674369
 40
5.0
210
-1.0
220
0.0
230
0.0
100
AcDbArc
 50
270.0
 51
90.0
  0
LINE
  5
262
330
1F
100
AcDbEntity
  8
FP_DD60D$Fisher _ Paykel-3
100
AcDbLine
 10
-66.9926770820111
 20
528.9386534848713
 30
71.73601023203571
 11
-349.499996852873
 21
528.9386534848713
 31
71.73601023203571
  0
LINE
  5
263
330
1F
100
AcDbEntity
  8
FP_DD60D$Fisher _ Paykel-3
100
AcDbLine
 10
-349.499996852873
 20
538.9386534848713
 30
71.73601023203567
 11
-349.499996852873
 21
528.9386534848713
 31
71.73601023203567
  0
LINE
  5
264
330
1F
100
AcDbEntity
  8
FP_DD60D$Fisher _ Paykel-3
100
AcDbLine
 10
-349.499996852873
 20
533.9386534848713
 30
76.73601023203567
 11
-349.499996852873
 21
533.9386534848713
 31
66.73601023203567
  0
ARC
  5
265
330
1F
100
AcDbEntity
  8
FP_DD60D$Fisher _ Paykel-3
100
AcDbCircle
 10
-198.1862829868047
 20
524.1045435240422
 30
77.85133661925869
 40
5.000000000000028
100
AcDbArc
 50
0.0
 51
180.0
  0
LINE
  5
266
330
1F
100
AcDbEntity
  8
FP_DD60D$Fisher _ Paykel-3
100
AcDbLine
 10
-203.1862829868047
 20
524.1045435240422
 30
77.85133661925869
 11
-203.1862829868047
 21
524.1045435240422
 31
88.97196513411974
  0
ARC
  5
267
330
1F
100
AcDbEntity
  8
FP_DD60D$Fisher _ Paykel-3
100
AcDbCircle
 10
198.1862829868047
 20
524.1045435240422
 30
-88.97196513411973
 40
5.0
210
0.0
220
0.0
230
-1.0
100
AcDbArc
 50
0.0
 51
180.0
  0
LINE
  5
268
330
1F
100
AcDbEntity
  8
FP_DD60D$Fisher _ Paykel-3
100
AcDbLine
 10
-193.1862829868047
 20
524.1045435240422
 30
88.97196513411974
 11
-193.1862829868047
 21
524.1045435240422
 31
77.85133661925866
  0
ARC
  5
269
330
1F
100
AcDbEntity
  8
FP_DD60D$Fisher _ Paykel-3
100
AcDbCircle
 10
-198.1862829868047
 20
524.1045435240422
 30
77.85133661925869
 40
4.999999999999972
100
AcDbArc
 50
180.0
 51
0.0
  0
ARC
  5
26A
330
1F
100
AcDbEntity
  8
FP_DD60D$Fisher _ Paykel-3
100
AcDbCircle
 10
198.1862829868047
 20
524.1045435240422
 30
-88.97196513411973
 40
5.0
210
0.0
220
0.0
230
-1.0
100
AcDbArc
 50
180.0
 51
0.0
  0
ARC
  5
26B
330
1F
100
AcDbEntity
  8
FP_DD60D$Fisher _ Paykel-3
100
AcDbCircle
 10
218.1862829868038
 20
77.85133661925872
 30
524.1045435240422
 40
24.99999999999915
210
0.0
220
1.0
230
0.0
100
AcDbArc
 50
180.0000000000001
 51
270.0000000000002
  0
ARC
  5
26C
330
1F
100
AcDbEntity
  8
FP_DD60D$Fisher _ Paykel-3
100
AcDbCircle
 10
524.1045435240422
 20
57.85133661925957
 30
-218.186282986803
 40
5.0
210
1.0
220
0.0
230
0.0
100
AcDbArc
 50
270.0
 51
90.0
  0
ARC
  5
26D
330
1F
100
AcDbEntity
  8
FP_DD60D$Fisher _ Paykel-3
100
AcDbCircle
 10
-218.1862829868038
 20
77.85133661925867
 30
-524.1045435240422
 40
14.99999999999915
210
0.0
220
-1.0
230
0.0
100
AcDbArc
 50
270.0000000000064
 51
0.0
  0
ARC
  5
26E
330
1F
100
AcDbEntity
  8
FP_DD60D$Fisher _ Paykel-3
100
AcDbCircle
 10
524.1045435240422
 20
57.85133661925957
 30
-218.186282986803
 40
5.0
210
1.0
220
0.0
230
0.0
100
AcDbArc
 50
90.0
 51
270.0
  0
ARC
  5
26F
330
1F
100
AcDbEntity
  8
FP_DD60D$Fisher _ Paykel-3
100
AcDbCircle
 10
524.1045435240422
 20
57.85133661925956
 30
-349.1862829868039
 40
5.000000000000007
210
1.0
220
0.0
230
0.0
100
AcDbArc
 50
269.9999999999987
 51
90.0
  0
LINE
  5
270
330
1F
100
AcDbEntity
  8
FP_DD60D$Fisher _ Paykel-3
100
AcDbLine
 10
-349.1862829868039
 20
524.1045435240422
 30
62.85133661925956
 11
-218.1862829868021
 21
524.1045435240422
 31
62.85133661925956
  0
LINE
  5
271
330
1F
100
AcDbEntity
  8
FP_DD60D$Fisher _ Paykel-3
100
AcDbLine
 10
-218.1862829868021
 20
524.1045435240422
 30
52.85133661925957
 11
-349.1862829868039
 21
524.1045435240421
 31
52.85133661925958
  0
ARC
  5
272
330
1F
100
AcDbEntity
  8
FP_DD60D$Fisher _ Paykel-3
100
AcDbCircle
 10
524.1045435240422
 20
57.85133661925955
 30
-349.1862829868039
 40
5.000000000000007
210
1.0
220
0.0
230
0.0
100
AcDbArc
 50
90.0
 51
270.0
  0
ARC
  5
273
330
1F
100
AcDbEntity
  8
FP_DD60D$Fisher _ Paykel-3
100
AcDbCircle
 10
198.1862829868047
 20
524.1045435240422
 30
-83.41165087668924
 40
5.0
210
0.0
220
0.0
230
-1.0
100
AcDbArc
 50
0.0
 51
180.0
  0
LINE
  5
274
330
1F
100
AcDbEntity
  8
FP_DD60D$Fisher _ Paykel-3
100
AcDbLine
 10
-198.1862829868047
 20
529.1045435240422
 30
88.97196513411976
 11
-198.1862829868047
 21
529.1045435240422
 31
77.8513366192587
  0
ARC
  5
275
330
1F
100
AcDbEntity
  8
FP_DD60D$Fisher _ Paykel-3
100
AcDbCircle
 10
198.1862829868047
 20
524.1045435240422
 30
-83.41165087668924
 40
5.0
210
0.0
220
0.0
230
-1.0
100
AcDbArc
 50
180.0
 51
0.0
  0
LINE
  5
276
330
1F
100
AcDbEntity
  8
FP_DD60D$Fisher _ Paykel-3
100
AcDbLine
 10
-198.1862829868047
 20
519.1045435240422
 30
88.97196513411976
 11
-198.1862829868047
 21
519.1045435240422
 31
77.8513366192587
  0
LINE
  5
277
330
1F
100
AcDbEntity
  8
FP_DD60D$Fisher _ Paykel-3
100
AcDbLine
 10
-198.1862829868047
 20
529.1045435240422
 30
88.97196513411974
 11
-198.1862829868047
 21
519.1045435240422
 31
88.97196513411974
  0
LINE
  5
278
330
1F
100
AcDbEntity
  8
FP_DD60D$Fisher _ Paykel-3
100
AcDbLine
 10
-203.1862829868047
 20
524.1045435240424
 30
88.97196513411974
 11
-193.1862829868047
 21
524.1045435240424
 31
88.97196513411974
  0
ARC
  5
279
330
1F
100
AcDbEntity
  8
FP_DD60D$Fisher _ Paykel-3
100
AcDbCircle
 10
-218.1862829868038
 20
77.8513366192587
 30
-529.1045435240426
 40
19.99999999999913
210
0.0
220
-1.0
230
0.0
100
AcDbArc
 50
269.9999999999998
 51
359.9999999999998
  0
ARC
  5
27A
330
1F
100
AcDbEntity
  8
FP_DD60D$Fisher _ Paykel-3
100
AcDbCircle
 10
-218.1862829868038
 20
77.8513366192587
 30
-519.1045435240421
 40
19.99999999999913
210
0.0
220
-1.0
230
0.0
100
AcDbArc
 50
269.9999999999998
 51
359.9999999999998
  0
ARC
  5
27B
330
1F
100
AcDbEntity
  8
FP_DD60D$Fisher _ Paykel-3
100
AcDbCircle
 10
-524.1045435240422
 20
57.8513366192596
 30
283.6862829868041
 40
5.0
210
-1.0
220
0.0
230
0.0
100
AcDbArc
 50
90.0
 51
270.0
  0
LINE
  5
27C
330
1F
100
AcDbEntity
  8
FP_DD60D$Fisher _ Paykel-3
100
AcDbLine
 10
-218.1862829868039
 20
529.1045435240422
 30
57.8513366192596
 11
-349.1862829868039
 21
529.1045435240422
 31
57.8513366192596
  0
ARC
  5
27D
330
1F
100
AcDbEntity
  8
FP_DD60D$Fisher _ Paykel-3
100
AcDbCircle
 10
-524.1045435240422
 20
57.85133661925954
 30
283.6862829868041
 40
5.0
210
-1.0
220
0.0
230
0.0
100
AcDbArc
 50
270.0
 51
90.0
  0
LINE
  5
27E
330
1F
100
AcDbEntity
  8
FP_DD60D$Fisher _ Paykel-3
100
AcDbLine
 10
-218.1862829868039
 20
519.1045435240422
 30
57.85133661925954
 11
-349.1862829868039
 21
519.1045435240422
 31
57.85133661925954
  0
LINE
  5
27F
330
1F
100
AcDbEntity
  8
FP_DD60D$Fisher _ Paykel-3
100
AcDbLine
 10
-349.1862829868039
 20
529.1045435240422
 30
57.85133661925958
 11
-349.1862829868039
 21
519.1045435240422
 31
57.85133661925958
  0
LINE
  5
280
330
1F
100
AcDbEntity
  8
FP_DD60D$Fisher _ Paykel-3
100
AcDbLine
 10
-349.1862829868039
 20
524.1045435240424
 30
62.85133661925957
 11
-349.1862829868039
 21
524.1045435240424
 31
52.85133661925959
  0
ARC
  5
281
330
1F
100
AcDbEntity
  8
FP_DD60D$Fisher _ Paykel-1
100
AcDbCircle
 10
-229.9999999999998
 20
110.3999999999992
 30
-84.00000000000014
 40
2.400000000000006
210
0.0
220
-1.0
230
0.0
100
AcDbArc
 50
180.0
 51
0.0
  0
LINE
  5
282
330
1F
100
AcDbEntity
  8
FP_DD60D$Fisher _ Paykel-1
100
AcDbLine
 10
-227.5999999999998
 20
84.00000000000013
 30
110.3999999999992
 11
-227.5999999999998
 21
86.99999999999997
 31
110.3999999999992
  0
ARC
  5
283
330
1F
100
AcDbEntity
  8
FP_DD60D$Fisher _ Paykel-1
100
AcDbCircle
 10
229.9999999999998
 20
110.3999999999992
 30
86.99999999999997
 40
2.400000000000006
210
0.0
220
1.0
230
0.0
100
AcDbArc
 50
180.0
 51
0.0
  0
LINE
  5
284
330
1F
100
AcDbEntity
  8
FP_DD60D$Fisher _ Paykel-1
100
AcDbLine
 10
-232.3999999999998
 20
86.99999999999997
 30
110.3999999999992
 11
-232.3999999999998
 21
84.00000000000014
 31
110.3999999999992
  0
ARC
  5
285
330
1F
100
AcDbEntity
  8
FP_DD60D$Fisher _ Paykel-1
100
AcDbCircle
 10
-229.9999999999998
 20
110.3999999999992
 30
-84.00000000000014
 40
2.400000000000006
210
0.0
220
-1.0
230
0.0
100
AcDbArc
 50
0.0
 51
179.9999999999997
  0
ARC
  5
286
330
1F
100
AcDbEntity
  8
FP_DD60D$Fisher _ Paykel-1
100
AcDbCircle
 10
-229.9999999999998
 20
110.3999999999992
 30
-86.99999999999997
 40
2.400000000000006
210
0.0
220
-1.0
230
0.0
100
AcDbArc
 50
0.0
 51
179.9999999999997
  0
ARC
  5
287
330
1F
100
AcDbEntity
  8
FP_DD60D$Fisher _ Paykel-1
100
AcDbCircle
 10
-229.9999999999614
 20
90.39999999999911
 30
-84.00000000000014
 40
2.400000000000006
210
0.0
220
-1.0
230
0.0
100
AcDbArc
 50
179.9999999999993
 51
0.0000000000010178
  0
LINE
  5
288
330
1F
100
AcDbEntity
  8
FP_DD60D$Fisher _ Paykel-1
100
AcDbLine
 10
-227.5999999999614
 20
84.00000000000014
 30
90.39999999999915
 11
-227.5999999999614
 21
86.99999999999997
 31
90.39999999999915
  0
ARC
  5
289
330
1F
100
AcDbEntity
  8
FP_DD60D$Fisher _ Paykel-1
100
AcDbCircle
 10
229.9999999999614
 20
90.39999999999912
 30
86.99999999999997
 40
2.400000000000006
210
0.0
220
1.0
230
0.0
100
AcDbArc
 50
179.9999999999993
 51
0.0000000000003393
  0
LINE
  5
28A
330
1F
100
AcDbEntity
  8
FP_DD60D$Fisher _ Paykel-1
100
AcDbLine
 10
-232.3999999999614
 20
86.99999999999997
 30
90.39999999999914
 11
-232.3999999999614
 21
84.00000000000014
 31
90.39999999999914
  0
ARC
  5
28B
330
1F
100
AcDbEntity
  8
FP_DD60D$Fisher _ Paykel-1
100
AcDbCircle
 10
229.9999999999614
 20
90.39999999999915
 30
84.00000000000014
 40
2.399999999999977
210
0.0
220
1.0
230
0.0
100
AcDbArc
 50
359.9999999999997
 51
179.9999999999997
  0
ARC
  5
28C
330
1F
100
AcDbEntity
  8
FP_DD60D$Fisher _ Paykel-1
100
AcDbCircle
 10
-229.9999999999614
 20
90.39999999999915
 30
-86.99999999999997
 40
2.400000000000034
210
0.0
220
-1.0
230
0.0
100
AcDbArc
 50
0.0
 51
180.0
  0
ARC
  5
28D
330
1F
100
AcDbEntity
  8
FP_DD60D$Fisher _ Paykel-1
100
AcDbCircle
 10
229.9999999999997
 20
110.4000000000132
 30
-84.00000000000014
 40
2.400000000000006
210
0.0
220
-1.0
230
0.0
100
AcDbArc
 50
179.999999999999
 51
0.0000000000010178
  0
LINE
  5
28E
330
1F
100
AcDbEntity
  8
FP_DD60D$Fisher _ Paykel-1
100
AcDbLine
 10
232.3999999999997
 20
84.00000000000013
 30
110.4000000000133
 11
232.3999999999997
 21
86.99999999999997
 31
110.4000000000133
  0
ARC
  5
28F
330
1F
100
AcDbEntity
  8
FP_DD60D$Fisher _ Paykel-1
100
AcDbCircle
 10
-229.9999999999997
 20
110.4000000000132
 30
86.99999999999997
 40
2.400000000000006
210
0.0
220
1.0
230
0.0
100
AcDbArc
 50
179.9999999999987
 51
0.0000000000010178
  0
LINE
  5
290
330
1F
100
AcDbEntity
  8
FP_DD60D$Fisher _ Paykel-1
100
AcDbLine
 10
227.5999999999997
 20
86.99999999999997
 30
110.4000000000133
 11
227.5999999999997
 21
84.00000000000013
 31
110.4000000000133
  0
ARC
  5
291
330
1F
100
AcDbEntity
  8
FP_DD60D$Fisher _ Paykel-1
100
AcDbCircle
 10
229.9999999999997
 20
110.4000000000133
 30
-84.00000000000014
 40
2.400000000000006
210
0.0
220
-1.0
230
0.0
100
AcDbArc
 50
0.0
 51
180.0
  0
ARC
  5
292
330
1F
100
AcDbEntity
  8
FP_DD60D$Fisher _ Paykel-1
100
AcDbCircle
 10
229.9999999999997
 20
110.4000000000133
 30
-86.99999999999997
 40
2.400000000000006
210
0.0
220
-1.0
230
0.0
100
AcDbArc
 50
0.0
 51
180.0
  0
ARC
  5
293
330
1F
100
AcDbEntity
  8
FP_DD60D$Fisher _ Paykel-1
100
AcDbCircle
 10
229.9999999999998
 20
90.40000000001316
 30
-84.00000000000014
 40
2.400000000000006
210
0.0
220
-1.0
230
0.0
100
AcDbArc
 50
179.9999999999993
 51
0.0000000000003393
  0
LINE
  5
294
330
1F
100
AcDbEntity
  8
FP_DD60D$Fisher _ Paykel-1
100
AcDbLine
 10
232.3999999999998
 20
84.00000000000014
 30
90.4000000000132
 11
232.3999999999998
 21
86.99999999999997
 31
90.4000000000132
  0
ARC
  5
295
330
1F
100
AcDbEntity
  8
FP_DD60D$Fisher _ Paykel-1
100
AcDbCircle
 10
-229.9999999999998
 20
90.40000000001315
 30
86.99999999999997
 40
2.400000000000006
210
0.0
220
1.0
230
0.0
100
AcDbArc
 50
179.999999999999
 51
0.0000000000010178
  0
LINE
  5
296
330
1F
100
AcDbEntity
  8
FP_DD60D$Fisher _ Paykel-1
100
AcDbLine
 10
227.5999999999997
 20
86.99999999999997
 30
90.4000000000132
 11
227.5999999999997
 21
84.00000000000014
 31
90.4000000000132
  0
ARC
  5
297
330
1F
100
AcDbEntity
  8
FP_DD60D$Fisher _ Paykel-1
100
AcDbCircle
 10
-229.9999999999998
 20
90.4000000000132
 30
84.00000000000014
 40
2.400000000000063
210
0.0
220
1.0
230
0.0
100
AcDbArc
 50
0.0
 51
180.0
  0
ARC
  5
298
330
1F
100
AcDbEntity
  8
FP_DD60D$Fisher _ Paykel-1
100
AcDbCircle
 10
229.9999999999998
 20
90.4000000000132
 30
-86.99999999999997
 40
2.399999999999949
210
0.0
220
-1.0
230
0.0
100
AcDbArc
 50
0.0
 51
179.9999999999997
  0
SPLINE
  5
299
330
1F
100
AcDbEntity
  8
FP_DD60D$Fisher _ Paykel-1
100
AcDbSpline
210
0.0
220
0.0
230
1.0
 70
    24
 71
     2
 72
     6
 73
     3
 74
     0
 42
0.0000000001
 43
0.0000000001
 40
-0.2132545931758464
 40
-0.2132545931758464
 40
-0.2132545931758464
 40
0.0
 40
0.0
 40
0.0
 10
-297.4999999999997
 20
84.00000000000013
 30
59.4000000000005
 10
-297.4999999999997
 20
84.00000000000013
 30
91.89999999999948
 10
-297.4999999999997
 20
84.00000000000013
 30
124.3999999999985
  0
SPLINE
  5
29A
330
1F
100
AcDbEntity
  8
FP_DD60D$Fisher _ Paykel-1
100
AcDbSpline
210
0.0
220
0.0
230
1.0
 70
    24
 71
     2
 72
     6
 73
     3
 74
     0
 42
0.0000000001
 43
0.0000000001
 40
-0.0098425196850389
 40
-0.0098425196850389
 40
-0.0098425196850389
 40
0.0
 40
0.0
 40
0.0
 10
-297.4999999999997
 20
84.00000000000013
 30
124.3999999999985
 10
-297.4999999999997
 20
85.50000000000006
 30
124.3999999999985
 10
-297.4999999999997
 20
86.99999999999997
 30
124.3999999999985
  0
SPLINE
  5
29B
330
1F
100
AcDbEntity
  8
FP_DD60D$Fisher _ Paykel-1
100
AcDbSpline
210
0.0
220
0.0
230
1.0
 70
    24
 71
     2
 72
     6
 73
     3
 74
     0
 42
0.0000000001
 43
0.0000000001
 40
-0.2132545931758464
 40
-0.2132545931758464
 40
-0.2132545931758464
 40
0.0
 40
0.0
 40
0.0
 10
-297.4999999999997
 20
86.99999999999997
 30
124.3999999999985
 10
-297.4999999999997
 20
86.99999999999997
 30
91.89999999999948
 10
-297.4999999999997
 20
86.99999999999997
 30
59.4000000000005
  0
SPLINE
  5
29C
330
1F
100
AcDbEntity
  8
FP_DD60D$Fisher _ Paykel-1
100
AcDbSpline
210
0.0
220
0.0
230
1.0
 70
    24
 71
     2
 72
     6
 73
     3
 74
     0
 42
0.0000000001
 43
0.0000000001
 40
-0.0098425196850389
 40
-0.0098425196850389
 40
-0.0098425196850389
 40
0.0
 40
0.0
 40
0.0
 10
-297.4999999999997
 20
86.99999999999997
 30
59.4000000000005
 10
-297.4999999999997
 20
85.50000000000006
 30
59.4000000000005
 10
-297.4999999999997
 20
84.00000000000013
 30
59.4000000000005
  0
SPLINE
  5
29D
330
1F
100
AcDbEntity
  8
FP_DD60D$Fisher _ Paykel-1
100
AcDbSpline
210
0.0
220
0.0
230
1.0
 70
    24
 71
     2
 72
     6
 73
     3
 74
     0
 42
0.0000000001
 43
0.0000000001
 40
-0.2962598425196855
 40
-0.2962598425196855
 40
-0.2962598425196855
 40
0.0
 40
0.0
 40
0.0
 10
-297.4999999999997
 20
84.00000000000013
 30
124.3999999999985
 10
-252.3499999999996
 20
84.00000000000013
 30
124.3999999999985
 10
-207.1999999999995
 20
84.00000000000013
 30
124.3999999999985
  0
SPLINE
  5
29E
330
1F
100
AcDbEntity
  8
FP_DD60D$Fisher _ Paykel-1
100
AcDbSpline
210
0.0
220
0.0
230
1.0
 70
    24
 71
     2
 72
     6
 73
     3
 74
     0
 42
0.0000000001
 43
0.0000000001
 40
-0.0098425196850389
 40
-0.0098425196850389
 40
-0.0098425196850389
 40
0.0
 40
0.0
 40
0.0
 10
-207.1999999999995
 20
84.00000000000013
 30
124.3999999999985
 10
-207.1999999999995
 20
85.50000000000006
 30
124.3999999999985
 10
-207.1999999999995
 20
86.99999999999997
 30
124.3999999999985
  0
SPLINE
  5
29F
330
1F
100
AcDbEntity
  8
FP_DD60D$Fisher _ Paykel-1
100
AcDbSpline
210
0.0
220
0.0
230
1.0
 70
    24
 71
     2
 72
     6
 73
     3
 74
     0
 42
0.0000000001
 43
0.0000000001
 40
-0.2962598425196855
 40
-0.2962598425196855
 40
-0.2962598425196855
 40
0.0
 40
0.0
 40
0.0
 10
-207.1999999999995
 20
86.99999999999997
 30
124.3999999999985
 10
-252.3499999999996
 20
86.99999999999997
 30
124.3999999999985
 10
-297.4999999999997
 20
86.99999999999997
 30
124.3999999999985
  0
SPLINE
  5
2A0
330
1F
100
AcDbEntity
  8
FP_DD60D$Fisher _ Paykel-1
100
AcDbSpline
210
0.0
220
0.0
230
1.0
 70
    24
 71
     2
 72
     6
 73
     3
 74
     0
 42
0.0000000001
 43
0.0000000001
 40
-0.0229658792650898
 40
-0.0229658792650898
 40
-0.0229658792650898
 40
0.0
 40
0.0
 40
0.0
 10
-207.1999999999995
 20
84.00000000000013
 30
124.3999999999985
 10
-207.1999999999995
 20
84.00000000000013
 30
120.8999999999988
 10
-207.1999999999995
 20
84.00000000000013
 30
117.3999999999991
  0
SPLINE
  5
2A1
330
1F
100
AcDbEntity
  8
FP_DD60D$Fisher _ Paykel-1
100
AcDbSpline
210
0.0
220
0.0
230
1.0
 70
    24
 71
     2
 72
     6
 73
     3
 74
     0
 42
0.0000000001
 43
0.0000000001
 40
-0.0098425196850389
 40
-0.0098425196850389
 40
-0.0098425196850389
 40
0.0
 40
0.0
 40
0.0
 10
-207.1999999999995
 20
84.00000000000013
 30
117.3999999999991
 10
-207.1999999999995
 20
85.50000000000006
 30
117.3999999999991
 10
-207.1999999999995
 20
86.99999999999997
 30
117.3999999999991
  0
SPLINE
  5
2A2
330
1F
100
AcDbEntity
  8
FP_DD60D$Fisher _ Paykel-1
100
AcDbSpline
210
0.0
220
0.0
230
1.0
 70
    24
 71
     2
 72
     6
 73
     3
 74
     0
 42
0.0000000001
 43
0.0000000001
 40
-0.0229658792650898
 40
-0.0229658792650898
 40
-0.0229658792650898
 40
0.0
 40
0.0
 40
0.0
 10
-207.1999999999995
 20
86.99999999999997
 30
117.3999999999991
 10
-207.1999999999995
 20
86.99999999999997
 30
120.8999999999988
 10
-207.1999999999995
 20
86.99999999999997
 30
124.3999999999985
  0
SPLINE
  5
2A3
330
1F
100
AcDbEntity
  8
FP_DD60D$Fisher _ Paykel-1
100
AcDbSpline
210
0.0
220
0.0
230
1.0
 70
    24
 71
     2
 72
     6
 73
     3
 74
     0
 42
0.0000000001
 43
0.0000000001
 40
-0.0098425196850403
 40
-0.0098425196850403
 40
-0.0098425196850403
 40
0.0
 40
0.0
 40
0.0
 10
-207.1999999999995
 20
84.00000000000013
 30
117.3999999999991
 10
-208.6999999999997
 20
84.00000000000013
 30
117.3999999999991
 10
-210.1999999999998
 20
84.00000000000013
 30
117.3999999999991
  0
SPLINE
  5
2A4
330
1F
100
AcDbEntity
  8
FP_DD60D$Fisher _ Paykel-1
100
AcDbSpline
210
0.0
220
0.0
230
1.0
 70
    24
 71
     2
 72
     6
 73
     3
 74
     0
 42
0.0000000001
 43
0.0000000001
 40
-0.0098425196850389
 40
-0.0098425196850389
 40
-0.0098425196850389
 40
0.0
 40
0.0
 40
0.0
 10
-210.1999999999998
 20
84.00000000000013
 30
117.3999999999991
 10
-210.1999999999998
 20
85.50000000000006
 30
117.3999999999991
 10
-210.1999999999998
 20
86.99999999999997
 30
117.3999999999991
  0
SPLINE
  5
2A5
330
1F
100
AcDbEntity
  8
FP_DD60D$Fisher _ Paykel-1
100
AcDbSpline
210
0.0
220
0.0
230
1.0
 70
    24
 71
     2
 72
     6
 73
     3
 74
     0
 42
0.0000000001
 43
0.0000000001
 40
-0.0098425196850403
 40
-0.0098425196850403
 40
-0.0098425196850403
 40
0.0
 40
0.0
 40
0.0
 10
-210.1999999999998
 20
86.99999999999997
 30
117.3999999999991
 10
-208.6999999999997
 20
86.99999999999997
 30
117.3999999999991
 10
-207.1999999999995
 20
86.99999999999997
 30
117.3999999999991
  0
SPLINE
  5
2A6
330
1F
100
AcDbEntity
  8
FP_DD60D$Fisher _ Paykel-1
100
AcDbSpline
210
0.0
220
0.0
230
1.0
 70
    24
 71
     2
 72
     6
 73
     3
 74
     0
 42
0.0000000001
 43
0.0000000001
 40
-0.0144356955380575
 40
-0.0144356955380575
 40
-0.0144356955380575
 40
0.0
 40
0.0
 40
0.0
 10
-210.1999999999998
 20
84.00000000000013
 30
117.3999999999991
 10
-210.1999999999998
 20
84.00000000000013
 30
115.1999999999992
 10
-210.1999999999998
 20
84.00000000000013
 30
112.9999999999992
  0
SPLINE
  5
2A7
330
1F
100
AcDbEntity
  8
FP_DD60D$Fisher _ Paykel-1
100
AcDbSpline
210
0.0
220
0.0
230
1.0
 70
    24
 71
     2
 72
     6
 73
     3
 74
     0
 42
0.0000000001
 43
0.0000000001
 40
-0.0098425196850389
 40
-0.0098425196850389
 40
-0.0098425196850389
 40
0.0
 40
0.0
 40
0.0
 10
-210.1999999999998
 20
84.00000000000013
 30
112.9999999999992
 10
-210.1999999999998
 20
85.50000000000006
 30
112.9999999999992
 10
-210.1999999999998
 20
86.99999999999997
 30
112.9999999999992
  0
SPLINE
  5
2A8
330
1F
100
AcDbEntity
  8
FP_DD60D$Fisher _ Paykel-1
100
AcDbSpline
210
0.0
220
0.0
230
1.0
 70
    24
 71
     2
 72
     6
 73
     3
 74
     0
 42
0.0000000001
 43
0.0000000001
 40
-0.0144356955380575
 40
-0.0144356955380575
 40
-0.0144356955380575
 40
0.0
 40
0.0
 40
0.0
 10
-210.1999999999998
 20
86.99999999999997
 30
112.9999999999992
 10
-210.1999999999998
 20
86.99999999999997
 30
115.1999999999992
 10
-210.1999999999998
 20
86.99999999999997
 30
117.3999999999991
  0
SPLINE
  5
2A9
330
1F
100
AcDbEntity
  8
FP_DD60D$Fisher _ Paykel-1
100
AcDbSpline
210
0.0
220
0.0
230
1.0
 70
    24
 71
     2
 72
     6
 73
     3
 74
     0
 42
0.0000000001
 43
0.0000000001
 40
-0.0287401574803149
 40
-0.0287401574803149
 40
-0.0287401574803149
 40
0.0
 40
0.0
 40
0.0
 10
-210.1999999999998
 20
84.00000000000013
 30
112.9999999999992
 10
-205.8199999999999
 20
84.00000000000013
 30
112.9999999999992
 10
-201.4399999999999
 20
84.00000000000013
 30
112.9999999999992
  0
SPLINE
  5
2AA
330
1F
100
AcDbEntity
  8
FP_DD60D$Fisher _ Paykel-1
100
AcDbSpline
210
0.0
220
0.0
230
1.0
 70
    24
 71
     2
 72
     6
 73
     3
 74
     0
 42
0.0000000001
 43
0.0000000001
 40
-0.0098425196850389
 40
-0.0098425196850389
 40
-0.0098425196850389
 40
0.0
 40
0.0
 40
0.0
 10
-201.4399999999999
 20
84.00000000000013
 30
112.9999999999992
 10
-201.4399999999999
 20
85.50000000000006
 30
112.9999999999992
 10
-201.4399999999999
 20
86.99999999999997
 30
112.9999999999992
  0
SPLINE
  5
2AB
330
1F
100
AcDbEntity
  8
FP_DD60D$Fisher _ Paykel-1
100
AcDbSpline
210
0.0
220
0.0
230
1.0
 70
    24
 71
     2
 72
     6
 73
     3
 74
     0
 42
0.0000000001
 43
0.0000000001
 40
-0.0287401574803149
 40
-0.0287401574803149
 40
-0.0287401574803149
 40
0.0
 40
0.0
 40
0.0
 10
-201.4399999999999
 20
86.99999999999997
 30
112.9999999999992
 10
-205.8199999999999
 20
86.99999999999997
 30
112.9999999999992
 10
-210.1999999999998
 20
86.99999999999997
 30
112.9999999999992
  0
SPLINE
  5
2AC
330
1F
100
AcDbEntity
  8
FP_DD60D$Fisher _ Paykel-1
100
AcDbSpline
210
0.0
220
0.0
230
1.0
 70
    24
 71
     2
 72
     6
 73
     3
 74
     0
 42
0.0000000001
 43
0.0000000001
 40
-0.0815438770250422
 40
-0.0815438770250422
 40
-0.0815438770250422
 40
0.0
 40
0.0
 40
0.0
 10
-201.4399999999999
 20
84.00000000000013
 30
112.9999999999992
 10
-201.4399999999966
 20
84.00000000000013
 30
100.5727131413824
 10
-201.4399999999933
 20
84.00000000000013
 30
88.1454262827657
  0
SPLINE
  5
2AD
330
1F
100
AcDbEntity
  8
FP_DD60D$Fisher _ Paykel-1
100
AcDbSpline
210
0.0
220
0.0
230
1.0
 70
    24
 71
     2
 72
     6
 73
     3
 74
     0
 42
0.0000000001
 43
0.0000000001
 40
-0.0098425196850389
 40
-0.0098425196850389
 40
-0.0098425196850389
 40
0.0
 40
0.0
 40
0.0
 10
-201.4399999999933
 20
84.00000000000013
 30
88.1454262827657
 10
-201.4399999999933
 20
85.50000000000006
 30
88.1454262827657
 10
-201.4399999999933
 20
86.99999999999997
 30
88.1454262827657
  0
SPLINE
  5
2AE
330
1F
100
AcDbEntity
  8
FP_DD60D$Fisher _ Paykel-1
100
AcDbSpline
210
0.0
220
0.0
230
1.0
 70
    24
 71
     2
 72
     6
 73
     3
 74
     0
 42
0.0000000001
 43
0.0000000001
 40
-0.0815438770250422
 40
-0.0815438770250422
 40
-0.0815438770250422
 40
0.0
 40
0.0
 40
0.0
 10
-201.4399999999933
 20
86.99999999999997
 30
88.1454262827657
 10
-201.4399999999966
 20
86.99999999999997
 30
100.5727131413824
 10
-201.4399999999999
 20
86.99999999999997
 30
112.9999999999992
  0
ARC
  5
2AF
330
1F
100
AcDbEntity
  8
FP_DD60D$Fisher _ Paykel-1
100
AcDbCircle
 10
0.0000000000029044
 20
1117.118694180084
 30
-83.99999999999932
 40
1048.505631671707
210
0.0
220
-1.0
230
0.0
100
AcDbArc
 50
258.9234079633788
 51
281.0765920366212
  0
LINE
  5
2B0
330
1F
100
AcDbEntity
  8
FP_DD60D$Fisher _ Paykel-1
100
AcDbLine
 10
201.4400000000003
 20
84.00000000000013
 30
88.14542628276394
 11
201.4400000000038
 21
86.99999999999997
 31
88.14542628276823
  0
ARC
  5
2B1
330
1F
100
AcDbEntity
  8
FP_DD60D$Fisher _ Paykel-1
100
AcDbCircle
 10
0.000000000004567
 20
1117.118694180037
 30
86.99999999999977
 40
1048.50563167166
210
0.0
220
1.0
230
0.0
100
AcDbArc
 50
258.9234079633777
 51
281.0765920366212
  0
SPLINE
  5
2B2
330
1F
100
AcDbEntity
  8
FP_DD60D$Fisher _ Paykel-1
100
AcDbSpline
210
0.0
220
0.0
230
1.0
 70
    24
 71
     2
 72
     6
 73
     3
 74
     0
 42
0.0000000001
 43
0.0000000001
 40
-0.0815438770251
 40
-0.0815438770251
 40
-0.0815438770251
 40
0.0
 40
0.0
 40
0.0
 10
201.4400000000003
 20
84.00000000000013
 30
88.14542628276394
 10
201.44
 20
84.00000000000013
 30
100.5727131413886
 10
201.4399999999997
 20
84.00000000000013
 30
113.0000000000133
  0
SPLINE
  5
2B3
330
1F
100
AcDbEntity
  8
FP_DD60D$Fisher _ Paykel-1
100
AcDbSpline
210
0.0
220
0.0
230
1.0
 70
    24
 71
     2
 72
     6
 73
     3
 74
     0
 42
0.0000000001
 43
0.0000000001
 40
-0.0098425196850389
 40
-0.0098425196850389
 40
-0.0098425196850389
 40
0.0
 40
0.0
 40
0.0
 10
201.4399999999997
 20
84.00000000000013
 30
113.0000000000133
 10
201.4399999999997
 20
85.50000000000006
 30
113.0000000000133
 10
201.4399999999997
 20
86.99999999999997
 30
113.0000000000133
  0
SPLINE
  5
2B4
330
1F
100
AcDbEntity
  8
FP_DD60D$Fisher _ Paykel-1
100
AcDbSpline
210
0.0
220
0.0
230
1.0
 70
    24
 71
     2
 72
     6
 73
     3
 74
     0
 42
0.0000000001
 43
0.0000000001
 40
-0.0815438770251
 40
-0.0815438770251
 40
-0.0815438770251
 40
-0.0000000000000198
 40
-0.0000000000000198
 40
-0.0000000000000198
 10
201.4399999999997
 20
86.99999999999997
 30
113.0000000000133
 10
201.4400000000018
 20
86.99999999999997
 30
100.5727131413908
 10
201.4400000000038
 20
86.99999999999997
 30
88.14542628276823
  0
SPLINE
  5
2B5
330
1F
100
AcDbEntity
  8
FP_DD60D$Fisher _ Paykel-1
100
AcDbSpline
210
0.0
220
0.0
230
1.0
 70
    24
 71
     2
 72
     6
 73
     3
 74
     0
 42
0.0000000001
 43
0.0000000001
 40
-0.028740157480315
 40
-0.028740157480315
 40
-0.028740157480315
 40
0.0
 40
0.0
 40
0.0
 10
201.4399999999997
 20
84.00000000000013
 30
113.0000000000133
 10
205.8199999999998
 20
84.00000000000013
 30
113.0000000000133
 10
210.1999999999998
 20
84.00000000000013
 30
113.0000000000133
  0
SPLINE
  5
2B6
330
1F
100
AcDbEntity
  8
FP_DD60D$Fisher _ Paykel-1
100
AcDbSpline
210
0.0
220
0.0
230
1.0
 70
    24
 71
     2
 72
     6
 73
     3
 74
     0
 42
0.0000000001
 43
0.0000000001
 40
-0.0098425196850389
 40
-0.0098425196850389
 40
-0.0098425196850389
 40
0.0
 40
0.0
 40
0.0
 10
210.1999999999998
 20
84.00000000000013
 30
113.0000000000133
 10
210.1999999999998
 20
85.50000000000006
 30
113.0000000000133
 10
210.1999999999998
 20
86.99999999999997
 30
113.0000000000133
  0
SPLINE
  5
2B7
330
1F
100
AcDbEntity
  8
FP_DD60D$Fisher _ Paykel-1
100
AcDbSpline
210
0.0
220
0.0
230
1.0
 70
    24
 71
     2
 72
     6
 73
     3
 74
     0
 42
0.0000000001
 43
0.0000000001
 40
-0.028740157480315
 40
-0.028740157480315
 40
-0.028740157480315
 40
0.0
 40
0.0
 40
0.0
 10
210.1999999999998
 20
86.99999999999997
 30
113.0000000000133
 10
205.8199999999998
 20
86.99999999999997
 30
113.0000000000133
 10
201.4399999999997
 20
86.99999999999997
 30
113.0000000000133
  0
SPLINE
  5
2B8
330
1F
100
AcDbEntity
  8
FP_DD60D$Fisher _ Paykel-1
100
AcDbSpline
210
0.0
220
0.0
230
1.0
 70
    24
 71
     2
 72
     6
 73
     3
 74
     0
 42
0.0000000001
 43
0.0000000001
 40
-0.0144356955380571
 40
-0.0144356955380571
 40
-0.0144356955380571
 40
0.0
 40
0.0
 40
0.0
 10
210.1999999999998
 20
84.00000000000013
 30
113.0000000000133
 10
210.1999999999998
 20
84.00000000000013
 30
115.2000000000132
 10
210.1999999999998
 20
84.00000000000013
 30
117.4000000000131
  0
SPLINE
  5
2B9
330
1F
100
AcDbEntity
  8
FP_DD60D$Fisher _ Paykel-1
100
AcDbSpline
210
0.0
220
0.0
230
1.0
 70
    24
 71
     2
 72
     6
 73
     3
 74
     0
 42
0.0000000001
 43
0.0000000001
 40
-0.0098425196850389
 40
-0.0098425196850389
 40
-0.0098425196850389
 40
0.0
 40
0.0
 40
0.0
 10
210.1999999999998
 20
84.00000000000013
 30
117.4000000000131
 10
210.1999999999998
 20
85.50000000000006
 30
117.4000000000131
 10
210.1999999999998
 20
86.99999999999997
 30
117.4000000000131
  0
SPLINE
  5
2BA
330
1F
100
AcDbEntity
  8
FP_DD60D$Fisher _ Paykel-1
100
AcDbSpline
210
0.0
220
0.0
230
1.0
 70
    24
 71
     2
 72
     6
 73
     3
 74
     0
 42
0.0000000001
 43
0.0000000001
 40
-0.0144356955380571
 40
-0.0144356955380571
 40
-0.0144356955380571
 40
0.0
 40
0.0
 40
0.0
 10
210.1999999999998
 20
86.99999999999997
 30
117.4000000000131
 10
210.1999999999998
 20
86.99999999999997
 30
115.2000000000132
 10
210.1999999999998
 20
86.99999999999997
 30
113.0000000000133
  0
SPLINE
  5
2BB
330
1F
100
AcDbEntity
  8
FP_DD60D$Fisher _ Paykel-1
100
AcDbSpline
210
0.0
220
0.0
230
1.0
 70
    24
 71
     2
 72
     6
 73
     3
 74
     0
 42
0.0000000001
 43
0.0000000001
 40
-0.0098425196850405
 40
-0.0098425196850405
 40
-0.0098425196850405
 40
0.0
 40
0.0
 40
0.0
 10
210.1999999999998
 20
84.00000000000013
 30
117.4000000000131
 10
208.6999999999996
 20
84.00000000000013
 30
117.4000000000131
 10
207.1999999999994
 20
84.00000000000013
 30
117.4000000000131
  0
SPLINE
  5
2BC
330
1F
100
AcDbEntity
  8
FP_DD60D$Fisher _ Paykel-1
100
AcDbSpline
210
0.0
220
0.0
230
1.0
 70
    24
 71
     2
 72
     6
 73
     3
 74
     0
 42
0.0000000001
 43
0.0000000001
 40
-0.0098425196850389
 40
-0.0098425196850389
 40
-0.0098425196850389
 40
0.0
 40
0.0
 40
0.0
 10
207.1999999999994
 20
84.00000000000013
 30
117.4000000000131
 10
207.1999999999994
 20
85.50000000000006
 30
117.4000000000131
 10
207.1999999999994
 20
86.99999999999997
 30
117.4000000000131
  0
SPLINE
  5
2BD
330
1F
100
AcDbEntity
  8
FP_DD60D$Fisher _ Paykel-1
100
AcDbSpline
210
0.0
220
0.0
230
1.0
 70
    24
 71
     2
 72
     6
 73
     3
 74
     0
 42
0.0000000001
 43
0.0000000001
 40
-0.0098425196850405
 40
-0.0098425196850405
 40
-0.0098425196850405
 40
0.0
 40
0.0
 40
0.0
 10
207.1999999999994
 20
86.99999999999997
 30
117.4000000000131
 10
208.6999999999996
 20
86.99999999999997
 30
117.4000000000131
 10
210.1999999999998
 20
86.99999999999997
 30
117.4000000000131
  0
SPLINE
  5
2BE
330
1F
100
AcDbEntity
  8
FP_DD60D$Fisher _ Paykel-1
100
AcDbSpline
210
0.0
220
0.0
230
1.0
 70
    24
 71
     2
 72
     6
 73
     3
 74
     0
 42
0.0000000001
 43
0.0000000001
 40
-0.0229658792650902
 40
-0.0229658792650902
 40
-0.0229658792650902
 40
0.0
 40
0.0
 40
0.0
 10
207.1999999999994
 20
84.00000000000013
 30
117.4000000000131
 10
207.1999999999994
 20
84.00000000000013
 30
120.9000000000129
 10
207.1999999999994
 20
84.00000000000013
 30
124.4000000000127
  0
SPLINE
  5
2BF
330
1F
100
AcDbEntity
  8
FP_DD60D$Fisher _ Paykel-1
100
AcDbSpline
210
0.0
220
0.0
230
1.0
 70
    24
 71
     2
 72
     6
 73
     3
 74
     0
 42
0.0000000001
 43
0.0000000001
 40
-0.0098425196850389
 40
-0.0098425196850389
 40
-0.0098425196850389
 40
0.0
 40
0.0
 40
0.0
 10
207.1999999999994
 20
84.00000000000013
 30
124.4000000000127
 10
207.1999999999994
 20
85.50000000000006
 30
124.4000000000127
 10
207.1999999999994
 20
86.99999999999997
 30
124.4000000000127
  0
SPLINE
  5
2C0
330
1F
100
AcDbEntity
  8
FP_DD60D$Fisher _ Paykel-1
100
AcDbSpline
210
0.0
220
0.0
230
1.0
 70
    24
 71
     2
 72
     6
 73
     3
 74
     0
 42
0.0000000001
 43
0.0000000001
 40
-0.0229658792650902
 40
-0.0229658792650902
 40
-0.0229658792650902
 40
0.0
 40
0.0
 40
0.0
 10
207.1999999999994
 20
86.99999999999997
 30
124.4000000000127
 10
207.1999999999994
 20
86.99999999999997
 30
120.9000000000129
 10
207.1999999999994
 20
86.99999999999997
 30
117.4000000000131
  0
SPLINE
  5
2C1
330
1F
100
AcDbEntity
  8
FP_DD60D$Fisher _ Paykel-1
100
AcDbSpline
210
0.0
220
0.0
230
1.0
 70
    24
 71
     2
 72
     6
 73
     3
 74
     0
 42
0.0000000001
 43
0.0000000001
 40
-0.2962598425196861
 40
-0.2962598425196861
 40
-0.2962598425196861
 40
0.0
 40
0.0
 40
0.0
 10
207.1999999999994
 20
84.00000000000013
 30
124.4000000000127
 10
252.3499999999996
 20
84.00000000000013
 30
124.4000000000127
 10
297.4999999999998
 20
84.00000000000013
 30
124.4000000000127
  0
SPLINE
  5
2C2
330
1F
100
AcDbEntity
  8
FP_DD60D$Fisher _ Paykel-1
100
AcDbSpline
210
0.0
220
0.0
230
1.0
 70
    24
 71
     2
 72
     6
 73
     3
 74
     0
 42
0.0000000001
 43
0.0000000001
 40
-0.0098425196850389
 40
-0.0098425196850389
 40
-0.0098425196850389
 40
0.0
 40
0.0
 40
0.0
 10
297.4999999999998
 20
84.00000000000013
 30
124.4000000000127
 10
297.4999999999998
 20
85.50000000000006
 30
124.4000000000127
 10
297.4999999999998
 20
86.99999999999997
 30
124.4000000000127
  0
SPLINE
  5
2C3
330
1F
100
AcDbEntity
  8
FP_DD60D$Fisher _ Paykel-1
100
AcDbSpline
210
0.0
220
0.0
230
1.0
 70
    24
 71
     2
 72
     6
 73
     3
 74
     0
 42
0.0000000001
 43
0.0000000001
 40
-0.2962598425196861
 40
-0.2962598425196861
 40
-0.2962598425196861
 40
0.0
 40
0.0
 40
0.0
 10
297.4999999999998
 20
86.99999999999997
 30
124.4000000000127
 10
252.3499999999996
 20
86.99999999999997
 30
124.4000000000127
 10
207.1999999999994
 20
86.99999999999997
 30
124.4000000000127
  0
SPLINE
  5
2C4
330
1F
100
AcDbEntity
  8
FP_DD60D$Fisher _ Paykel-1
100
AcDbSpline
210
0.0
220
0.0
230
1.0
 70
    24
 71
     2
 72
     6
 73
     3
 74
     0
 42
0.0000000001
 43
0.0000000001
 40
-0.2132545931758929
 40
-0.2132545931758929
 40
-0.2132545931758929
 40
0.0
 40
0.0
 40
0.0
 10
297.4999999999998
 20
84.00000000000013
 30
124.4000000000127
 10
297.4999999999998
 20
84.00000000000013
 30
91.90000000000657
 10
297.4999999999998
 20
84.00000000000013
 30
59.4000000000005
  0
SPLINE
  5
2C5
330
1F
100
AcDbEntity
  8
FP_DD60D$Fisher _ Paykel-1
100
AcDbSpline
210
0.0
220
0.0
230
1.0
 70
    24
 71
     2
 72
     6
 73
     3
 74
     0
 42
0.0000000001
 43
0.0000000001
 40
-0.0098425196850389
 40
-0.0098425196850389
 40
-0.0098425196850389
 40
0.0
 40
0.0
 40
0.0
 10
297.4999999999998
 20
84.00000000000013
 30
59.4000000000005
 10
297.4999999999998
 20
85.50000000000006
 30
59.4000000000005
 10
297.4999999999998
 20
86.99999999999997
 30
59.4000000000005
  0
SPLINE
  5
2C6
330
1F
100
AcDbEntity
  8
FP_DD60D$Fisher _ Paykel-1
100
AcDbSpline
210
0.0
220
0.0
230
1.0
 70
    24
 71
     2
 72
     6
 73
     3
 74
     0
 42
0.0000000001
 43
0.0000000001
 40
-0.2132545931758929
 40
-0.2132545931758929
 40
-0.2132545931758929
 40
0.0
 40
0.0
 40
0.0
 10
297.4999999999998
 20
86.99999999999997
 30
59.4000000000005
 10
297.4999999999998
 20
86.99999999999997
 30
91.90000000000657
 10
297.4999999999998
 20
86.99999999999997
 30
124.4000000000127
  0
SPLINE
  5
2C7
330
1F
100
AcDbEntity
  8
FP_DD60D$Fisher _ Paykel-1
100
AcDbSpline
210
0.0
220
0.0
230
1.0
 70
    24
 71
     2
 72
     6
 73
     3
 74
     0
 42
0.0000000001
 43
0.0000000001
 40
-1.952099737532807
 40
-1.952099737532807
 40
-1.952099737532807
 40
0.0
 40
0.0
 40
0.0
 10
297.4999999999998
 20
84.00000000000013
 30
59.4000000000005
 10
0.0000000000000568
 20
84.00000000000013
 30
59.4000000000005
 10
-297.4999999999997
 20
84.00000000000013
 30
59.4000000000005
  0
SPLINE
  5
2C8
330
1F
100
AcDbEntity
  8
FP_DD60D$Fisher _ Paykel-1
100
AcDbSpline
210
0.0
220
0.0
230
1.0
 70
    24
 71
     2
 72
     6
 73
     3
 74
     0
 42
0.0000000001
 43
0.0000000001
 40
-1.952099737532807
 40
-1.952099737532807
 40
-1.952099737532807
 40
0.0
 40
0.0
 40
0.0
 10
-297.4999999999997
 20
86.99999999999997
 30
59.4000000000005
 10
0.0000000000000568
 20
86.99999999999997
 30
59.4000000000005
 10
297.4999999999998
 20
86.99999999999997
 30
59.4000000000005
  0
ARC
  5
2C9
330
1F
100
AcDbEntity
  8
FP_DD60D$Fisher _ Paykel-1
100
AcDbCircle
 10
229.9999999999998
 20
110.3999999999992
 30
85.50000000000006
 40
2.400000000000006
210
0.0
220
1.0
230
0.0
100
AcDbArc
 50
180.0
 51
0.0
  0
LINE
  5
2CA
330
1F
100
AcDbEntity
  8
FP_DD60D$Fisher _ Paykel-1
100
AcDbLine
 10
-229.9999999999998
 20
84.00000000000014
 30
107.9999999999992
 11
-229.9999999999998
 21
86.99999999999999
 31
107.9999999999992
  0
ARC
  5
2CB
330
1F
100
AcDbEntity
  8
FP_DD60D$Fisher _ Paykel-1
100
AcDbCircle
 10
229.9999999999998
 20
110.3999999999992
 30
85.50000000000006
 40
2.400000000000006
210
0.0
220
1.0
230
0.0
100
AcDbArc
 50
0.0
 51
180.0
  0
LINE
  5
2CC
330
1F
100
AcDbEntity
  8
FP_DD60D$Fisher _ Paykel-1
100
AcDbLine
 10
-229.9999999999998
 20
84.00000000000014
 30
112.7999999999992
 11
-229.9999999999998
 21
86.99999999999999
 31
112.7999999999992
  0
ARC
  5
2CD
330
1F
100
AcDbEntity
  8
FP_DD60D$Fisher _ Paykel-1
100
AcDbCircle
 10
229.9999999999614
 20
90.39999999999915
 30
85.50000000000006
 40
2.400000000000006
210
0.0
220
1.0
230
0.0
100
AcDbArc
 50
180.0
 51
0.0
  0
LINE
  5
2CE
330
1F
100
AcDbEntity
  8
FP_DD60D$Fisher _ Paykel-1
100
AcDbLine
 10
-229.9999999999614
 20
84.00000000000014
 30
87.99999999999915
 11
-229.9999999999614
 21
86.99999999999999
 31
87.99999999999915
  0
ARC
  5
2CF
330
1F
100
AcDbEntity
  8
FP_DD60D$Fisher _ Paykel-1
100
AcDbCircle
 10
229.9999999999615
 20
90.39999999999915
 30
85.50000000000006
 40
2.400000000000006
210
0.0
220
1.0
230
0.0
100
AcDbArc
 50
0.0
 51
180.0
  0
LINE
  5
2D0
330
1F
100
AcDbEntity
  8
FP_DD60D$Fisher _ Paykel-1
100
AcDbLine
 10
-229.9999999999615
 20
84.00000000000014
 30
92.79999999999916
 11
-229.9999999999615
 21
86.99999999999999
 31
92.79999999999916
  0
ARC
  5
2D1
330
1F
100
AcDbEntity
  8
FP_DD60D$Fisher _ Paykel-1
100
AcDbCircle
 10
-229.9999999999997
 20
110.4000000000133
 30
85.50000000000006
 40
2.400000000000006
210
0.0
220
1.0
230
0.0
100
AcDbArc
 50
180.0
 51
0.0
  0
LINE
  5
2D2
330
1F
100
AcDbEntity
  8
FP_DD60D$Fisher _ Paykel-1
100
AcDbLine
 10
229.9999999999997
 20
84.00000000000014
 30
108.0000000000133
 11
229.9999999999997
 21
86.99999999999999
 31
108.0000000000133
  0
ARC
  5
2D3
330
1F
100
AcDbEntity
  8
FP_DD60D$Fisher _ Paykel-1
100
AcDbCircle
 10
-229.9999999999997
 20
110.4000000000133
 30
85.50000000000006
 40
2.400000000000006
210
0.0
220
1.0
230
0.0
100
AcDbArc
 50
0.0
 51
180.0
  0
LINE
  5
2D4
330
1F
100
AcDbEntity
  8
FP_DD60D$Fisher _ Paykel-1
100
AcDbLine
 10
229.9999999999997
 20
84.00000000000014
 30
112.8000000000133
 11
229.9999999999997
 21
86.99999999999999
 31
112.8000000000133
  0
ARC
  5
2D5
330
1F
100
AcDbEntity
  8
FP_DD60D$Fisher _ Paykel-1
100
AcDbCircle
 10
-229.9999999999998
 20
90.4000000000132
 30
85.50000000000006
 40
2.400000000000006
210
0.0
220
1.0
230
0.0
100
AcDbArc
 50
180.0
 51
0.0
  0
LINE
  5
2D6
330
1F
100
AcDbEntity
  8
FP_DD60D$Fisher _ Paykel-1
100
AcDbLine
 10
229.9999999999998
 20
84.00000000000014
 30
88.00000000001319
 11
229.9999999999998
 21
86.99999999999999
 31
88.00000000001319
  0
ARC
  5
2D7
330
1F
100
AcDbEntity
  8
FP_DD60D$Fisher _ Paykel-1
100
AcDbCircle
 10
-229.9999999999998
 20
90.4000000000132
 30
85.50000000000006
 40
2.400000000000006
210
0.0
220
1.0
230
0.0
100
AcDbArc
 50
0.0
 51
180.0
  0
LINE
  5
2D8
330
1F
100
AcDbEntity
  8
FP_DD60D$Fisher _ Paykel-1
100
AcDbLine
 10
229.9999999999998
 20
84.00000000000014
 30
92.8000000000132
 11
229.9999999999998
 21
86.99999999999999
 31
92.8000000000132
  0
LINE
  5
2D9
330
1F
100
AcDbEntity
  8
FP_DD60D$Fisher _ Paykel-1
100
AcDbLine
 10
-297.4999999999997
 20
84.00000000000011
 30
91.8999999999995
 11
-297.4999999999997
 21
87.0
 31
91.8999999999995
  0
LINE
  5
2DA
330
1F
100
AcDbEntity
  8
FP_DD60D$Fisher _ Paykel-1
100
AcDbLine
 10
-297.4999999999997
 20
85.50000000000006
 30
124.3999999999985
 11
-297.4999999999997
 21
85.50000000000006
 31
59.4000000000005
  0
LINE
  5
2DB
330
1F
100
AcDbEntity
  8
FP_DD60D$Fisher _ Paykel-1
100
AcDbLine
 10
-252.3499999999996
 20
84.00000000000011
 30
124.3999999999985
 11
-252.3499999999996
 21
87.0
 31
124.3999999999985
  0
LINE
  5
2DC
330
1F
100
AcDbEntity
  8
FP_DD60D$Fisher _ Paykel-1
100
AcDbLine
 10
-207.1999999999996
 20
85.50000000000006
 30
124.3999999999985
 11
-297.4999999999997
 21
85.50000000000006
 31
124.3999999999985
  0
LINE
  5
2DD
330
1F
100
AcDbEntity
  8
FP_DD60D$Fisher _ Paykel-1
100
AcDbLine
 10
-207.1999999999996
 20
84.00000000000011
 30
120.8999999999988
 11
-207.1999999999996
 21
87.0
 31
120.8999999999988
  0
LINE
  5
2DE
330
1F
100
AcDbEntity
  8
FP_DD60D$Fisher _ Paykel-1
100
AcDbLine
 10
-207.1999999999996
 20
85.50000000000006
 30
117.3999999999991
 11
-207.1999999999996
 21
85.50000000000006
 31
124.3999999999985
  0
LINE
  5
2DF
330
1F
100
AcDbEntity
  8
FP_DD60D$Fisher _ Paykel-1
100
AcDbLine
 10
-208.6999999999997
 20
84.00000000000011
 30
117.3999999999991
 11
-208.6999999999997
 21
87.0
 31
117.3999999999991
  0
LINE
  5
2E0
330
1F
100
AcDbEntity
  8
FP_DD60D$Fisher _ Paykel-1
100
AcDbLine
 10
-210.1999999999998
 20
85.50000000000006
 30
117.3999999999991
 11
-207.1999999999996
 21
85.50000000000006
 31
117.3999999999991
  0
LINE
  5
2E1
330
1F
100
AcDbEntity
  8
FP_DD60D$Fisher _ Paykel-1
100
AcDbLine
 10
-210.1999999999998
 20
84.00000000000011
 30
115.1999999999992
 11
-210.1999999999998
 21
87.0
 31
115.1999999999992
  0
LINE
  5
2E2
330
1F
100
AcDbEntity
  8
FP_DD60D$Fisher _ Paykel-1
100
AcDbLine
 10
-210.1999999999998
 20
85.50000000000006
 30
112.9999999999992
 11
-210.1999999999998
 21
85.50000000000006
 31
117.3999999999991
  0
LINE
  5
2E3
330
1F
100
AcDbEntity
  8
FP_DD60D$Fisher _ Paykel-1
100
AcDbLine
 10
-205.8199999999999
 20
84.00000000000011
 30
112.9999999999992
 11
-205.8199999999999
 21
87.0
 31
112.9999999999992
  0
LINE
  5
2E4
330
1F
100
AcDbEntity
  8
FP_DD60D$Fisher _ Paykel-1
100
AcDbLine
 10
-201.4399999999998
 20
85.50000000000006
 30
112.9999999999992
 11
-210.1999999999998
 21
85.50000000000006
 31
112.9999999999992
  0
LINE
  5
2E5
330
1F
100
AcDbEntity
  8
FP_DD60D$Fisher _ Paykel-1
100
AcDbLine
 10
-201.4399999999965
 20
84.00000000000011
 30
100.5727131413828
 11
-201.4399999999965
 21
87.0
 31
100.5727131413828
  0
LINE
  5
2E6
330
1F
100
AcDbEntity
  8
FP_DD60D$Fisher _ Paykel-1
100
AcDbLine
 10
-201.4399999999931
 20
85.50000000000006
 30
88.14542628276632
 11
-201.4399999999999
 21
85.50000000000006
 31
112.9999999999992
  0
ARC
  5
2E7
330
1F
100
AcDbEntity
  8
FP_DD60D$Fisher _ Paykel-1
100
AcDbCircle
 10
0.0
 20
1117.118694180148
 30
85.50000000000006
 40
1048.50563167177
210
0.0
220
1.0
230
0.0
100
AcDbArc
 50
258.9234079633792
 51
281.0765920366204
  0
LINE
  5
2E8
330
1F
100
AcDbEntity
  8
FP_DD60D$Fisher _ Paykel-1
100
AcDbLine
 10
0.000000000001819
 20
84.00000000000014
 30
68.61306250837788
 11
0.000000000001819
 21
86.99999999999999
 31
68.61306250837788
  0
LINE
  5
2E9
330
1F
100
AcDbEntity
  8
FP_DD60D$Fisher _ Paykel-1
100
AcDbLine
 10
201.4399999999998
 20
84.00000000000011
 30
100.5727131413881
 11
201.4399999999998
 21
87.0
 31
100.5727131413881
  0
LINE
  5
2EA
330
1F
100
AcDbEntity
  8
FP_DD60D$Fisher _ Paykel-1
100
AcDbLine
 10
201.4399999999998
 20
85.50000000000006
 30
113.0000000000133
 11
201.4399999999998
 21
85.50000000000006
 31
88.14542628276588
  0
LINE
  5
2EB
330
1F
100
AcDbEntity
  8
FP_DD60D$Fisher _ Paykel-1
100
AcDbLine
 10
205.8199999999998
 20
84.00000000000011
 30
113.0000000000133
 11
205.8199999999998
 21
87.0
 31
113.0000000000133
  0
LINE
  5
2EC
330
1F
100
AcDbEntity
  8
FP_DD60D$Fisher _ Paykel-1
100
AcDbLine
 10
210.1999999999998
 20
85.50000000000006
 30
113.0000000000133
 11
201.4399999999998
 21
85.50000000000006
 31
113.0000000000133
  0
LINE
  5
2ED
330
1F
100
AcDbEntity
  8
FP_DD60D$Fisher _ Paykel-1
100
AcDbLine
 10
210.1999999999998
 20
84.00000000000011
 30
115.2000000000132
 11
210.1999999999998
 21
87.0
 31
115.2000000000132
  0
LINE
  5
2EE
330
1F
100
AcDbEntity
  8
FP_DD60D$Fisher _ Paykel-1
100
AcDbLine
 10
210.1999999999998
 20
85.50000000000006
 30
117.4000000000132
 11
210.1999999999998
 21
85.50000000000006
 31
113.0000000000133
  0
LINE
  5
2EF
330
1F
100
AcDbEntity
  8
FP_DD60D$Fisher _ Paykel-1
100
AcDbLine
 10
208.6999999999996
 20
84.00000000000011
 30
117.4000000000132
 11
208.6999999999996
 21
87.0
 31
117.4000000000132
  0
LINE
  5
2F0
330
1F
100
AcDbEntity
  8
FP_DD60D$Fisher _ Paykel-1
100
AcDbLine
 10
207.1999999999994
 20
85.50000000000006
 30
117.4000000000132
 11
210.1999999999998
 21
85.50000000000006
 31
117.4000000000132
  0
LINE
  5
2F1
330
1F
100
AcDbEntity
  8
FP_DD60D$Fisher _ Paykel-1
100
AcDbLine
 10
207.1999999999994
 20
84.00000000000011
 30
120.9000000000129
 11
207.1999999999994
 21
87.0
 31
120.9000000000129
  0
LINE
  5
2F2
330
1F
100
AcDbEntity
  8
FP_DD60D$Fisher _ Paykel-1
100
AcDbLine
 10
207.1999999999994
 20
85.50000000000006
 30
124.4000000000127
 11
207.1999999999994
 21
85.50000000000006
 31
117.4000000000131
  0
LINE
  5
2F3
330
1F
100
AcDbEntity
  8
FP_DD60D$Fisher _ Paykel-1
100
AcDbLine
 10
252.3499999999996
 20
84.00000000000011
 30
124.4000000000127
 11
252.3499999999996
 21
87.0
 31
124.4000000000127
  0
LINE
  5
2F4
330
1F
100
AcDbEntity
  8
FP_DD60D$Fisher _ Paykel-1
100
AcDbLine
 10
297.4999999999998
 20
85.50000000000006
 30
124.4000000000127
 11
207.1999999999994
 21
85.50000000000006
 31
124.4000000000127
  0
LINE
  5
2F5
330
1F
100
AcDbEntity
  8
FP_DD60D$Fisher _ Paykel-1
100
AcDbLine
 10
297.4999999999998
 20
84.00000000000011
 30
91.90000000000657
 11
297.4999999999998
 21
87.0
 31
91.90000000000657
  0
LINE
  5
2F6
330
1F
100
AcDbEntity
  8
FP_DD60D$Fisher _ Paykel-1
100
AcDbLine
 10
297.4999999999998
 20
85.50000000000006
 30
59.4000000000005
 11
297.4999999999998
 21
85.50000000000006
 31
124.4000000000127
  0
LINE
  5
2F7
330
1F
100
AcDbEntity
  8
FP_DD60D$Fisher _ Paykel-1
100
AcDbLine
 10
0.0000000000000568
 20
84.00000000000011
 30
59.4000000000005
 11
0.0000000000000568
 21
87.0
 31
59.4000000000005
  0
LINE
  5
2F8
330
1F
100
AcDbEntity
  8
FP_DD60D$Fisher _ Paykel-1
100
AcDbLine
 10
-297.4999999999997
 20
85.50000000000006
 30
59.4000000000005
 11
297.4999999999998
 21
85.50000000000006
 31
59.4000000000005
  0
LINE
  5
2F9
330
1F
100
AcDbEntity
  8
FP_DD60D$Fisher _ Paykel-1
100
AcDbLine
 10
297.4999999999998
 20
86.99999999999999
 30
86.55496397045135
 11
193.1384416000348
 21
86.99999999999999
 31
86.55496397045135
  0
LINE
  5
2FA
330
1F
100
AcDbEntity
  8
FP_DD60D$Fisher _ Paykel-1
100
AcDbLine
 10
-193.1384416000346
 20
86.99999999999999
 30
86.55496397045135
 11
-297.4999999999997
 21
86.99999999999999
 31
86.55496397045135
  0
LINE
  5
2FB
330
1F
100
AcDbEntity
  8
FP_DD60D$Fisher _ Paykel-1
100
AcDbLine
 10
0.0000000000000568
 20
86.99999999999999
 30
59.4000000000005
 11
0.0000000000000568
 21
86.99999999999999
 31
68.61306250837792
  0
LINE
  5
2FC
330
1F
100
AcDbEntity
  8
FP_DD60D$Fisher _ Paykel-1
100
AcDbLine
 10
-297.4999999999997
 20
84.00000000000013
 30
86.55496397045333
 11
-193.1384416000441
 21
84.00000000000013
 31
86.55496397045333
  0
LINE
  5
2FD
330
1F
100
AcDbEntity
  8
FP_DD60D$Fisher _ Paykel-1
100
AcDbLine
 10
193.1384416000686
 20
84.00000000000013
 30
86.55496397045333
 11
297.4999999999998
 21
84.00000000000013
 31
86.55496397045333
  0
LINE
  5
2FE
330
1F
100
AcDbEntity
  8
FP_DD60D$Fisher _ Paykel-1
100
AcDbLine
 10
0.0000000000000568
 20
84.00000000000013
 30
59.4000000000005
 11
0.0000000000000568
 21
84.00000000000013
 31
68.6130625083783
  0
LINE
  5
2FF
330
1F
100
AcDbEntity
  8
FP_DD60D$Fisher _ Paykel-3
100
AcDbLine
 10
-297.4999913692475
 20
0.0
 30
448.7138481113001
 11
297.4999913692473
 21
0.0
 31
448.7138481113001
  0
LINE
  5
300
330
1F
100
AcDbEntity
  8
FP_DD60D$Fisher _ Paykel-3
100
AcDbLine
 10
-297.4999913692475
 20
0.0
 30
137.7138481113025
 11
-297.4999913692475
 21
0.0
 31
448.7138481113001
  0
LINE
  5
301
330
1F
100
AcDbEntity
  8
FP_DD60D$Fisher _ Paykel-3
100
AcDbLine
 10
297.4999913692473
 20
0.0
 30
137.7138481113025
 11
-297.4999913692474
 21
0.0
 31
137.7138481113025
  0
LINE
  5
302
330
1F
100
AcDbEntity
  8
FP_DD60D$Fisher _ Paykel-3
100
AcDbLine
 10
297.4999913692473
 20
0.0
 30
448.7138481113001
 11
297.4999913692473
 21
0.0
 31
137.7138481113025
  0
LINE
  5
303
330
1F
100
AcDbEntity
  8
FP_DD60D$Fisher _ Paykel-3
100
AcDbLine
 10
-297.4999913692475
 20
0.0
 30
853.9882089972003
 11
297.4999913692473
 21
0.0
 31
853.9882089972003
  0
LINE
  5
304
330
1F
100
AcDbEntity
  8
FP_DD60D$Fisher _ Paykel-3
100
AcDbLine
 10
-297.4999913692475
 20
0.0
 30
455.9882178306476
 11
-297.4999913692475
 21
0.0
 31
853.9882089972003
  0
LINE
  5
305
330
1F
100
AcDbEntity
  8
FP_DD60D$Fisher _ Paykel-3
100
AcDbLine
 10
297.4999913692473
 20
0.0
 30
455.9882178306476
 11
-297.4999913692475
 21
0.0
 31
455.9882178306476
  0
LINE
  5
306
330
1F
100
AcDbEntity
  8
FP_DD60D$Fisher _ Paykel-3
100
AcDbLine
 10
297.4999913692473
 20
0.0
 30
853.9882089972003
 11
297.4999913692473
 21
0.0
 31
455.9882178306476
  0
LINE
  5
307
330
1F
100
AcDbEntity
  8
FP_DD60D$Fisher _ Paykel-3
100
AcDbLine
 10
-297.4999913692475
 20
0.0
 30
853.9882089972003
 11
297.4999913692473
 21
0.0
 31
853.9882089972003
  0
LINE
  5
308
330
1F
100
AcDbEntity
  8
FP_DD60D$Fisher _ Paykel-3
100
AcDbLine
 10
-297.4999913692475
 20
0.0
 30
455.9882178306476
 11
-297.4999913692475
 21
0.0
 31
853.9882089972003
  0
LINE
  5
309
330
1F
100
AcDbEntity
  8
FP_DD60D$Fisher _ Paykel-3
100
AcDbLine
 10
297.4999913692473
 20
0.0
 30
455.9882178306476
 11
-297.4999913692475
 21
0.0
 31
455.9882178306476
  0
LINE
  5
30A
330
1F
100
AcDbEntity
  8
FP_DD60D$Fisher _ Paykel-3
100
AcDbLine
 10
297.4999913692473
 20
0.0
 30
853.9882089972003
 11
297.4999913692473
 21
0.0
 31
455.9882178306476
  0
LINE
  5
30B
330
1F
100
AcDbEntity
  8
FP_DD60D$Fisher _ Paykel-3
100
AcDbLine
 10
297.4999913692473
 20
0.0
 30
448.7138481113001
 11
-297.4999913692475
 21
0.0
 31
448.7138481113001
  0
LINE
  5
30C
330
1F
100
AcDbEntity
  8
FP_DD60D$Fisher _ Paykel-3
100
AcDbLine
 10
297.4999913692473
 20
0.0
 30
137.7138481113025
 11
297.4999913692473
 21
0.0
 31
448.7138481113001
  0
LINE
  5
30D
330
1F
100
AcDbEntity
  8
FP_DD60D$Fisher _ Paykel-3
100
AcDbLine
 10
-297.4999913692475
 20
0.0
 30
137.7138481113025
 11
297.4999913692473
 21
0.0
 31
137.7138481113025
  0
LINE
  5
30E
330
1F
100
AcDbEntity
  8
FP_DD60D$Fisher _ Paykel-3
100
AcDbLine
 10
-297.4999913692475
 20
0.0
 30
448.7138481113001
 11
-297.4999913692474
 21
0.0
 31
137.7138481113025
  0
ENDSEC
  0
SECTION
  2
OBJECTS
  0
DICTIONARY
  5
C
330
0
100
AcDbDictionary
281
     1
  3
ACAD_DETAILVIEWSTYLE
350
34A
  3
ACAD_GROUP
350
D
  3
ACAD_LAYOUT
350
1A
  3
ACAD_MATERIAL
350
43
  3
ACAD_MLEADERSTYLE
350
5B
  3
ACAD_MLINESTYLE
350
17
  3
ACAD_PLOTSETTINGS
350
19
  3
ACAD_PLOTSTYLENAME
350
E
  3
ACAD_SCALELIST
350
47
  3
ACAD_SECTIONVIEWSTYLE
350
34B
  3
ACAD_TABLESTYLE
350
59
  3
ACAD_VISUALSTYLE
350
2A
  3
ACDB_RECOMPOSE_DATA
350
347
  3
AcDbVariableDictionary
350
30F
  0
SUN
  5
5D
330
29
100
AcDbSun
 90
        1
290
     0
 63
     7
421
 16777215
 40
1.0
291
     1
 91
  2455826
 92
 54000000
292
     0
 70
     2
 71
   256
280
     1
  0
DICTIONARY
  5
34A
102
{ACAD_REACTORS
330
C
102
}
330
C
100
AcDbDictionary
281
     1
  0
DICTIONARY
  5
D
102
{ACAD_REACTORS
330
C
102
}
330
C
100
AcDbDictionary
281
     1
  0
DICTIONARY
  5
1A
102
{ACAD_REACTORS
330
C
102
}
330
C
100
AcDbDictionary
281
     1
  3
Layout1
350
1E
  3
Layout2
350
26
  3
Model
350
22
  0
DICTIONARY
  5
43
102
{ACAD_REACTORS
330
C
102
}
330
C
100
AcDbDictionary
281
     1
  3
ByBlock
350
45
  3
ByLayer
350
44
  3
Global
350
46
  0
DICTIONARY
  5
5B
102
{ACAD_REACTORS
330
C
102
}
330
C
100
AcDbDictionary
281
     1
  3
Standard
350
5C
  0
DICTIONARY
  5
17
102
{ACAD_REACTORS
330
C
102
}
330
C
100
AcDbDictionary
281
     1
  3
Standard
350
18
  0
DICTIONARY
  5
19
102
{ACAD_REACTORS
330
C
102
}
330
C
100
AcDbDictionary
281
     1
  0
ACDBDICTIONARYWDFLT
  5
E
102
{ACAD_REACTORS
330
C
102
}
330
C
100
AcDbDictionary
281
     1
  3
Normal
350
F
100
AcDbDictionaryWithDefault
340
F
  0
DICTIONARY
  5
47
102
{ACAD_REACTORS
330
C
102
}
330
C
100
AcDbDictionary
281
     1
  3
A0
350
48
  3
A1
350
49
  3
A2
350
4A
  3
A3
350
4B
  3
A4
350
4C
  3
A5
350
4D
  3
A6
350
4E
  3
A7
350
4F
  3
A8
350
50
  3
A9
350
51
  3
B1
350
52
  3
B2
350
53
  3
B3
350
54
  3
B4
350
55
  3
B5
350
56
  3
B6
350
57
  3
B7
350
58
  0
DICTIONARY
  5
34B
102
{ACAD_REACTORS
330
C
102
}
330
C
100
AcDbDictionary
281
     1
  0
DICTIONARY
  5
59
102
{ACAD_REACTORS
330
C
102
}
330
C
100
AcDbDictionary
281
     1
  3
Standard
350
5A
  0
DICTIONARY
  5
2A
102
{ACAD_REACTORS
330
C
102
}
330
C
100
AcDbDictionary
281
     1
  3
2dWireframe
350
2F
  3
Basic
350
32
  3
Brighten
350
36
  3
ColorChange
350
3A
  3
Conceptual
350
34
  3
Dim
350
35
  3
EdgeColorOff
350
3D
  3
Facepattern
350
39
  3
Flat
350
2B
  3
FlatWithEdges
350
2C
  3
Gouraud
350
2D
  3
GouraudWithEdges
350
2E
  3
Hidden
350
31
  3
JitterOff
350
3B
  3
Linepattern
350
38
  3
OverhangOff
350
3C
  3
Realistic
350
33
  3
Shaded
350
42
  3
Shaded with edges
350
41
  3
Shades of Gray
350
3E
  3
Sketchy
350
3F
  3
Thicken
350
37
  3
Wireframe
350
30
  3
X-Ray
350
40
  0
XRECORD
  5
347
102
{ACAD_REACTORS
330
C
102
}
330
C
100
AcDbXrecord
280
     1
 90
        1
330
5A
  0
DICTIONARY
  5
30F
102
{ACAD_REACTORS
330
C
102
}
330
C
100
AcDbDictionary
281
     1
  3
CANNOSCALE
350
310
  3
CMLEADERSTYLE
350
349
  3
CTABLESTYLE
350
348
  3
XCLIPFRAME
350
311
  0
LAYOUT
  5
1E
102
{ACAD_REACTORS
330
1A
102
}
330
1A
100
AcDbPlotSettings
  1

  2
none_device
  4

  6

 40
0.0
 41
0.0
 42
0.0
 43
0.0
 44
0.0
 45
0.0
 46
0.0
 47
0.0
 48
0.0
 49
0.0
140
0.0
141
0.0
142
1.0
143
1.0
 70
   688
 72
     0
 73
     0
 74
     5
  7

 75
    16
 76
     0
 77
     2
 78
   300
147
1.0
148
0.0
149
0.0
100
AcDbLayout
  1
Layout1
 70
     1
 71
     1
 10
0.0
 20
0.0
 11
12.0
 21
9.0
 12
0.0
 22
0.0
 32
0.0
 14
1.000000000000000E+20
 24
1.000000000000000E+20
 34
1.000000000000000E+20
 15
-1.000000000000000E+20
 25
-1.000000000000000E+20
 35
-1.000000000000000E+20
146
0.0
 13
0.0
 23
0.0
 33
0.0
 16
1.0
 26
0.0
 36
0.0
 17
0.0
 27
1.0
 37
0.0
 76
     0
330
1B
  0
LAYOUT
  5
26
102
{ACAD_REACTORS
330
1A
102
}
330
1A
100
AcDbPlotSettings
  1

  2
none_device
  4

  6

 40
0.0
 41
0.0
 42
0.0
 43
0.0
 44
0.0
 45
0.0
 46
0.0
 47
0.0
 48
0.0
 49
0.0
140
0.0
141
0.0
142
1.0
143
1.0
 70
   688
 72
     0
 73
     0
 74
     5
  7

 75
    16
 76
     0
 77
     2
 78
   300
147
1.0
148
0.0
149
0.0
100
AcDbLayout
  1
Layout2
 70
     1
 71
     2
 10
0.0
 20
0.0
 11
0.0
 21
0.0
 12
0.0
 22
0.0
 32
0.0
 14
0.0
 24
0.0
 34
0.0
 15
0.0
 25
0.0
 35
0.0
146
0.0
 13
0.0
 23
0.0
 33
0.0
 16
1.0
 26
0.0
 36
0.0
 17
0.0
 27
1.0
 37
0.0
 76
     0
330
23
  0
LAYOUT
  5
22
102
{ACAD_REACTORS
330
1A
102
}
330
1A
100
AcDbPlotSettings
  1

  2
none_device
  4
Letter_(8.50_x_11.00_Inches)
  6

 40
6.35
 41
6.35
 42
6.35000508
 43
6.35000508
 44
215.9
 45
279.4
 46
0.0
 47
0.0
 48
0.0
 49
0.0
140
0.0
141
0.0
142
1.0
143
1.0
 70
  1712
 72
     0
 73
     0
 74
     0
  7

 75
     0
 76
     0
 77
     2
 78
   300
147
1.0
148
0.0
149
0.0
100
AcDbLayout
  1
Model
 70
     1
 71
     0
 10
0.0
 20
0.0
 11
12.0
 21
9.0
 12
0.0
 22
0.0
 32
0.0
 14
-349.4999989986459
 24
0.0
 34
0.0
 15
299.5
 25
552.9999999999852
 35
859.9999999999933
146
0.0
 13
0.0
 23
0.0
 33
0.0
 16
1.0
 26
0.0
 36
0.0
 17
0.0
 27
1.0
 37
0.0
 76
     0
330
1F
331
29
  0
MATERIAL
  5
45
102
{ACAD_REACTORS
330
43
102
}
330
43
100
AcDbMaterial
  1
ByBlock
 72
     1
 94
      127
  0
MATERIAL
  5
44
102
{ACAD_REACTORS
330
43
102
}
330
43
100
AcDbMaterial
  1
ByLayer
 72
     1
 94
      127
  0
MATERIAL
  5
46
102
{ACAD_REACTORS
330
43
102
}
330
43
100
AcDbMaterial
  1
Global
 72
     1
 94
      127
  0
MLEADERSTYLE
  5
5C
102
{ACAD_REACTORS
330
5B
102
}
102
{ACAD_XDICTIONARY
360
345
102
}
330
5B
100
AcDbMLeaderStyle
170
     2
171
     1
172
     0
 90
        2
 40
0.0
 41
0.0
173
     1
 91
-1056964608
340
14
 92
       -2
290
     1
 42
0.09
291
     1
 43
0.36
  3
Standard
341
0
 44
0.18
300

342
11
174
     1
178
     6
175
     1
176
     0
 93
-1056964608
 45
0.18
292
     0
297
     0
 46
0.18
343
0
 94
-1056964608
 47
1.0
 49
1.0
140
1.0
293
     1
141
0.0
294
     1
177
     0
142
1.0
295
     0
296
     0
143
0.125
1001
ACAD_MLEADERVER
1070
     2
  0
MLINESTYLE
  5
18
102
{ACAD_REACTORS
330
17
102
}
330
17
100
AcDbMlineStyle
  2
Standard
 70
     0
  3

 62
   256
 51
90.0
 52
90.0
 71
     2
 49
0.5
 62
   256
  6
BYLAYER
 49
-0.5
 62
   256
  6
BYLAYER
  0
ACDBPLACEHOLDER
  5
F
102
{ACAD_REACTORS
330
E
102
}
330
E
  0
SCALE
  5
48
102
{ACAD_REACTORS
330
47
102
}
330
47
100
AcDbScale
 70
     0
300
1:1
140
1.0
141
1.0
290
     1
  0
SCALE
  5
49
102
{ACAD_REACTORS
330
47
102
}
330
47
100
AcDbScale
 70
     0
300
1/128" = 1'-0"
140
0.0078125
141
12.0
290
     0
  0
SCALE
  5
4A
102
{ACAD_REACTORS
330
47
102
}
330
47
100
AcDbScale
 70
     0
300
1/64" = 1'-0"
140
0.015625
141
12.0
290
     0
  0
SCALE
  5
4B
102
{ACAD_REACTORS
330
47
102
}
330
47
100
AcDbScale
 70
     0
300
1/32" = 1'-0"
140
0.03125
141
12.0
290
     0
  0
SCALE
  5
4C
102
{ACAD_REACTORS
330
47
102
}
330
47
100
AcDbScale
 70
     0
300
1/16" = 1'-0"
140
0.0625
141
12.0
290
     0
  0
SCALE
  5
4D
102
{ACAD_REACTORS
330
47
102
}
330
47
100
AcDbScale
 70
     0
300
3/32" = 1'-0"
140
0.09375
141
12.0
290
     0
  0
SCALE
  5
4E
102
{ACAD_REACTORS
330
47
102
}
330
47
100
AcDbScale
 70
     0
300
1/8" = 1'-0"
140
0.125
141
12.0
290
     0
  0
SCALE
  5
4F
102
{ACAD_REACTORS
330
47
102
}
330
47
100
AcDbScale
 70
     0
300
3/16" = 1'-0"
140
0.1875
141
12.0
290
     0
  0
SCALE
  5
50
102
{ACAD_REACTORS
330
47
102
}
330
47
100
AcDbScale
 70
     0
300
1/4" = 1'-0"
140
0.25
141
12.0
290
     0
  0
SCALE
  5
51
102
{ACAD_REACTORS
330
47
102
}
330
47
100
AcDbScale
 70
     0
300
3/8" = 1'-0"
140
0.375
141
12.0
290
     0
  0
SCALE
  5
52
102
{ACAD_REACTORS
330
47
102
}
330
47
100
AcDbScale
 70
     0
300
1/2" = 1'-0"
140
0.5
141
12.0
290
     0
  0
SCALE
  5
53
102
{ACAD_REACTORS
330
47
102
}
330
47
100
AcDbScale
 70
     0
300
3/4" = 1'-0"
140
0.75
141
12.0
290
     0
  0
SCALE
  5
54
102
{ACAD_REACTORS
330
47
102
}
330
47
100
AcDbScale
 70
     0
300
1" = 1'-0"
140
1.0
141
12.0
290
     0
  0
SCALE
  5
55
102
{ACAD_REACTORS
330
47
102
}
330
47
100
AcDbScale
 70
     0
300
1-1/2" = 1'-0"
140
1.5
141
12.0
290
     0
  0
SCALE
  5
56
102
{ACAD_REACTORS
330
47
102
}
330
47
100
AcDbScale
 70
     0
300
3" = 1'-0"
140
3.0
141
12.0
290
     0
  0
SCALE
  5
57
102
{ACAD_REACTORS
330
47
102
}
330
47
100
AcDbScale
 70
     0
300
6" = 1'-0"
140
6.0
141
12.0
290
     0
  0
SCALE
  5
58
102
{ACAD_REACTORS
330
47
102
}
330
47
100
AcDbScale
 70
     0
300
1'-0" = 1'-0"
140
12.0
141
12.0
290
     0
  0
TABLESTYLE
  5
5A
102
{ACAD_REACTORS
330
59
102
}
102
{ACAD_XDICTIONARY
360
342
102
}
330
59
100
AcDbTableStyle
  3
Standard
 70
     0
 71
     0
 40
0.06
 41
0.06
280
     0
281
     0
  7
Standard
140
0.18
170
     2
 62
     0
 63
   257
283
     0
 90
        4
 91
        0
  1

274
    -2
284
     1
 64
     0
275
    -2
285
     1
 65
     0
276
    -2
286
     1
 66
     0
277
    -2
287
     1
 67
     0
278
    -2
288
     1
 68
     0
279
    -2
289
     1
 69
     0
  7
Standard
140
0.25
170
     5
 62
     0
 63
   257
283
     0
 90
        4
 91
        0
  1

274
    -2
284
     1
 64
     0
275
    -2
285
     1
 65
     0
276
    -2
286
     1
 66
     0
277
    -2
287
     1
 67
     0
278
    -2
288
     1
 68
     0
279
    -2
289
     1
 69
     0
  7
Standard
140
0.18
170
     5
 62
     0
 63
   257
283
     0
 90
        4
 91
        0
  1

274
    -2
284
     1
 64
     0
275
    -2
285
     1
 65
     0
276
    -2
286
     1
 66
     0
277
    -2
287
     1
 67
     0
278
    -2
288
     1
 68
     0
279
    -2
289
     1
 69
     0
  0
VISUALSTYLE
  5
2F
102
{ACAD_REACTORS
330
2A
102
}
102
{ACAD_XDICTIONARY
360
31A
102
}
330
2A
100
AcDbVisualStyle
  2
2dWireframe
 70
     4
 71
     0
 72
     2
 73
     0
 90
        0
 40
0.6
 41
30.0
 62
     5
 63
     7
421
 16777215
 74
     1
 91
        4
 64
     7
 65
   257
 75
     1
175
     1
 42
1.0
 92
        0
 66
   257
 43
1.0
 76
     1
 77
     6
 78
     2
 67
     7
 79
     5
170
     0
171
     0
290
     0
174
     0
 93
        1
 44
0.0
173
     0
291
     0
 45
0.0
  0
VISUALSTYLE
  5
32
102
{ACAD_REACTORS
330
2A
102
}
102
{ACAD_XDICTIONARY
360
320
102
}
330
2A
100
AcDbVisualStyle
  2
Basic
 70
     7
 71
     1
 72
     0
 73
     1
 90
        0
 40
0.6
 41
30.0
 62
     5
 63
     7
421
 16777215
 74
     0
 91
        4
 64
     7
 65
   257
 75
     1
175
     1
 42
1.0
 92
        8
 66
     7
 43
1.0
 76
     1
 77
     6
 78
     2
 67
     7
 79
     5
170
     0
171
     0
290
     0
174
     0
 93
        1
 44
0.0
173
     0
291
     1
 45
0.0
  0
VISUALSTYLE
  5
36
102
{ACAD_REACTORS
330
2A
102
}
102
{ACAD_XDICTIONARY
360
328
102
}
330
2A
100
AcDbVisualStyle
  2
Brighten
 70
    12
 71
     2
 72
     2
 73
     0
 90
        0
 40
0.6
 41
30.0
 62
     5
 63
     7
421
 16777215
 74
     1
 91
        4
 64
     7
 65
   257
 75
     1
175
     1
 42
1.0
 92
        8
 66
     7
 43
1.0
 76
     1
 77
     6
 78
     2
 67
     7
 79
     5
170
     0
171
     0
290
     0
174
     0
 93
        1
 44
50.0
173
     0
291
     1
 45
0.0
  0
VISUALSTYLE
  5
3A
102
{ACAD_REACTORS
330
2A
102
}
102
{ACAD_XDICTIONARY
360
330
102
}
330
2A
100
AcDbVisualStyle
  2
ColorChange
 70
    16
 71
     2
 72
     2
 73
     3
 90
        0
 40
0.6
 41
30.0
 62
     5
 63
     8
421
  8421504
 74
     1
 91
        4
 64
     7
 65
   257
 75
     1
175
     1
 42
1.0
 92
        8
 66
     8
424
  8421504
 43
1.0
 76
     1
 77
     6
 78
     2
 67
     7
 79
     5
170
     0
171
     0
290
     0
174
     0
 93
        1
 44
0.0
173
     0
291
     1
 45
0.0
  0
VISUALSTYLE
  5
34
102
{ACAD_REACTORS
330
2A
102
}
102
{ACAD_XDICTIONARY
360
324
102
}
330
2A
100
AcDbVisualStyle
  2
Conceptual
 70
     9
 71
     3
 72
     2
 73
     0
 90
        0
 40
0.6
 41
30.0
 62
     5
 63
     7
421
 16777215
 74
     2
 91
        2
 64
     7
 65
   257
 75
     1
175
     1
 42
179.0
 92
        8
 66
     7
 43
1.0
 76
     1
 77
     6
 78
     2
 67
     7
 79
     3
170
     0
171
     0
290
     0
174
     0
 93
        1
 44
0.0
173
     0
291
     0
 45
0.0
  0
VISUALSTYLE
  5
35
102
{ACAD_REACTORS
330
2A
102
}
102
{ACAD_XDICTIONARY
360
326
102
}
330
2A
100
AcDbVisualStyle
  2
Dim
 70
    11
 71
     2
 72
     2
 73
     0
 90
        0
 40
0.6
 41
30.0
 62
     5
 63
     7
421
 16777215
 74
     1
 91
        4
 64
     7
 65
   257
 75
     1
175
     1
 42
1.0
 92
        8
 66
     7
 43
1.0
 76
     1
 77
     6
 78
     2
 67
     7
 79
     5
170
     0
171
     0
290
     0
174
     0
 93
        1
 44
-50.0
173
     0
291
     1
 45
0.0
  0
VISUALSTYLE
  5
3D
102
{ACAD_REACTORS
330
2A
102
}
102
{ACAD_XDICTIONARY
360
336
102
}
330
2A
100
AcDbVisualStyle
  2
EdgeColorOff
 70
    22
 71
     2
 72
     2
 73
     0
 90
        0
 40
0.6
 41
30.0
 62
     5
 63
     7
421
 16777215
 74
     1
 91
        4
 64
     7
 65
   257
 75
     1
175
     1
 42
1.0
 92
        8
 66
     7
 43
1.0
 76
     1
 77
     6
 78
     2
 67
     7
 79
     5
170
     0
171
     0
290
     0
174
     0
 93
        1
 44
0.0
173
     0
291
     1
 45
0.0
  0
VISUALSTYLE
  5
39
102
{ACAD_REACTORS
330
2A
102
}
102
{ACAD_XDICTIONARY
360
32E
102
}
330
2A
100
AcDbVisualStyle
  2
Facepattern
 70
    15
 71
     2
 72
     2
 73
     0
 90
        0
 40
0.6
 41
30.0
 62
     5
 63
     7
421
 16777215
 74
     1
 91
        4
 64
     7
 65
   257
 75
     1
175
     1
 42
1.0
 92
        8
 66
     7
 43
1.0
 76
     1
 77
     6
 78
     2
 67
     7
 79
     5
170
     0
171
     0
290
     0
174
     0
 93
        1
 44
0.0
173
     0
291
     1
 45
0.0
  0
VISUALSTYLE
  5
2B
102
{ACAD_REACTORS
330
2A
102
}
102
{ACAD_XDICTIONARY
360
312
102
}
330
2A
100
AcDbVisualStyle
  2
Flat
 70
     0
 71
     2
 72
     1
 73
     1
 90
        2
 40
0.6
 41
30.0
 62
     5
 63
     7
421
 16777215
 74
     0
 91
        0
 64
     7
 65
   257
 75
     1
175
     1
 42
1.0
 92
        8
 66
     7
 43
1.0
 76
     1
 77
     6
 78
     2
 67
     7
 79
     5
170
     0
171
     0
290
     0
174
     0
 93
       13
 44
0.0
173
     0
291
     1
 45
0.0
  0
VISUALSTYLE
  5
2C
102
{ACAD_REACTORS
330
2A
102
}
102
{ACAD_XDICTIONARY
360
314
102
}
330
2A
100
AcDbVisualStyle
  2
FlatWithEdges
 70
     1
 71
     2
 72
     1
 73
     1
 90
        2
 40
0.6
 41
30.0
 62
     5
 63
     7
421
 16777215
 74
     1
 91
        0
 64
     7
 65
   257
 75
     1
175
     1
 42
1.0
 92
        0
 66
   257
 43
1.0
 76
     1
 77
     6
 78
     2
 67
     7
 79
     5
170
     0
171
     0
290
     0
174
     0
 93
       13
 44
0.0
173
     0
291
     1
 45
0.0
  0
VISUALSTYLE
  5
2D
102
{ACAD_REACTORS
330
2A
102
}
102
{ACAD_XDICTIONARY
360
316
102
}
330
2A
100
AcDbVisualStyle
  2
Gouraud
 70
     2
 71
     2
 72
     2
 73
     1
 90
        2
 40
0.6
 41
30.0
 62
     5
 63
     7
421
 16777215
 74
     0
 91
        0
 64
     7
 65
   257
 75
     1
175
     1
 42
1.0
 92
        0
 66
     7
 43
1.0
 76
     1
 77
     6
 78
     2
 67
     7
 79
     5
170
     0
171
     0
290
     0
174
     0
 93
       13
 44
0.0
173
     0
291
     1
 45
0.0
  0
VISUALSTYLE
  5
2E
102
{ACAD_REACTORS
330
2A
102
}
102
{ACAD_XDICTIONARY
360
318
102
}
330
2A
100
AcDbVisualStyle
  2
GouraudWithEdges
 70
     3
 71
     2
 72
     2
 73
     1
 90
        2
 40
0.6
 41
30.0
 62
     5
 63
     7
421
 16777215
 74
     1
 91
        0
 64
     7
 65
   257
 75
     1
175
     1
 42
1.0
 92
        0
 66
   257
 43
1.0
 76
     1
 77
     6
 78
     2
 67
     7
 79
     5
170
     0
171
     0
290
     0
174
     0
 93
       13
 44
0.0
173
     0
291
     1
 45
0.0
  0
VISUALSTYLE
  5
31
102
{ACAD_REACTORS
330
2A
102
}
102
{ACAD_XDICTIONARY
360
31E
102
}
330
2A
100
AcDbVisualStyle
  2
Hidden
 70
     6
 71
     1
 72
     2
 73
     2
 90
        0
 40
0.6
 41
30.0
 62
     5
 63
     7
421
 16777215
 74
     2
 91
        2
 64
     7
 65
   257
 75
     2
175
     1
 42
40.0
 92
        0
 66
   257
 43
1.0
 76
     1
 77
     6
 78
     2
 67
     7
 79
     3
170
     0
171
     0
290
     0
174
     0
 93
        1
 44
0.0
173
     0
291
     0
 45
0.0
  0
VISUALSTYLE
  5
3B
102
{ACAD_REACTORS
330
2A
102
}
102
{ACAD_XDICTIONARY
360
332
102
}
330
2A
100
AcDbVisualStyle
  2
JitterOff
 70
    20
 71
     2
 72
     2
 73
     0
 90
        0
 40
0.6
 41
30.0
 62
     5
 63
     7
421
 16777215
 74
     1
 91
        4
 64
     7
 65
   257
 75
     1
175
     1
 42
1.0
 92
       10
 66
     7
 43
1.0
 76
     1
 77
     6
 78
     2
 67
     7
 79
     5
170
     0
171
     0
290
     0
174
     0
 93
        1
 44
0.0
173
     0
291
     1
 45
0.0
  0
VISUALSTYLE
  5
38
102
{ACAD_REACTORS
330
2A
102
}
102
{ACAD_XDICTIONARY
360
32C
102
}
330
2A
100
AcDbVisualStyle
  2
Linepattern
 70
    14
 71
     2
 72
     2
 73
     0
 90
        0
 40
0.6
 41
30.0
 62
     5
 63
     7
421
 16777215
 74
     1
 91
        4
 64
     7
 65
   257
 75
     7
175
     7
 42
1.0
 92
        8
 66
     7
 43
1.0
 76
     1
 77
     6
 78
     2
 67
     7
 79
     5
170
     0
171
     0
290
     0
174
     0
 93
        1
 44
0.0
173
     0
291
     1
 45
0.0
  0
VISUALSTYLE
  5
3C
102
{ACAD_REACTORS
330
2A
102
}
102
{ACAD_XDICTIONARY
360
334
102
}
330
2A
100
AcDbVisualStyle
  2
OverhangOff
 70
    21
 71
     2
 72
     2
 73
     0
 90
        0
 40
0.6
 41
30.0
 62
     5
 63
     7
421
 16777215
 74
     1
 91
        4
 64
     7
 65
   257
 75
     1
175
     1
 42
1.0
 92
        9
 66
     7
 43
1.0
 76
     1
 77
     6
 78
     2
 67
     7
 79
     5
170
     0
171
     0
290
     0
174
     0
 93
        1
 44
0.0
173
     0
291
     1
 45
0.0
  0
VISUALSTYLE
  5
33
102
{ACAD_REACTORS
330
2A
102
}
102
{ACAD_XDICTIONARY
360
322
102
}
330
2A
100
AcDbVisualStyle
  2
Realistic
 70
     8
 71
     2
 72
     3
 73
     0
 90
        2
 40
0.6
 41
30.0
 62
     5
 63
     7
421
 16777215
 74
     0
 91
        0
 64
     7
 65
   257
 75
     1
175
     1
 42
1.0
 92
        8
 66
   257
 43
1.0
 76
     1
 77
     6
 78
     2
 67
     7
 79
     3
170
     0
171
     0
290
     0
174
     0
 93
       13
 44
0.0
173
     0
291
     0
 45
0.0
  0
VISUALSTYLE
  5
42
102
{ACAD_REACTORS
330
2A
102
}
102
{ACAD_XDICTIONARY
360
340
102
}
330
2A
100
AcDbVisualStyle
  2
Shaded
 70
    27
 71
     2
 72
     2
 73
     1
 90
        2
 40
0.6
 41
30.0
 62
     5
 63
     7
421
 16777215
 74
     0
 91
        4
 64
     7
 65
   257
 75
     1
175
     1
 42
1.0
 92
        8
 66
   257
 43
1.0
 76
     1
 77
     6
 78
     2
 67
     8
425
  7895160
 79
     3
170
     0
171
     0
290
     0
174
     0
 93
        5
 44
0.0
173
     0
291
     0
 45
0.0
  0
VISUALSTYLE
  5
41
102
{ACAD_REACTORS
330
2A
102
}
102
{ACAD_XDICTIONARY
360
33E
102
}
330
2A
100
AcDbVisualStyle
  2
Shaded with edges
 70
    26
 71
     2
 72
     2
 73
     1
 90
        2
 40
0.6
 41
30.0
 62
     5
 63
     7
421
 16777215
 74
     1
 91
       10
 64
     7
 65
   257
 75
     2
175
     1
 42
1.0
 92
        8
 66
   257
 43
1.0
 76
     1
 77
     6
 78
     2
 67
     7
 79
     3
170
     0
171
     0
290
     0
174
     0
 93
        5
 44
0.0
173
     0
291
     0
 45
0.0
  0
VISUALSTYLE
  5
3E
102
{ACAD_REACTORS
330
2A
102
}
102
{ACAD_XDICTIONARY
360
338
102
}
330
2A
100
AcDbVisualStyle
  2
Shades of Gray
 70
    23
 71
     2
 72
     2
 73
     3
 90
        0
 40
0.6
 41
30.0
 62
     5
 63
     7
421
 16777215
 74
     2
 91
        2
 64
     7
 65
     7
 75
     1
175
     1
 42
40.0
 92
        8
 66
     7
 43
1.0
 76
     1
 77
     6
 78
     2
 67
     7
 79
     3
170
     0
171
     0
290
     0
174
     0
 93
        1
 44
0.0
173
     0
291
     0
 45
0.0
  0
VISUALSTYLE
  5
3F
102
{ACAD_REACTORS
330
2A
102
}
102
{ACAD_XDICTIONARY
360
33A
102
}
330
2A
100
AcDbVisualStyle
  2
Sketchy
 70
    24
 71
     1
 72
     2
 73
     2
 90
        0
 40
0.6
 41
30.0
 62
     5
 63
     7
421
 16777215
 74
     2
 91
        2
 64
     7
 65
     7
 75
     1
175
     1
 42
40.0
 92
       11
 66
     7
 43
1.0
 76
     1
 77
     6
 78
     2
 67
     7
 79
     6
170
     0
171
     0
290
     0
174
     0
 93
        1
 44
0.0
173
     0
291
     0
 45
0.0
  0
VISUALSTYLE
  5
37
102
{ACAD_REACTORS
330
2A
102
}
102
{ACAD_XDICTIONARY
360
32A
102
}
330
2A
100
AcDbVisualStyle
  2
Thicken
 70
    13
 71
     2
 72
     2
 73
     0
 90
        0
 40
0.6
 41
30.0
 62
     5
 63
     7
421
 16777215
 74
     1
 91
        4
 64
     7
 65
   257
 75
     1
175
     1
 42
1.0
 92
       12
 66
     7
 43
1.0
 76
     1
 77
     6
 78
     2
 67
     7
 79
     5
170
     0
171
     0
290
     0
174
     0
 93
        1
 44
0.0
173
     0
291
     1
 45
0.0
  0
VISUALSTYLE
  5
30
102
{ACAD_REACTORS
330
2A
102
}
102
{ACAD_XDICTIONARY
360
31C
102
}
330
2A
100
AcDbVisualStyle
  2
Wireframe
 70
     5
 71
     0
 72
     2
 73
     0
 90
        0
 40
0.6
 41
30.0
 62
     5
 63
     7
421
 16777215
 74
     1
 91
        4
 64
     7
 65
   257
 75
     1
175
     1
 42
1.0
 92
        0
 66
   257
 43
1.0
 76
     1
 77
     6
 78
     2
 67
     7
 79
     3
170
     0
171
     0
290
     0
174
     0
 93
        1
 44
0.0
173
     0
291
     0
 45
0.0
  0
VISUALSTYLE
  5
40
102
{ACAD_REACTORS
330
2A
102
}
102
{ACAD_XDICTIONARY
360
33C
102
}
330
2A
100
AcDbVisualStyle
  2
X-Ray
 70
    25
 71
     2
 72
     2
 73
     1
 90
        1
 40
0.5
 41
30.0
 62
     5
 63
     7
421
 16777215
 74
     1
 91
        0
 64
     7
 65
   257
 75
     1
175
     1
 42
1.0
 92
        8
 66
     7
 43
1.0
 76
     1
 77
     6
 78
     2
 67
     7
 79
     3
170
     0
171
     0
290
     0
174
     0
 93
       13
 44
0.0
173
     0
291
     0
 45
0.0
  0
DICTIONARYVAR
  5
310
102
{ACAD_REACTORS
330
30F
102
}
330
30F
100
DictionaryVariables
280
     0
  1
1:1
  0
DICTIONARYVAR
  5
349
102
{ACAD_REACTORS
330
30F
102
}
330
30F
100
DictionaryVariables
280
     0
  1
Standard
  0
DICTIONARYVAR
  5
348
102
{ACAD_REACTORS
330
30F
102
}
330
30F
100
DictionaryVariables
280
     0
  1
Standard
  0
DICTIONARYVAR
  5
311
102
{ACAD_REACTORS
330
30F
102
}
330
30F
100
DictionaryVariables
280
     0
  1
2
  0
DICTIONARY
  5
345
330
5C
100
AcDbDictionary
280
     1
281
     1
  3
ACAD_XREC_ROUNDTRIP
360
346
  0
DICTIONARY
  5
342
330
5A
100
AcDbDictionary
280
     1
281
     1
  3
ACAD_ROUNDTRIP_2008_TABLESTYLE_CELLSTYLEMAP
360
343
  0
DICTIONARY
  5
31A
330
2F
100
AcDbDictionary
280
     1
281
     1
  3
ACAD_XREC_ROUNDTRIP
360
31B
  0
DICTIONARY
  5
320
330
32
100
AcDbDictionary
280
     1
281
     1
  3
ACAD_XREC_ROUNDTRIP
360
321
  0
DICTIONARY
  5
328
330
36
100
AcDbDictionary
280
     1
281
     1
  3
ACAD_XREC_ROUNDTRIP
360
329
  0
DICTIONARY
  5
330
330
3A
100
AcDbDictionary
280
     1
281
     1
  3
ACAD_XREC_ROUNDTRIP
360
331
  0
DICTIONARY
  5
324
330
34
100
AcDbDictionary
280
     1
281
     1
  3
ACAD_XREC_ROUNDTRIP
360
325
  0
DICTIONARY
  5
326
330
35
100
AcDbDictionary
280
     1
281
     1
  3
ACAD_XREC_ROUNDTRIP
360
327
  0
DICTIONARY
  5
336
330
3D
100
AcDbDictionary
280
     1
281
     1
  3
ACAD_XREC_ROUNDTRIP
360
337
  0
DICTIONARY
  5
32E
330
39
100
AcDbDictionary
280
     1
281
     1
  3
ACAD_XREC_ROUNDTRIP
360
32F
  0
DICTIONARY
  5
312
330
2B
100
AcDbDictionary
280
     1
281
     1
  3
ACAD_XREC_ROUNDTRIP
360
313
  0
DICTIONARY
  5
314
330
2C
100
AcDbDictionary
280
     1
281
     1
  3
ACAD_XREC_ROUNDTRIP
360
315
  0
DICTIONARY
  5
316
330
2D
100
AcDbDictionary
280
     1
281
     1
  3
ACAD_XREC_ROUNDTRIP
360
317
  0
DICTIONARY
  5
318
330
2E
100
AcDbDictionary
280
     1
281
     1
  3
ACAD_XREC_ROUNDTRIP
360
319
  0
DICTIONARY
  5
31E
330
31
100
AcDbDictionary
280
     1
281
     1
  3
ACAD_XREC_ROUNDTRIP
360
31F
  0
DICTIONARY
  5
332
330
3B
100
AcDbDictionary
280
     1
281
     1
  3
ACAD_XREC_ROUNDTRIP
360
333
  0
DICTIONARY
  5
32C
330
38
100
AcDbDictionary
280
     1
281
     1
  3
ACAD_XREC_ROUNDTRIP
360
32D
  0
DICTIONARY
  5
334
330
3C
100
AcDbDictionary
280
     1
281
     1
  3
ACAD_XREC_ROUNDTRIP
360
335
  0
DICTIONARY
  5
322
330
33
100
AcDbDictionary
280
     1
281
     1
  3
ACAD_XREC_ROUNDTRIP
360
323
  0
DICTIONARY
  5
340
330
42
100
AcDbDictionary
280
     1
281
     1
  3
ACAD_XREC_ROUNDTRIP
360
341
  0
DICTIONARY
  5
33E
330
41
100
AcDbDictionary
280
     1
281
     1
  3
ACAD_XREC_ROUNDTRIP
360
33F
  0
DICTIONARY
  5
338
330
3E
100
AcDbDictionary
280
     1
281
     1
  3
ACAD_XREC_ROUNDTRIP
360
339
  0
DICTIONARY
  5
33A
330
3F
100
AcDbDictionary
280
     1
281
     1
  3
ACAD_XREC_ROUNDTRIP
360
33B
  0
DICTIONARY
  5
32A
330
37
100
AcDbDictionary
280
     1
281
     1
  3
ACAD_XREC_ROUNDTRIP
360
32B
  0
DICTIONARY
  5
31C
330
30
100
AcDbDictionary
280
     1
281
     1
  3
ACAD_XREC_ROUNDTRIP
360
31D
  0
DICTIONARY
  5
33C
330
40
100
AcDbDictionary
280
     1
281
     1
  3
ACAD_XREC_ROUNDTRIP
360
33D
  0
XRECORD
  5
346
102
{ACAD_REACTORS
330
345
102
}
330
345
100
AcDbXrecord
280
     1
102
ACAD_ROUNDTRIP_2010_MLEADER_STYLE
  0
CELLSTYLEMAP
  5
343
102
{ACAD_REACTORS
330
342
102
}
330
342
100
AcDbCellStyleMap
 90
        3
300
CELLSTYLE
  1
TABLEFORMAT_BEGIN
 90
        5
170
     1
 91
        0
 92
    32768
 62
   257
 93
        1
300
CONTENTFORMAT
  1
CONTENTFORMAT_BEGIN
 90
        0
 91
        0
 92
        4
 93
        0
300

 40
0.0
140
1.0
 94
        5
 62
     0
340
11
144
0.25
309
CONTENTFORMAT_END
171
     1
301
MARGIN
  1
CELLMARGIN_BEGIN
 40
0.06
 40
0.06
 40
0.06
 40
0.06
 40
0.06
 40
0.06
309
CELLMARGIN_END
 94
        6
 95
        1
302
GRIDFORMAT
  1
GRIDFORMAT_BEGIN
 90
        0
 91
        1
 62
     0
 92
       -2
340
14
 93
        0
 40
0.045
309
GRIDFORMAT_END
 95
        2
302
GRIDFORMAT
  1
GRIDFORMAT_BEGIN
 90
        0
 91
        1
 62
     0
 92
       -2
340
14
 93
        0
 40
0.045
309
GRIDFORMAT_END
 95
        4
302
GRIDFORMAT
  1
GRIDFORMAT_BEGIN
 90
        0
 91
        1
 62
     0
 92
       -2
340
14
 93
        0
 40
0.045
309
GRIDFORMAT_END
 95
        8
302
GRIDFORMAT
  1
GRIDFORMAT_BEGIN
 90
        0
 91
        1
 62
     0
 92
       -2
340
14
 93
        0
 40
0.045
309
GRIDFORMAT_END
 95
       16
302
GRIDFORMAT
  1
GRIDFORMAT_BEGIN
 90
        0
 91
        1
 62
     0
 92
       -2
340
14
 93
        0
 40
0.045
309
GRIDFORMAT_END
 95
       32
302
GRIDFORMAT
  1
GRIDFORMAT_BEGIN
 90
        0
 91
        1
 62
     0
 92
       -2
340
14
 93
        0
 40
0.045
309
GRIDFORMAT_END
309
TABLEFORMAT_END
  1
CELLSTYLE_BEGIN
 90
        1
 91
        1
300
_TITLE
309
CELLSTYLE_END
300
CELLSTYLE
  1
TABLEFORMAT_BEGIN
 90
        5
170
     1
 91
        0
 92
        0
 62
   257
 93
        1
300
CONTENTFORMAT
  1
CONTENTFORMAT_BEGIN
 90
        0
 91
        0
 92
        4
 93
        0
300

 40
0.0
140
1.0
 94
        5
 62
     0
340
11
144
0.18
309
CONTENTFORMAT_END
171
     1
301
MARGIN
  1
CELLMARGIN_BEGIN
 40
0.06
 40
0.06
 40
0.06
 40
0.06
 40
0.06
 40
0.06
309
CELLMARGIN_END
 94
        6
 95
        1
302
GRIDFORMAT
  1
GRIDFORMAT_BEGIN
 90
        0
 91
        1
 62
     0
 92
       -2
340
14
 93
        0
 40
0.045
309
GRIDFORMAT_END
 95
        2
302
GRIDFORMAT
  1
GRIDFORMAT_BEGIN
 90
        0
 91
        1
 62
     0
 92
       -2
340
14
 93
        0
 40
0.045
309
GRIDFORMAT_END
 95
        4
302
GRIDFORMAT
  1
GRIDFORMAT_BEGIN
 90
        0
 91
        1
 62
     0
 92
       -2
340
14
 93
        0
 40
0.045
309
GRIDFORMAT_END
 95
        8
302
GRIDFORMAT
  1
GRIDFORMAT_BEGIN
 90
        0
 91
        1
 62
     0
 92
       -2
340
14
 93
        0
 40
0.045
309
GRIDFORMAT_END
 95
       16
302
GRIDFORMAT
  1
GRIDFORMAT_BEGIN
 90
        0
 91
        1
 62
     0
 92
       -2
340
14
 93
        0
 40
0.045
309
GRIDFORMAT_END
 95
       32
302
GRIDFORMAT
  1
GRIDFORMAT_BEGIN
 90
        0
 91
        1
 62
     0
 92
       -2
340
14
 93
        0
 40
0.045
309
GRIDFORMAT_END
309
TABLEFORMAT_END
  1
CELLSTYLE_BEGIN
 90
        2
 91
        1
300
_HEADER
309
CELLSTYLE_END
300
CELLSTYLE
  1
TABLEFORMAT_BEGIN
 90
        5
170
     1
 91
        0
 92
        0
 62
   257
 93
        1
300
CONTENTFORMAT
  1
CONTENTFORMAT_BEGIN
 90
        0
 91
        0
 92
        4
 93
        0
300

 40
0.0
140
1.0
 94
        2
 62
     0
340
11
144
0.18
309
CONTENTFORMAT_END
171
     1
301
MARGIN
  1
CELLMARGIN_BEGIN
 40
0.06
 40
0.06
 40
0.06
 40
0.06
 40
0.06
 40
0.06
309
CELLMARGIN_END
 94
        6
 95
        1
302
GRIDFORMAT
  1
GRIDFORMAT_BEGIN
 90
        0
 91
        1
 62
     0
 92
       -2
340
14
 93
        0
 40
0.045
309
GRIDFORMAT_END
 95
        2
302
GRIDFORMAT
  1
GRIDFORMAT_BEGIN
 90
        0
 91
        1
 62
     0
 92
       -2
340
14
 93
        0
 40
0.045
309
GRIDFORMAT_END
 95
        4
302
GRIDFORMAT
  1
GRIDFORMAT_BEGIN
 90
        0
 91
        1
 62
     0
 92
       -2
340
14
 93
        0
 40
0.045
309
GRIDFORMAT_END
 95
        8
302
GRIDFORMAT
  1
GRIDFORMAT_BEGIN
 90
        0
 91
        1
 62
     0
 92
       -2
340
14
 93
        0
 40
0.045
309
GRIDFORMAT_END
 95
       16
302
GRIDFORMAT
  1
GRIDFORMAT_BEGIN
 90
        0
 91
        1
 62
     0
 92
       -2
340
14
 93
        0
 40
0.045
309
GRIDFORMAT_END
 95
       32
302
GRIDFORMAT
  1
GRIDFORMAT_BEGIN
 90
        0
 91
        1
 62
     0
 92
       -2
340
14
 93
        0
 40
0.045
309
GRIDFORMAT_END
309
TABLEFORMAT_END
  1
CELLSTYLE_BEGIN
 90
        3
 91
        2
300
_DATA
309
CELLSTYLE_END
  0
XRECORD
  5
31B
102
{ACAD_REACTORS
330
31A
102
}
330
31A
100
AcDbXrecord
280
     1
102
RTVSPropertyOp0
 70
     1
102
RTVSPropertyOp1
 70
     1
102
RTVSPropertyOp2
 70
     1
102
RTVSPropertyOp3
 70
     1
102
RTVSPropertyOp4
 70
     1
102
RTVSPropertyOp5
 70
     1
102
RTVSPropertyOp6
 70
     1
102
RTVSPropertyOp7
 70
     1
102
RTVSPropertyOp8
 70
     1
102
RTVSPropertyOp9
 70
     1
102
RTVSPropertyOp10
 70
     1
102
RTVSPropertyOp11
 70
     1
102
RTVSPropertyOp12
 70
     1
102
RTVSPropertyOp13
 70
     1
102
RTVSPropertyOp14
 70
     1
102
RTVSPropertyOp15
 70
     1
102
RTVSPropertyOp16
 70
     1
102
RTVSPropertyOp17
 70
     1
102
RTVSPropertyOp18
 70
     1
102
RTVSPropertyOp19
 70
     1
102
RTVSPropertyOp20
 70
     1
102
RTVSPropertyOp21
 70
     1
102
RTVSPropertyOp22
 70
     1
102
RTVSPropertyOp23
 70
     1
102
RTVSPropertyOp24
 70
     1
102
RTVSPropertyOp25
 70
     1
102
RTVSPropertyOp26
 70
     1
102
RTVSPropertyOp27
 70
     1
102
RTVSPropertyOp28
 70
     1
102
RTVSPropertyOp29
 70
     1
102
RTVSPropertyOp30
 70
     1
102
RTVSPropertyOp31
 70
     1
102
RTVSPropertyOp32
 70
     1
102
RTVSPropertyOp33
 70
     1
102
RTVSPropertyOp34
 70
     1
102
RTVSPropertyOp35
 70
     1
102
RTVSPropertyOp36
 70
     1
102
RTVSPropertyOp37
 70
     1
102
RTVSPropertyOp38
 70
     1
102
RTVSPropertyOp39
 70
     1
102
RTVSPropertyOp40
 70
     1
102
RTVSPropertyOp41
 70
     1
102
RTVSPropertyOp42
 70
     1
102
RTVSPropertyOp43
 70
     1
102
RTVSPropertyOp44
 70
     1
102
RTVSPropertyOp45
 70
     1
102
RTVSPropertyOp46
 70
     1
102
RTVSPropertyOp47
 70
     1
102
RTVSPropertyOp48
 70
     1
102
RTVSPropertyOp49
 70
     1
102
RTVSPropertyOp50
 70
     1
102
RTVSPropertyOp51
 70
     0
102
RTVSPropertyOp52
 70
     0
102
RTVSPropertyOp53
 70
     1
102
RTVSPropertyOp54
 70
     1
102
RTVSPropertyOp55
 70
     1
102
RTVSPropertyOp56
 70
     1
102
RTVSPropertyOp57
 70
     1
102
RTVSPost2010Prop28
280
     1
102
RTVSPost2010PropOp28
 70
     1
102
RTVSPost2010Prop29
280
     1
102
RTVSPost2010PropOp29
 70
     1
102
RTVSPost2010Prop30
280
     0
102
RTVSPost2010PropOp30
 70
     1
102
RTVSPost2010Prop31
280
     0
102
RTVSPost2010PropOp31
 70
     1
102
RTVSPost2010Prop32
280
     0
102
RTVSPost2010PropOp32
 70
     1
102
RTVSPost2010Prop33
280
     0
102
RTVSPost2010PropOp33
 70
     1
102
RTVSPost2010Prop34
280
     0
102
RTVSPost2010PropOp34
 70
     1
102
RTVSPost2010Prop35
280
     0
102
RTVSPost2010PropOp35
 70
     1
102
RTVSPost2010Prop36
280
     0
102
RTVSPost2010PropOp36
 70
     1
102
RTVSPost2010Prop37
 90
       50
102
RTVSPost2010PropOp37
 70
     1
102
RTVSPost2010Prop38
140
0.0
102
RTVSPost2010PropOp38
 70
     1
102
RTVSPost2010Prop39
140
1.0
102
RTVSPost2010PropOp39
 70
     1
102
RTVSPost2010Prop40
 90
        0
102
RTVSPost2010PropOp40
 70
     1
102
RTVSPost2010Prop41ColorIndex
 90
       18
102
RTVSPost2010Prop41ColorRGB
 90
        0
102
RTVSPost2010PropOp41
 70
     1
102
RTVSPost2010Prop42
 90
       50
102
RTVSPost2010PropOp42
 70
     1
102
RTVSPost2010Prop43
 90
        3
102
RTVSPost2010PropOp43
 70
     1
102
RTVSPost2010Prop44ColorIndex
 90
        5
102
RTVSPost2010Prop44ColorRGB
 90
      255
102
RTVSPost2010PropOp44
 70
     1
102
RTVSPost2010Prop45
280
     0
102
RTVSPost2010PropOp45
 70
     1
102
RTVSPost2010Prop46
 90
       50
102
RTVSPost2010PropOp46
 70
     1
102
RTVSPost2010Prop47
 90
       50
102
RTVSPost2010PropOp47
 70
     1
102
RTVSPost2010Prop48
 90
       50
102
RTVSPost2010PropOp48
 70
     1
102
RTVSPost2010Prop49
280
     0
102
RTVSPost2010PropOp49
 70
     1
102
RTVSPost2010Prop50
 90
       50
102
RTVSPost2010PropOp50
 70
     1
102
RTVSPost2010Prop51ColorIndex
 90
      256
102
RTVSPost2010Prop51ColorRGB
 90
-16777216
102
RTVSPost2010PropOp51
 70
     0
102
RTVSPost2010Prop52
140
1.0
102
RTVSPost2010PropOp52
 70
     0
102
RTVSPost2010Prop53
 90
        2
102
RTVSPost2010PropOp53
 70
     1
102
RTVSPost2010Prop54
  1
strokes_ogs.tif
102
RTVSPost2010PropOp54
 70
     1
102
RTVSPost2010Prop55
280
     0
102
RTVSPost2010PropOp55
 70
     1
102
RTVSPost2010Prop56
140
1.0
102
RTVSPost2010PropOp56
 70
     1
102
RTVSPost2010Prop57
140
1.0
102
RTVSPost2010PropOp57
 70
     1
  0
XRECORD
  5
321
102
{ACAD_REACTORS
330
320
102
}
330
320
100
AcDbXrecord
280
     1
102
RTVSPropertyOp0
 70
     1
102
RTVSPropertyOp1
 70
     1
102
RTVSPropertyOp2
 70
     1
102
RTVSPropertyOp3
 70
     1
102
RTVSPropertyOp4
 70
     1
102
RTVSPropertyOp5
 70
     1
102
RTVSPropertyOp6
 70
     1
102
RTVSPropertyOp7
 70
     1
102
RTVSPropertyOp8
 70
     1
102
RTVSPropertyOp9
 70
     1
102
RTVSPropertyOp10
 70
     1
102
RTVSPropertyOp11
 70
     1
102
RTVSPropertyOp12
 70
     1
102
RTVSPropertyOp13
 70
     1
102
RTVSPropertyOp14
 70
     1
102
RTVSPropertyOp15
 70
     1
102
RTVSPropertyOp16
 70
     1
102
RTVSPropertyOp17
 70
     1
102
RTVSPropertyOp18
 70
     1
102
RTVSPropertyOp19
 70
     1
102
RTVSPropertyOp20
 70
     1
102
RTVSPropertyOp21
 70
     1
102
RTVSPropertyOp22
 70
     1
102
RTVSPropertyOp23
 70
     1
102
RTVSPropertyOp24
 70
     1
102
RTVSPropertyOp25
 70
     1
102
RTVSPropertyOp26
 70
     1
102
RTVSPropertyOp27
 70
     1
102
RTVSPropertyOp28
 70
     1
102
RTVSPropertyOp29
 70
     1
102
RTVSPropertyOp30
 70
     1
102
RTVSPropertyOp31
 70
     1
102
RTVSPropertyOp32
 70
     1
102
RTVSPropertyOp33
 70
     1
102
RTVSPropertyOp34
 70
     1
102
RTVSPropertyOp35
 70
     1
102
RTVSPropertyOp36
 70
     1
102
RTVSPropertyOp37
 70
     1
102
RTVSPropertyOp38
 70
     1
102
RTVSPropertyOp39
 70
     1
102
RTVSPropertyOp40
 70
     1
102
RTVSPropertyOp41
 70
     1
102
RTVSPropertyOp42
 70
     1
102
RTVSPropertyOp43
 70
     1
102
RTVSPropertyOp44
 70
     1
102
RTVSPropertyOp45
 70
     1
102
RTVSPropertyOp46
 70
     1
102
RTVSPropertyOp47
 70
     1
102
RTVSPropertyOp48
 70
     1
102
RTVSPropertyOp49
 70
     1
102
RTVSPropertyOp50
 70
     1
102
RTVSPropertyOp51
 70
     0
102
RTVSPropertyOp52
 70
     0
102
RTVSPropertyOp53
 70
     1
102
RTVSPropertyOp54
 70
     1
102
RTVSPropertyOp55
 70
     1
102
RTVSPropertyOp56
 70
     1
102
RTVSPropertyOp57
 70
     1
102
RTVSPost2010Prop28
280
     0
102
RTVSPost2010PropOp28
 70
     1
102
RTVSPost2010Prop29
280
     1
102
RTVSPost2010PropOp29
 70
     1
102
RTVSPost2010Prop30
280
     1
102
RTVSPost2010PropOp30
 70
     1
102
RTVSPost2010Prop31
280
     0
102
RTVSPost2010PropOp31
 70
     1
102
RTVSPost2010Prop32
280
     0
102
RTVSPost2010PropOp32
 70
     1
102
RTVSPost2010Prop33
280
     0
102
RTVSPost2010PropOp33
 70
     1
102
RTVSPost2010Prop34
280
     0
102
RTVSPost2010PropOp34
 70
     1
102
RTVSPost2010Prop35
280
     0
102
RTVSPost2010PropOp35
 70
     1
102
RTVSPost2010Prop36
280
     0
102
RTVSPost2010PropOp36
 70
     1
102
RTVSPost2010Prop37
 90
       50
102
RTVSPost2010PropOp37
 70
     1
102
RTVSPost2010Prop38
140
0.0
102
RTVSPost2010PropOp38
 70
     1
102
RTVSPost2010Prop39
140
1.0
102
RTVSPost2010PropOp39
 70
     1
102
RTVSPost2010Prop40
 90
        0
102
RTVSPost2010PropOp40
 70
     1
102
RTVSPost2010Prop41ColorIndex
 90
       18
102
RTVSPost2010Prop41ColorRGB
 90
        0
102
RTVSPost2010PropOp41
 70
     1
102
RTVSPost2010Prop42
 90
       50
102
RTVSPost2010PropOp42
 70
     1
102
RTVSPost2010Prop43
 90
        3
102
RTVSPost2010PropOp43
 70
     1
102
RTVSPost2010Prop44ColorIndex
 90
        5
102
RTVSPost2010Prop44ColorRGB
 90
      255
102
RTVSPost2010PropOp44
 70
     1
102
RTVSPost2010Prop45
280
     0
102
RTVSPost2010PropOp45
 70
     1
102
RTVSPost2010Prop46
 90
       50
102
RTVSPost2010PropOp46
 70
     1
102
RTVSPost2010Prop47
 90
       50
102
RTVSPost2010PropOp47
 70
     1
102
RTVSPost2010Prop48
 90
       50
102
RTVSPost2010PropOp48
 70
     1
102
RTVSPost2010Prop49
280
     0
102
RTVSPost2010PropOp49
 70
     1
102
RTVSPost2010Prop50
 90
       50
102
RTVSPost2010PropOp50
 70
     1
102
RTVSPost2010Prop51ColorIndex
 90
      256
102
RTVSPost2010Prop51ColorRGB
 90
-16777216
102
RTVSPost2010PropOp51
 70
     0
102
RTVSPost2010Prop52
140
1.0
102
RTVSPost2010PropOp52
 70
     0
102
RTVSPost2010Prop53
 90
        2
102
RTVSPost2010PropOp53
 70
     1
102
RTVSPost2010Prop54
  1
strokes_ogs.tif
102
RTVSPost2010PropOp54
 70
     1
102
RTVSPost2010Prop55
280
     0
102
RTVSPost2010PropOp55
 70
     1
102
RTVSPost2010Prop56
140
1.0
102
RTVSPost2010PropOp56
 70
     1
102
RTVSPost2010Prop57
140
1.0
102
RTVSPost2010PropOp57
 70
     1
  0
XRECORD
  5
329
102
{ACAD_REACTORS
330
328
102
}
330
328
100
AcDbXrecord
280
     1
102
RTVSPropertyOp0
 70
     1
102
RTVSPropertyOp1
 70
     1
102
RTVSPropertyOp2
 70
     1
102
RTVSPropertyOp3
 70
     1
102
RTVSPropertyOp4
 70
     1
102
RTVSPropertyOp5
 70
     1
102
RTVSPropertyOp6
 70
     1
102
RTVSPropertyOp7
 70
     1
102
RTVSPropertyOp8
 70
     1
102
RTVSPropertyOp9
 70
     1
102
RTVSPropertyOp10
 70
     1
102
RTVSPropertyOp11
 70
     1
102
RTVSPropertyOp12
 70
     1
102
RTVSPropertyOp13
 70
     1
102
RTVSPropertyOp14
 70
     1
102
RTVSPropertyOp15
 70
     1
102
RTVSPropertyOp16
 70
     1
102
RTVSPropertyOp17
 70
     1
102
RTVSPropertyOp18
 70
     1
102
RTVSPropertyOp19
 70
     1
102
RTVSPropertyOp20
 70
     1
102
RTVSPropertyOp21
 70
     1
102
RTVSPropertyOp22
 70
     1
102
RTVSPropertyOp23
 70
     1
102
RTVSPropertyOp24
 70
     1
102
RTVSPropertyOp25
 70
     1
102
RTVSPropertyOp26
 70
     1
102
RTVSPropertyOp27
 70
     1
102
RTVSPropertyOp28
 70
     1
102
RTVSPropertyOp29
 70
     1
102
RTVSPropertyOp30
 70
     1
102
RTVSPropertyOp31
 70
     1
102
RTVSPropertyOp32
 70
     1
102
RTVSPropertyOp33
 70
     1
102
RTVSPropertyOp34
 70
     1
102
RTVSPropertyOp35
 70
     1
102
RTVSPropertyOp36
 70
     1
102
RTVSPropertyOp37
 70
     1
102
RTVSPropertyOp38
 70
     1
102
RTVSPropertyOp39
 70
     1
102
RTVSPropertyOp40
 70
     1
102
RTVSPropertyOp41
 70
     1
102
RTVSPropertyOp42
 70
     1
102
RTVSPropertyOp43
 70
     1
102
RTVSPropertyOp44
 70
     1
102
RTVSPropertyOp45
 70
     1
102
RTVSPropertyOp46
 70
     1
102
RTVSPropertyOp47
 70
     1
102
RTVSPropertyOp48
 70
     1
102
RTVSPropertyOp49
 70
     1
102
RTVSPropertyOp50
 70
     1
102
RTVSPropertyOp51
 70
     0
102
RTVSPropertyOp52
 70
     0
102
RTVSPropertyOp53
 70
     1
102
RTVSPropertyOp54
 70
     1
102
RTVSPropertyOp55
 70
     1
102
RTVSPropertyOp56
 70
     1
102
RTVSPropertyOp57
 70
     1
102
RTVSPost2010Prop28
280
     0
102
RTVSPost2010PropOp28
 70
     1
102
RTVSPost2010Prop29
280
     1
102
RTVSPost2010PropOp29
 70
     1
102
RTVSPost2010Prop30
280
     1
102
RTVSPost2010PropOp30
 70
     1
102
RTVSPost2010Prop31
280
     0
102
RTVSPost2010PropOp31
 70
     1
102
RTVSPost2010Prop32
280
     0
102
RTVSPost2010PropOp32
 70
     1
102
RTVSPost2010Prop33
280
     0
102
RTVSPost2010PropOp33
 70
     1
102
RTVSPost2010Prop34
280
     0
102
RTVSPost2010PropOp34
 70
     1
102
RTVSPost2010Prop35
280
     0
102
RTVSPost2010PropOp35
 70
     1
102
RTVSPost2010Prop36
280
     0
102
RTVSPost2010PropOp36
 70
     1
102
RTVSPost2010Prop37
 90
       50
102
RTVSPost2010PropOp37
 70
     1
102
RTVSPost2010Prop38
140
0.0
102
RTVSPost2010PropOp38
 70
     1
102
RTVSPost2010Prop39
140
1.0
102
RTVSPost2010PropOp39
 70
     1
102
RTVSPost2010Prop40
 90
        0
102
RTVSPost2010PropOp40
 70
     1
102
RTVSPost2010Prop41ColorIndex
 90
       18
102
RTVSPost2010Prop41ColorRGB
 90
        0
102
RTVSPost2010PropOp41
 70
     1
102
RTVSPost2010Prop42
 90
       50
102
RTVSPost2010PropOp42
 70
     1
102
RTVSPost2010Prop43
 90
        3
102
RTVSPost2010PropOp43
 70
     1
102
RTVSPost2010Prop44ColorIndex
 90
        5
102
RTVSPost2010Prop44ColorRGB
 90
      255
102
RTVSPost2010PropOp44
 70
     1
102
RTVSPost2010Prop45
280
     0
102
RTVSPost2010PropOp45
 70
     1
102
RTVSPost2010Prop46
 90
       50
102
RTVSPost2010PropOp46
 70
     1
102
RTVSPost2010Prop47
 90
       50
102
RTVSPost2010PropOp47
 70
     1
102
RTVSPost2010Prop48
 90
       50
102
RTVSPost2010PropOp48
 70
     1
102
RTVSPost2010Prop49
280
     0
102
RTVSPost2010PropOp49
 70
     1
102
RTVSPost2010Prop50
 90
       50
102
RTVSPost2010PropOp50
 70
     1
102
RTVSPost2010Prop51ColorIndex
 90
      256
102
RTVSPost2010Prop51ColorRGB
 90
-16777216
102
RTVSPost2010PropOp51
 70
     0
102
RTVSPost2010Prop52
140
1.0
102
RTVSPost2010PropOp52
 70
     0
102
RTVSPost2010Prop53
 90
        2
102
RTVSPost2010PropOp53
 70
     1
102
RTVSPost2010Prop54
  1
strokes_ogs.tif
102
RTVSPost2010PropOp54
 70
     1
102
RTVSPost2010Prop55
280
     0
102
RTVSPost2010PropOp55
 70
     1
102
RTVSPost2010Prop56
140
1.0
102
RTVSPost2010PropOp56
 70
     1
102
RTVSPost2010Prop57
140
1.0
102
RTVSPost2010PropOp57
 70
     1
  0
XRECORD
  5
331
102
{ACAD_REACTORS
330
330
102
}
330
330
100
AcDbXrecord
280
     1
102
RTVSPropertyOp0
 70
     1
102
RTVSPropertyOp1
 70
     1
102
RTVSPropertyOp2
 70
     1
102
RTVSPropertyOp3
 70
     1
102
RTVSPropertyOp4
 70
     1
102
RTVSPropertyOp5
 70
     1
102
RTVSPropertyOp6
 70
     1
102
RTVSPropertyOp7
 70
     1
102
RTVSPropertyOp8
 70
     1
102
RTVSPropertyOp9
 70
     1
102
RTVSPropertyOp10
 70
     1
102
RTVSPropertyOp11
 70
     1
102
RTVSPropertyOp12
 70
     1
102
RTVSPropertyOp13
 70
     1
102
RTVSPropertyOp14
 70
     1
102
RTVSPropertyOp15
 70
     1
102
RTVSPropertyOp16
 70
     1
102
RTVSPropertyOp17
 70
     1
102
RTVSPropertyOp18
 70
     1
102
RTVSPropertyOp19
 70
     1
102
RTVSPropertyOp20
 70
     1
102
RTVSPropertyOp21
 70
     1
102
RTVSPropertyOp22
 70
     1
102
RTVSPropertyOp23
 70
     1
102
RTVSPropertyOp24
 70
     1
102
RTVSPropertyOp25
 70
     1
102
RTVSPropertyOp26
 70
     1
102
RTVSPropertyOp27
 70
     1
102
RTVSPropertyOp28
 70
     1
102
RTVSPropertyOp29
 70
     1
102
RTVSPropertyOp30
 70
     1
102
RTVSPropertyOp31
 70
     1
102
RTVSPropertyOp32
 70
     1
102
RTVSPropertyOp33
 70
     1
102
RTVSPropertyOp34
 70
     1
102
RTVSPropertyOp35
 70
     1
102
RTVSPropertyOp36
 70
     1
102
RTVSPropertyOp37
 70
     1
102
RTVSPropertyOp38
 70
     1
102
RTVSPropertyOp39
 70
     1
102
RTVSPropertyOp40
 70
     1
102
RTVSPropertyOp41
 70
     1
102
RTVSPropertyOp42
 70
     1
102
RTVSPropertyOp43
 70
     1
102
RTVSPropertyOp44
 70
     1
102
RTVSPropertyOp45
 70
     1
102
RTVSPropertyOp46
 70
     1
102
RTVSPropertyOp47
 70
     1
102
RTVSPropertyOp48
 70
     1
102
RTVSPropertyOp49
 70
     1
102
RTVSPropertyOp50
 70
     1
102
RTVSPropertyOp51
 70
     0
102
RTVSPropertyOp52
 70
     0
102
RTVSPropertyOp53
 70
     1
102
RTVSPropertyOp54
 70
     1
102
RTVSPropertyOp55
 70
     1
102
RTVSPropertyOp56
 70
     1
102
RTVSPropertyOp57
 70
     1
102
RTVSPost2010Prop28
280
     0
102
RTVSPost2010PropOp28
 70
     1
102
RTVSPost2010Prop29
280
     1
102
RTVSPost2010PropOp29
 70
     1
102
RTVSPost2010Prop30
280
     1
102
RTVSPost2010PropOp30
 70
     1
102
RTVSPost2010Prop31
280
     0
102
RTVSPost2010PropOp31
 70
     1
102
RTVSPost2010Prop32
280
     0
102
RTVSPost2010PropOp32
 70
     1
102
RTVSPost2010Prop33
280
     0
102
RTVSPost2010PropOp33
 70
     1
102
RTVSPost2010Prop34
280
     0
102
RTVSPost2010PropOp34
 70
     1
102
RTVSPost2010Prop35
280
     0
102
RTVSPost2010PropOp35
 70
     1
102
RTVSPost2010Prop36
280
     0
102
RTVSPost2010PropOp36
 70
     1
102
RTVSPost2010Prop37
 90
       50
102
RTVSPost2010PropOp37
 70
     1
102
RTVSPost2010Prop38
140
0.0
102
RTVSPost2010PropOp38
 70
     1
102
RTVSPost2010Prop39
140
1.0
102
RTVSPost2010PropOp39
 70
     1
102
RTVSPost2010Prop40
 90
        0
102
RTVSPost2010PropOp40
 70
     1
102
RTVSPost2010Prop41ColorIndex
 90
       18
102
RTVSPost2010Prop41ColorRGB
 90
        0
102
RTVSPost2010PropOp41
 70
     1
102
RTVSPost2010Prop42
 90
       50
102
RTVSPost2010PropOp42
 70
     1
102
RTVSPost2010Prop43
 90
        3
102
RTVSPost2010PropOp43
 70
     1
102
RTVSPost2010Prop44ColorIndex
 90
        5
102
RTVSPost2010Prop44ColorRGB
 90
      255
102
RTVSPost2010PropOp44
 70
     1
102
RTVSPost2010Prop45
280
     0
102
RTVSPost2010PropOp45
 70
     1
102
RTVSPost2010Prop46
 90
       50
102
RTVSPost2010PropOp46
 70
     1
102
RTVSPost2010Prop47
 90
       50
102
RTVSPost2010PropOp47
 70
     1
102
RTVSPost2010Prop48
 90
       50
102
RTVSPost2010PropOp48
 70
     1
102
RTVSPost2010Prop49
280
     0
102
RTVSPost2010PropOp49
 70
     1
102
RTVSPost2010Prop50
 90
       50
102
RTVSPost2010PropOp50
 70
     1
102
RTVSPost2010Prop51ColorIndex
 90
      256
102
RTVSPost2010Prop51ColorRGB
 90
-16777216
102
RTVSPost2010PropOp51
 70
     0
102
RTVSPost2010Prop52
140
1.0
102
RTVSPost2010PropOp52
 70
     0
102
RTVSPost2010Prop53
 90
        2
102
RTVSPost2010PropOp53
 70
     1
102
RTVSPost2010Prop54
  1
strokes_ogs.tif
102
RTVSPost2010PropOp54
 70
     1
102
RTVSPost2010Prop55
280
     0
102
RTVSPost2010PropOp55
 70
     1
102
RTVSPost2010Prop56
140
1.0
102
RTVSPost2010PropOp56
 70
     1
102
RTVSPost2010Prop57
140
1.0
102
RTVSPost2010PropOp57
 70
     1
  0
XRECORD
  5
325
102
{ACAD_REACTORS
330
324
102
}
330
324
100
AcDbXrecord
280
     1
102
RTVSPropertyOp0
 70
     1
102
RTVSPropertyOp1
 70
     1
102
RTVSPropertyOp2
 70
     1
102
RTVSPropertyOp3
 70
     1
102
RTVSPropertyOp4
 70
     1
102
RTVSPropertyOp5
 70
     1
102
RTVSPropertyOp6
 70
     1
102
RTVSPropertyOp7
 70
     1
102
RTVSPropertyOp8
 70
     1
102
RTVSPropertyOp9
 70
     1
102
RTVSPropertyOp10
 70
     1
102
RTVSPropertyOp11
 70
     1
102
RTVSPropertyOp12
 70
     1
102
RTVSPropertyOp13
 70
     1
102
RTVSPropertyOp14
 70
     1
102
RTVSPropertyOp15
 70
     1
102
RTVSPropertyOp16
 70
     1
102
RTVSPropertyOp17
 70
     1
102
RTVSPropertyOp18
 70
     1
102
RTVSPropertyOp19
 70
     1
102
RTVSPropertyOp20
 70
     1
102
RTVSPropertyOp21
 70
     1
102
RTVSPropertyOp22
 70
     1
102
RTVSPropertyOp23
 70
     1
102
RTVSPropertyOp24
 70
     1
102
RTVSPropertyOp25
 70
     1
102
RTVSPropertyOp26
 70
     1
102
RTVSPropertyOp27
 70
     1
102
RTVSPropertyOp28
 70
     1
102
RTVSPropertyOp29
 70
     1
102
RTVSPropertyOp30
 70
     1
102
RTVSPropertyOp31
 70
     1
102
RTVSPropertyOp32
 70
     1
102
RTVSPropertyOp33
 70
     1
102
RTVSPropertyOp34
 70
     1
102
RTVSPropertyOp35
 70
     1
102
RTVSPropertyOp36
 70
     1
102
RTVSPropertyOp37
 70
     1
102
RTVSPropertyOp38
 70
     1
102
RTVSPropertyOp39
 70
     1
102
RTVSPropertyOp40
 70
     1
102
RTVSPropertyOp41
 70
     1
102
RTVSPropertyOp42
 70
     1
102
RTVSPropertyOp43
 70
     1
102
RTVSPropertyOp44
 70
     1
102
RTVSPropertyOp45
 70
     1
102
RTVSPropertyOp46
 70
     1
102
RTVSPropertyOp47
 70
     1
102
RTVSPropertyOp48
 70
     1
102
RTVSPropertyOp49
 70
     1
102
RTVSPropertyOp50
 70
     1
102
RTVSPropertyOp51
 70
     0
102
RTVSPropertyOp52
 70
     0
102
RTVSPropertyOp53
 70
     1
102
RTVSPropertyOp54
 70
     1
102
RTVSPropertyOp55
 70
     1
102
RTVSPropertyOp56
 70
     1
102
RTVSPropertyOp57
 70
     1
102
RTVSPost2010Prop28
280
     0
102
RTVSPost2010PropOp28
 70
     1
102
RTVSPost2010Prop29
280
     1
102
RTVSPost2010PropOp29
 70
     1
102
RTVSPost2010Prop30
280
     1
102
RTVSPost2010PropOp30
 70
     1
102
RTVSPost2010Prop31
280
     0
102
RTVSPost2010PropOp31
 70
     1
102
RTVSPost2010Prop32
280
     0
102
RTVSPost2010PropOp32
 70
     1
102
RTVSPost2010Prop33
280
     0
102
RTVSPost2010PropOp33
 70
     1
102
RTVSPost2010Prop34
280
     0
102
RTVSPost2010PropOp34
 70
     1
102
RTVSPost2010Prop35
280
     0
102
RTVSPost2010PropOp35
 70
     1
102
RTVSPost2010Prop36
280
     0
102
RTVSPost2010PropOp36
 70
     1
102
RTVSPost2010Prop37
 90
       50
102
RTVSPost2010PropOp37
 70
     1
102
RTVSPost2010Prop38
140
0.0
102
RTVSPost2010PropOp38
 70
     1
102
RTVSPost2010Prop39
140
1.0
102
RTVSPost2010PropOp39
 70
     1
102
RTVSPost2010Prop40
 90
        0
102
RTVSPost2010PropOp40
 70
     1
102
RTVSPost2010Prop41ColorIndex
 90
       18
102
RTVSPost2010Prop41ColorRGB
 90
        0
102
RTVSPost2010PropOp41
 70
     1
102
RTVSPost2010Prop42
 90
       50
102
RTVSPost2010PropOp42
 70
     1
102
RTVSPost2010Prop43
 90
        3
102
RTVSPost2010PropOp43
 70
     1
102
RTVSPost2010Prop44ColorIndex
 90
        5
102
RTVSPost2010Prop44ColorRGB
 90
      255
102
RTVSPost2010PropOp44
 70
     1
102
RTVSPost2010Prop45
280
     0
102
RTVSPost2010PropOp45
 70
     1
102
RTVSPost2010Prop46
 90
       50
102
RTVSPost2010PropOp46
 70
     1
102
RTVSPost2010Prop47
 90
       50
102
RTVSPost2010PropOp47
 70
     1
102
RTVSPost2010Prop48
 90
       50
102
RTVSPost2010PropOp48
 70
     1
102
RTVSPost2010Prop49
280
     0
102
RTVSPost2010PropOp49
 70
     1
102
RTVSPost2010Prop50
 90
       50
102
RTVSPost2010PropOp50
 70
     1
102
RTVSPost2010Prop51ColorIndex
 90
      256
102
RTVSPost2010Prop51ColorRGB
 90
-16777216
102
RTVSPost2010PropOp51
 70
     0
102
RTVSPost2010Prop52
140
1.0
102
RTVSPost2010PropOp52
 70
     0
102
RTVSPost2010Prop53
 90
        2
102
RTVSPost2010PropOp53
 70
     1
102
RTVSPost2010Prop54
  1
strokes_ogs.tif
102
RTVSPost2010PropOp54
 70
     1
102
RTVSPost2010Prop55
280
     0
102
RTVSPost2010PropOp55
 70
     1
102
RTVSPost2010Prop56
140
1.0
102
RTVSPost2010PropOp56
 70
     1
102
RTVSPost2010Prop57
140
1.0
102
RTVSPost2010PropOp57
 70
     1
  0
XRECORD
  5
327
102
{ACAD_REACTORS
330
326
102
}
330
326
100
AcDbXrecord
280
     1
102
RTVSPropertyOp0
 70
     1
102
RTVSPropertyOp1
 70
     1
102
RTVSPropertyOp2
 70
     1
102
RTVSPropertyOp3
 70
     1
102
RTVSPropertyOp4
 70
     1
102
RTVSPropertyOp5
 70
     1
102
RTVSPropertyOp6
 70
     1
102
RTVSPropertyOp7
 70
     1
102
RTVSPropertyOp8
 70
     1
102
RTVSPropertyOp9
 70
     1
102
RTVSPropertyOp10
 70
     1
102
RTVSPropertyOp11
 70
     1
102
RTVSPropertyOp12
 70
     1
102
RTVSPropertyOp13
 70
     1
102
RTVSPropertyOp14
 70
     1
102
RTVSPropertyOp15
 70
     1
102
RTVSPropertyOp16
 70
     1
102
RTVSPropertyOp17
 70
     1
102
RTVSPropertyOp18
 70
     1
102
RTVSPropertyOp19
 70
     1
102
RTVSPropertyOp20
 70
     1
102
RTVSPropertyOp21
 70
     1
102
RTVSPropertyOp22
 70
     1
102
RTVSPropertyOp23
 70
     1
102
RTVSPropertyOp24
 70
     1
102
RTVSPropertyOp25
 70
     1
102
RTVSPropertyOp26
 70
     1
102
RTVSPropertyOp27
 70
     1
102
RTVSPropertyOp28
 70
     1
102
RTVSPropertyOp29
 70
     1
102
RTVSPropertyOp30
 70
     1
102
RTVSPropertyOp31
 70
     1
102
RTVSPropertyOp32
 70
     1
102
RTVSPropertyOp33
 70
     1
102
RTVSPropertyOp34
 70
     1
102
RTVSPropertyOp35
 70
     1
102
RTVSPropertyOp36
 70
     1
102
RTVSPropertyOp37
 70
     1
102
RTVSPropertyOp38
 70
     1
102
RTVSPropertyOp39
 70
     1
102
RTVSPropertyOp40
 70
     1
102
RTVSPropertyOp41
 70
     1
102
RTVSPropertyOp42
 70
     1
102
RTVSPropertyOp43
 70
     1
102
RTVSPropertyOp44
 70
     1
102
RTVSPropertyOp45
 70
     1
102
RTVSPropertyOp46
 70
     1
102
RTVSPropertyOp47
 70
     1
102
RTVSPropertyOp48
 70
     1
102
RTVSPropertyOp49
 70
     1
102
RTVSPropertyOp50
 70
     1
102
RTVSPropertyOp51
 70
     0
102
RTVSPropertyOp52
 70
     0
102
RTVSPropertyOp53
 70
     1
102
RTVSPropertyOp54
 70
     1
102
RTVSPropertyOp55
 70
     1
102
RTVSPropertyOp56
 70
     1
102
RTVSPropertyOp57
 70
     1
102
RTVSPost2010Prop28
280
     0
102
RTVSPost2010PropOp28
 70
     1
102
RTVSPost2010Prop29
280
     1
102
RTVSPost2010PropOp29
 70
     1
102
RTVSPost2010Prop30
280
     1
102
RTVSPost2010PropOp30
 70
     1
102
RTVSPost2010Prop31
280
     0
102
RTVSPost2010PropOp31
 70
     1
102
RTVSPost2010Prop32
280
     0
102
RTVSPost2010PropOp32
 70
     1
102
RTVSPost2010Prop33
280
     0
102
RTVSPost2010PropOp33
 70
     1
102
RTVSPost2010Prop34
280
     0
102
RTVSPost2010PropOp34
 70
     1
102
RTVSPost2010Prop35
280
     0
102
RTVSPost2010PropOp35
 70
     1
102
RTVSPost2010Prop36
280
     0
102
RTVSPost2010PropOp36
 70
     1
102
RTVSPost2010Prop37
 90
       50
102
RTVSPost2010PropOp37
 70
     1
102
RTVSPost2010Prop38
140
0.0
102
RTVSPost2010PropOp38
 70
     1
102
RTVSPost2010Prop39
140
1.0
102
RTVSPost2010PropOp39
 70
     1
102
RTVSPost2010Prop40
 90
        0
102
RTVSPost2010PropOp40
 70
     1
102
RTVSPost2010Prop41ColorIndex
 90
       18
102
RTVSPost2010Prop41ColorRGB
 90
        0
102
RTVSPost2010PropOp41
 70
     1
102
RTVSPost2010Prop42
 90
       50
102
RTVSPost2010PropOp42
 70
     1
102
RTVSPost2010Prop43
 90
        3
102
RTVSPost2010PropOp43
 70
     1
102
RTVSPost2010Prop44ColorIndex
 90
        5
102
RTVSPost2010Prop44ColorRGB
 90
      255
102
RTVSPost2010PropOp44
 70
     1
102
RTVSPost2010Prop45
280
     0
102
RTVSPost2010PropOp45
 70
     1
102
RTVSPost2010Prop46
 90
       50
102
RTVSPost2010PropOp46
 70
     1
102
RTVSPost2010Prop47
 90
       50
102
RTVSPost2010PropOp47
 70
     1
102
RTVSPost2010Prop48
 90
       50
102
RTVSPost2010PropOp48
 70
     1
102
RTVSPost2010Prop49
280
     0
102
RTVSPost2010PropOp49
 70
     1
102
RTVSPost2010Prop50
 90
       50
102
RTVSPost2010PropOp50
 70
     1
102
RTVSPost2010Prop51ColorIndex
 90
      256
102
RTVSPost2010Prop51ColorRGB
 90
-16777216
102
RTVSPost2010PropOp51
 70
     0
102
RTVSPost2010Prop52
140
1.0
102
RTVSPost2010PropOp52
 70
     0
102
RTVSPost2010Prop53
 90
        2
102
RTVSPost2010PropOp53
 70
     1
102
RTVSPost2010Prop54
  1
strokes_ogs.tif
102
RTVSPost2010PropOp54
 70
     1
102
RTVSPost2010Prop55
280
     0
102
RTVSPost2010PropOp55
 70
     1
102
RTVSPost2010Prop56
140
1.0
102
RTVSPost2010PropOp56
 70
     1
102
RTVSPost2010Prop57
140
1.0
102
RTVSPost2010PropOp57
 70
     1
  0
XRECORD
  5
337
102
{ACAD_REACTORS
330
336
102
}
330
336
100
AcDbXrecord
280
     1
102
RTVSPropertyOp0
 70
     0
102
RTVSPropertyOp1
 70
     0
102
RTVSPropertyOp2
 70
     0
102
RTVSPropertyOp3
 70
     0
102
RTVSPropertyOp4
 70
     0
102
RTVSPropertyOp5
 70
     0
102
RTVSPropertyOp6
 70
     0
102
RTVSPropertyOp7
 70
     0
102
RTVSPropertyOp8
 70
     0
102
RTVSPropertyOp9
 70
     0
102
RTVSPropertyOp10
 70
     0
102
RTVSPropertyOp11
 70
     0
102
RTVSPropertyOp12
 70
     0
102
RTVSPropertyOp13
 70
     0
102
RTVSPropertyOp14
 70
     2
102
RTVSPropertyOp15
 70
     0
102
RTVSPropertyOp16
 70
     0
102
RTVSPropertyOp17
 70
     0
102
RTVSPropertyOp18
 70
     0
102
RTVSPropertyOp19
 70
     0
102
RTVSPropertyOp20
 70
     0
102
RTVSPropertyOp21
 70
     0
102
RTVSPropertyOp22
 70
     0
102
RTVSPropertyOp23
 70
     0
102
RTVSPropertyOp24
 70
     0
102
RTVSPropertyOp25
 70
     0
102
RTVSPropertyOp26
 70
     0
102
RTVSPropertyOp27
 70
     0
102
RTVSPropertyOp28
 70
     0
102
RTVSPropertyOp29
 70
     0
102
RTVSPropertyOp30
 70
     0
102
RTVSPropertyOp31
 70
     0
102
RTVSPropertyOp32
 70
     0
102
RTVSPropertyOp33
 70
     0
102
RTVSPropertyOp34
 70
     0
102
RTVSPropertyOp35
 70
     0
102
RTVSPropertyOp36
 70
     0
102
RTVSPropertyOp37
 70
     0
102
RTVSPropertyOp38
 70
     0
102
RTVSPropertyOp39
 70
     0
102
RTVSPropertyOp40
 70
     0
102
RTVSPropertyOp41
 70
     0
102
RTVSPropertyOp42
 70
     0
102
RTVSPropertyOp43
 70
     0
102
RTVSPropertyOp44
 70
     0
102
RTVSPropertyOp45
 70
     0
102
RTVSPropertyOp46
 70
     0
102
RTVSPropertyOp47
 70
     0
102
RTVSPropertyOp48
 70
     0
102
RTVSPropertyOp49
 70
     0
102
RTVSPropertyOp50
 70
     0
102
RTVSPropertyOp51
 70
     0
102
RTVSPropertyOp52
 70
     0
102
RTVSPropertyOp53
 70
     0
102
RTVSPropertyOp54
 70
     0
102
RTVSPropertyOp55
 70
     0
102
RTVSPropertyOp56
 70
     0
102
RTVSPropertyOp57
 70
     0
102
RTVSPost2010Prop28
280
     0
102
RTVSPost2010PropOp28
 70
     0
102
RTVSPost2010Prop29
280
     1
102
RTVSPost2010PropOp29
 70
     0
102
RTVSPost2010Prop30
280
     1
102
RTVSPost2010PropOp30
 70
     0
102
RTVSPost2010Prop31
280
     0
102
RTVSPost2010PropOp31
 70
     0
102
RTVSPost2010Prop32
280
     0
102
RTVSPost2010PropOp32
 70
     0
102
RTVSPost2010Prop33
280
     0
102
RTVSPost2010PropOp33
 70
     0
102
RTVSPost2010Prop34
280
     0
102
RTVSPost2010PropOp34
 70
     0
102
RTVSPost2010Prop35
280
     0
102
RTVSPost2010PropOp35
 70
     0
102
RTVSPost2010Prop36
280
     0
102
RTVSPost2010PropOp36
 70
     0
102
RTVSPost2010Prop37
 90
       50
102
RTVSPost2010PropOp37
 70
     0
102
RTVSPost2010Prop38
140
0.0
102
RTVSPost2010PropOp38
 70
     0
102
RTVSPost2010Prop39
140
1.0
102
RTVSPost2010PropOp39
 70
     0
102
RTVSPost2010Prop40
 90
        0
102
RTVSPost2010PropOp40
 70
     0
102
RTVSPost2010Prop41ColorIndex
 90
       18
102
RTVSPost2010Prop41ColorRGB
 90
        0
102
RTVSPost2010PropOp41
 70
     0
102
RTVSPost2010Prop42
 90
       50
102
RTVSPost2010PropOp42
 70
     0
102
RTVSPost2010Prop43
 90
        3
102
RTVSPost2010PropOp43
 70
     0
102
RTVSPost2010Prop44ColorIndex
 90
        5
102
RTVSPost2010Prop44ColorRGB
 90
      255
102
RTVSPost2010PropOp44
 70
     0
102
RTVSPost2010Prop45
280
     0
102
RTVSPost2010PropOp45
 70
     0
102
RTVSPost2010Prop46
 90
       50
102
RTVSPost2010PropOp46
 70
     0
102
RTVSPost2010Prop47
 90
       50
102
RTVSPost2010PropOp47
 70
     0
102
RTVSPost2010Prop48
 90
       50
102
RTVSPost2010PropOp48
 70
     0
102
RTVSPost2010Prop49
280
     0
102
RTVSPost2010PropOp49
 70
     0
102
RTVSPost2010Prop50
 90
       50
102
RTVSPost2010PropOp50
 70
     0
102
RTVSPost2010Prop51ColorIndex
 90
      256
102
RTVSPost2010Prop51ColorRGB
 90
-16777216
102
RTVSPost2010PropOp51
 70
     0
102
RTVSPost2010Prop52
140
1.0
102
RTVSPost2010PropOp52
 70
     0
102
RTVSPost2010Prop53
 90
        2
102
RTVSPost2010PropOp53
 70
     0
102
RTVSPost2010Prop54
  1
strokes_ogs.tif
102
RTVSPost2010PropOp54
 70
     0
102
RTVSPost2010Prop55
280
     0
102
RTVSPost2010PropOp55
 70
     0
102
RTVSPost2010Prop56
140
1.0
102
RTVSPost2010PropOp56
 70
     0
102
RTVSPost2010Prop57
140
1.0
102
RTVSPost2010PropOp57
 70
     0
  0
XRECORD
  5
32F
102
{ACAD_REACTORS
330
32E
102
}
330
32E
100
AcDbXrecord
280
     1
102
RTVSPropertyOp0
 70
     1
102
RTVSPropertyOp1
 70
     1
102
RTVSPropertyOp2
 70
     1
102
RTVSPropertyOp3
 70
     1
102
RTVSPropertyOp4
 70
     1
102
RTVSPropertyOp5
 70
     1
102
RTVSPropertyOp6
 70
     1
102
RTVSPropertyOp7
 70
     1
102
RTVSPropertyOp8
 70
     1
102
RTVSPropertyOp9
 70
     1
102
RTVSPropertyOp10
 70
     1
102
RTVSPropertyOp11
 70
     1
102
RTVSPropertyOp12
 70
     1
102
RTVSPropertyOp13
 70
     1
102
RTVSPropertyOp14
 70
     1
102
RTVSPropertyOp15
 70
     1
102
RTVSPropertyOp16
 70
     1
102
RTVSPropertyOp17
 70
     1
102
RTVSPropertyOp18
 70
     1
102
RTVSPropertyOp19
 70
     1
102
RTVSPropertyOp20
 70
     1
102
RTVSPropertyOp21
 70
     1
102
RTVSPropertyOp22
 70
     1
102
RTVSPropertyOp23
 70
     1
102
RTVSPropertyOp24
 70
     1
102
RTVSPropertyOp25
 70
     1
102
RTVSPropertyOp26
 70
     1
102
RTVSPropertyOp27
 70
     1
102
RTVSPropertyOp28
 70
     1
102
RTVSPropertyOp29
 70
     1
102
RTVSPropertyOp30
 70
     1
102
RTVSPropertyOp31
 70
     1
102
RTVSPropertyOp32
 70
     1
102
RTVSPropertyOp33
 70
     1
102
RTVSPropertyOp34
 70
     1
102
RTVSPropertyOp35
 70
     1
102
RTVSPropertyOp36
 70
     1
102
RTVSPropertyOp37
 70
     1
102
RTVSPropertyOp38
 70
     1
102
RTVSPropertyOp39
 70
     1
102
RTVSPropertyOp40
 70
     1
102
RTVSPropertyOp41
 70
     1
102
RTVSPropertyOp42
 70
     1
102
RTVSPropertyOp43
 70
     1
102
RTVSPropertyOp44
 70
     1
102
RTVSPropertyOp45
 70
     1
102
RTVSPropertyOp46
 70
     1
102
RTVSPropertyOp47
 70
     1
102
RTVSPropertyOp48
 70
     1
102
RTVSPropertyOp49
 70
     1
102
RTVSPropertyOp50
 70
     1
102
RTVSPropertyOp51
 70
     0
102
RTVSPropertyOp52
 70
     0
102
RTVSPropertyOp53
 70
     1
102
RTVSPropertyOp54
 70
     1
102
RTVSPropertyOp55
 70
     1
102
RTVSPropertyOp56
 70
     1
102
RTVSPropertyOp57
 70
     1
102
RTVSPost2010Prop28
280
     0
102
RTVSPost2010PropOp28
 70
     1
102
RTVSPost2010Prop29
280
     1
102
RTVSPost2010PropOp29
 70
     1
102
RTVSPost2010Prop30
280
     1
102
RTVSPost2010PropOp30
 70
     1
102
RTVSPost2010Prop31
280
     0
102
RTVSPost2010PropOp31
 70
     1
102
RTVSPost2010Prop32
280
     0
102
RTVSPost2010PropOp32
 70
     1
102
RTVSPost2010Prop33
280
     0
102
RTVSPost2010PropOp33
 70
     1
102
RTVSPost2010Prop34
280
     0
102
RTVSPost2010PropOp34
 70
     1
102
RTVSPost2010Prop35
280
     0
102
RTVSPost2010PropOp35
 70
     1
102
RTVSPost2010Prop36
280
     0
102
RTVSPost2010PropOp36
 70
     1
102
RTVSPost2010Prop37
 90
       50
102
RTVSPost2010PropOp37
 70
     1
102
RTVSPost2010Prop38
140
0.0
102
RTVSPost2010PropOp38
 70
     1
102
RTVSPost2010Prop39
140
1.0
102
RTVSPost2010PropOp39
 70
     1
102
RTVSPost2010Prop40
 90
        0
102
RTVSPost2010PropOp40
 70
     1
102
RTVSPost2010Prop41ColorIndex
 90
       18
102
RTVSPost2010Prop41ColorRGB
 90
        0
102
RTVSPost2010PropOp41
 70
     1
102
RTVSPost2010Prop42
 90
       50
102
RTVSPost2010PropOp42
 70
     1
102
RTVSPost2010Prop43
 90
        3
102
RTVSPost2010PropOp43
 70
     1
102
RTVSPost2010Prop44ColorIndex
 90
        5
102
RTVSPost2010Prop44ColorRGB
 90
      255
102
RTVSPost2010PropOp44
 70
     1
102
RTVSPost2010Prop45
280
     0
102
RTVSPost2010PropOp45
 70
     1
102
RTVSPost2010Prop46
 90
       50
102
RTVSPost2010PropOp46
 70
     1
102
RTVSPost2010Prop47
 90
       50
102
RTVSPost2010PropOp47
 70
     1
102
RTVSPost2010Prop48
 90
       50
102
RTVSPost2010PropOp48
 70
     1
102
RTVSPost2010Prop49
280
     0
102
RTVSPost2010PropOp49
 70
     1
102
RTVSPost2010Prop50
 90
       50
102
RTVSPost2010PropOp50
 70
     1
102
RTVSPost2010Prop51ColorIndex
 90
      256
102
RTVSPost2010Prop51ColorRGB
 90
-16777216
102
RTVSPost2010PropOp51
 70
     0
102
RTVSPost2010Prop52
140
1.0
102
RTVSPost2010PropOp52
 70
     0
102
RTVSPost2010Prop53
 90
        2
102
RTVSPost2010PropOp53
 70
     1
102
RTVSPost2010Prop54
  1
strokes_ogs.tif
102
RTVSPost2010PropOp54
 70
     1
102
RTVSPost2010Prop55
280
     0
102
RTVSPost2010PropOp55
 70
     1
102
RTVSPost2010Prop56
140
1.0
102
RTVSPost2010PropOp56
 70
     1
102
RTVSPost2010Prop57
140
1.0
102
RTVSPost2010PropOp57
 70
     1
  0
XRECORD
  5
313
102
{ACAD_REACTORS
330
312
102
}
330
312
100
AcDbXrecord
280
     1
102
RTVSPropertyOp0
 70
     1
102
RTVSPropertyOp1
 70
     1
102
RTVSPropertyOp2
 70
     1
102
RTVSPropertyOp3
 70
     1
102
RTVSPropertyOp4
 70
     1
102
RTVSPropertyOp5
 70
     1
102
RTVSPropertyOp6
 70
     1
102
RTVSPropertyOp7
 70
     1
102
RTVSPropertyOp8
 70
     1
102
RTVSPropertyOp9
 70
     1
102
RTVSPropertyOp10
 70
     1
102
RTVSPropertyOp11
 70
     1
102
RTVSPropertyOp12
 70
     1
102
RTVSPropertyOp13
 70
     1
102
RTVSPropertyOp14
 70
     1
102
RTVSPropertyOp15
 70
     1
102
RTVSPropertyOp16
 70
     1
102
RTVSPropertyOp17
 70
     1
102
RTVSPropertyOp18
 70
     1
102
RTVSPropertyOp19
 70
     1
102
RTVSPropertyOp20
 70
     1
102
RTVSPropertyOp21
 70
     1
102
RTVSPropertyOp22
 70
     1
102
RTVSPropertyOp23
 70
     1
102
RTVSPropertyOp24
 70
     1
102
RTVSPropertyOp25
 70
     1
102
RTVSPropertyOp26
 70
     1
102
RTVSPropertyOp27
 70
     1
102
RTVSPropertyOp28
 70
     1
102
RTVSPropertyOp29
 70
     1
102
RTVSPropertyOp30
 70
     1
102
RTVSPropertyOp31
 70
     1
102
RTVSPropertyOp32
 70
     1
102
RTVSPropertyOp33
 70
     1
102
RTVSPropertyOp34
 70
     1
102
RTVSPropertyOp35
 70
     1
102
RTVSPropertyOp36
 70
     1
102
RTVSPropertyOp37
 70
     1
102
RTVSPropertyOp38
 70
     1
102
RTVSPropertyOp39
 70
     1
102
RTVSPropertyOp40
 70
     1
102
RTVSPropertyOp41
 70
     1
102
RTVSPropertyOp42
 70
     1
102
RTVSPropertyOp43
 70
     1
102
RTVSPropertyOp44
 70
     1
102
RTVSPropertyOp45
 70
     1
102
RTVSPropertyOp46
 70
     1
102
RTVSPropertyOp47
 70
     1
102
RTVSPropertyOp48
 70
     1
102
RTVSPropertyOp49
 70
     1
102
RTVSPropertyOp50
 70
     1
102
RTVSPropertyOp51
 70
     0
102
RTVSPropertyOp52
 70
     0
102
RTVSPropertyOp53
 70
     1
102
RTVSPropertyOp54
 70
     1
102
RTVSPropertyOp55
 70
     1
102
RTVSPropertyOp56
 70
     1
102
RTVSPropertyOp57
 70
     1
102
RTVSPost2010Prop28
280
     0
102
RTVSPost2010PropOp28
 70
     1
102
RTVSPost2010Prop29
280
     1
102
RTVSPost2010PropOp29
 70
     1
102
RTVSPost2010Prop30
280
     1
102
RTVSPost2010PropOp30
 70
     1
102
RTVSPost2010Prop31
280
     0
102
RTVSPost2010PropOp31
 70
     1
102
RTVSPost2010Prop32
280
     0
102
RTVSPost2010PropOp32
 70
     1
102
RTVSPost2010Prop33
280
     0
102
RTVSPost2010PropOp33
 70
     1
102
RTVSPost2010Prop34
280
     0
102
RTVSPost2010PropOp34
 70
     1
102
RTVSPost2010Prop35
280
     0
102
RTVSPost2010PropOp35
 70
     1
102
RTVSPost2010Prop36
280
     0
102
RTVSPost2010PropOp36
 70
     1
102
RTVSPost2010Prop37
 90
       50
102
RTVSPost2010PropOp37
 70
     1
102
RTVSPost2010Prop38
140
0.0
102
RTVSPost2010PropOp38
 70
     1
102
RTVSPost2010Prop39
140
1.0
102
RTVSPost2010PropOp39
 70
     1
102
RTVSPost2010Prop40
 90
        0
102
RTVSPost2010PropOp40
 70
     1
102
RTVSPost2010Prop41ColorIndex
 90
       18
102
RTVSPost2010Prop41ColorRGB
 90
        0
102
RTVSPost2010PropOp41
 70
     1
102
RTVSPost2010Prop42
 90
       50
102
RTVSPost2010PropOp42
 70
     1
102
RTVSPost2010Prop43
 90
        3
102
RTVSPost2010PropOp43
 70
     1
102
RTVSPost2010Prop44ColorIndex
 90
        5
102
RTVSPost2010Prop44ColorRGB
 90
      255
102
RTVSPost2010PropOp44
 70
     1
102
RTVSPost2010Prop45
280
     0
102
RTVSPost2010PropOp45
 70
     1
102
RTVSPost2010Prop46
 90
       50
102
RTVSPost2010PropOp46
 70
     1
102
RTVSPost2010Prop47
 90
       50
102
RTVSPost2010PropOp47
 70
     1
102
RTVSPost2010Prop48
 90
       50
102
RTVSPost2010PropOp48
 70
     1
102
RTVSPost2010Prop49
280
     0
102
RTVSPost2010PropOp49
 70
     1
102
RTVSPost2010Prop50
 90
       50
102
RTVSPost2010PropOp50
 70
     1
102
RTVSPost2010Prop51ColorIndex
 90
      256
102
RTVSPost2010Prop51ColorRGB
 90
-16777216
102
RTVSPost2010PropOp51
 70
     0
102
RTVSPost2010Prop52
140
1.0
102
RTVSPost2010PropOp52
 70
     0
102
RTVSPost2010Prop53
 90
        2
102
RTVSPost2010PropOp53
 70
     1
102
RTVSPost2010Prop54
  1
strokes_ogs.tif
102
RTVSPost2010PropOp54
 70
     1
102
RTVSPost2010Prop55
280
     0
102
RTVSPost2010PropOp55
 70
     1
102
RTVSPost2010Prop56
140
1.0
102
RTVSPost2010PropOp56
 70
     1
102
RTVSPost2010Prop57
140
1.0
102
RTVSPost2010PropOp57
 70
     1
  0
XRECORD
  5
315
102
{ACAD_REACTORS
330
314
102
}
330
314
100
AcDbXrecord
280
     1
102
RTVSPropertyOp0
 70
     1
102
RTVSPropertyOp1
 70
     1
102
RTVSPropertyOp2
 70
     1
102
RTVSPropertyOp3
 70
     1
102
RTVSPropertyOp4
 70
     1
102
RTVSPropertyOp5
 70
     1
102
RTVSPropertyOp6
 70
     1
102
RTVSPropertyOp7
 70
     1
102
RTVSPropertyOp8
 70
     1
102
RTVSPropertyOp9
 70
     1
102
RTVSPropertyOp10
 70
     1
102
RTVSPropertyOp11
 70
     1
102
RTVSPropertyOp12
 70
     1
102
RTVSPropertyOp13
 70
     1
102
RTVSPropertyOp14
 70
     1
102
RTVSPropertyOp15
 70
     1
102
RTVSPropertyOp16
 70
     1
102
RTVSPropertyOp17
 70
     1
102
RTVSPropertyOp18
 70
     1
102
RTVSPropertyOp19
 70
     1
102
RTVSPropertyOp20
 70
     1
102
RTVSPropertyOp21
 70
     1
102
RTVSPropertyOp22
 70
     1
102
RTVSPropertyOp23
 70
     1
102
RTVSPropertyOp24
 70
     1
102
RTVSPropertyOp25
 70
     1
102
RTVSPropertyOp26
 70
     1
102
RTVSPropertyOp27
 70
     1
102
RTVSPropertyOp28
 70
     1
102
RTVSPropertyOp29
 70
     1
102
RTVSPropertyOp30
 70
     1
102
RTVSPropertyOp31
 70
     1
102
RTVSPropertyOp32
 70
     1
102
RTVSPropertyOp33
 70
     1
102
RTVSPropertyOp34
 70
     1
102
RTVSPropertyOp35
 70
     1
102
RTVSPropertyOp36
 70
     1
102
RTVSPropertyOp37
 70
     1
102
RTVSPropertyOp38
 70
     1
102
RTVSPropertyOp39
 70
     1
102
RTVSPropertyOp40
 70
     1
102
RTVSPropertyOp41
 70
     1
102
RTVSPropertyOp42
 70
     1
102
RTVSPropertyOp43
 70
     1
102
RTVSPropertyOp44
 70
     1
102
RTVSPropertyOp45
 70
     1
102
RTVSPropertyOp46
 70
     1
102
RTVSPropertyOp47
 70
     1
102
RTVSPropertyOp48
 70
     1
102
RTVSPropertyOp49
 70
     1
102
RTVSPropertyOp50
 70
     1
102
RTVSPropertyOp51
 70
     0
102
RTVSPropertyOp52
 70
     0
102
RTVSPropertyOp53
 70
     1
102
RTVSPropertyOp54
 70
     1
102
RTVSPropertyOp55
 70
     1
102
RTVSPropertyOp56
 70
     1
102
RTVSPropertyOp57
 70
     1
102
RTVSPost2010Prop28
280
     0
102
RTVSPost2010PropOp28
 70
     1
102
RTVSPost2010Prop29
280
     1
102
RTVSPost2010PropOp29
 70
     1
102
RTVSPost2010Prop30
280
     1
102
RTVSPost2010PropOp30
 70
     1
102
RTVSPost2010Prop31
280
     0
102
RTVSPost2010PropOp31
 70
     1
102
RTVSPost2010Prop32
280
     0
102
RTVSPost2010PropOp32
 70
     1
102
RTVSPost2010Prop33
280
     0
102
RTVSPost2010PropOp33
 70
     1
102
RTVSPost2010Prop34
280
     0
102
RTVSPost2010PropOp34
 70
     1
102
RTVSPost2010Prop35
280
     0
102
RTVSPost2010PropOp35
 70
     1
102
RTVSPost2010Prop36
280
     0
102
RTVSPost2010PropOp36
 70
     1
102
RTVSPost2010Prop37
 90
       50
102
RTVSPost2010PropOp37
 70
     1
102
RTVSPost2010Prop38
140
0.0
102
RTVSPost2010PropOp38
 70
     1
102
RTVSPost2010Prop39
140
1.0
102
RTVSPost2010PropOp39
 70
     1
102
RTVSPost2010Prop40
 90
        0
102
RTVSPost2010PropOp40
 70
     1
102
RTVSPost2010Prop41ColorIndex
 90
       18
102
RTVSPost2010Prop41ColorRGB
 90
        0
102
RTVSPost2010PropOp41
 70
     1
102
RTVSPost2010Prop42
 90
       50
102
RTVSPost2010PropOp42
 70
     1
102
RTVSPost2010Prop43
 90
        3
102
RTVSPost2010PropOp43
 70
     1
102
RTVSPost2010Prop44ColorIndex
 90
        5
102
RTVSPost2010Prop44ColorRGB
 90
      255
102
RTVSPost2010PropOp44
 70
     1
102
RTVSPost2010Prop45
280
     0
102
RTVSPost2010PropOp45
 70
     1
102
RTVSPost2010Prop46
 90
       50
102
RTVSPost2010PropOp46
 70
     1
102
RTVSPost2010Prop47
 90
       50
102
RTVSPost2010PropOp47
 70
     1
102
RTVSPost2010Prop48
 90
       50
102
RTVSPost2010PropOp48
 70
     1
102
RTVSPost2010Prop49
280
     0
102
RTVSPost2010PropOp49
 70
     1
102
RTVSPost2010Prop50
 90
       50
102
RTVSPost2010PropOp50
 70
     1
102
RTVSPost2010Prop51ColorIndex
 90
      256
102
RTVSPost2010Prop51ColorRGB
 90
-16777216
102
RTVSPost2010PropOp51
 70
     0
102
RTVSPost2010Prop52
140
1.0
102
RTVSPost2010PropOp52
 70
     0
102
RTVSPost2010Prop53
 90
        2
102
RTVSPost2010PropOp53
 70
     1
102
RTVSPost2010Prop54
  1
strokes_ogs.tif
102
RTVSPost2010PropOp54
 70
     1
102
RTVSPost2010Prop55
280
     0
102
RTVSPost2010PropOp55
 70
     1
102
RTVSPost2010Prop56
140
1.0
102
RTVSPost2010PropOp56
 70
     1
102
RTVSPost2010Prop57
140
1.0
102
RTVSPost2010PropOp57
 70
     1
  0
XRECORD
  5
317
102
{ACAD_REACTORS
330
316
102
}
330
316
100
AcDbXrecord
280
     1
102
RTVSPropertyOp0
 70
     1
102
RTVSPropertyOp1
 70
     1
102
RTVSPropertyOp2
 70
     1
102
RTVSPropertyOp3
 70
     1
102
RTVSPropertyOp4
 70
     1
102
RTVSPropertyOp5
 70
     1
102
RTVSPropertyOp6
 70
     1
102
RTVSPropertyOp7
 70
     1
102
RTVSPropertyOp8
 70
     1
102
RTVSPropertyOp9
 70
     1
102
RTVSPropertyOp10
 70
     1
102
RTVSPropertyOp11
 70
     1
102
RTVSPropertyOp12
 70
     1
102
RTVSPropertyOp13
 70
     1
102
RTVSPropertyOp14
 70
     1
102
RTVSPropertyOp15
 70
     1
102
RTVSPropertyOp16
 70
     1
102
RTVSPropertyOp17
 70
     1
102
RTVSPropertyOp18
 70
     1
102
RTVSPropertyOp19
 70
     1
102
RTVSPropertyOp20
 70
     1
102
RTVSPropertyOp21
 70
     1
102
RTVSPropertyOp22
 70
     1
102
RTVSPropertyOp23
 70
     1
102
RTVSPropertyOp24
 70
     1
102
RTVSPropertyOp25
 70
     1
102
RTVSPropertyOp26
 70
     1
102
RTVSPropertyOp27
 70
     1
102
RTVSPropertyOp28
 70
     1
102
RTVSPropertyOp29
 70
     1
102
RTVSPropertyOp30
 70
     1
102
RTVSPropertyOp31
 70
     1
102
RTVSPropertyOp32
 70
     1
102
RTVSPropertyOp33
 70
     1
102
RTVSPropertyOp34
 70
     1
102
RTVSPropertyOp35
 70
     1
102
RTVSPropertyOp36
 70
     1
102
RTVSPropertyOp37
 70
     1
102
RTVSPropertyOp38
 70
     1
102
RTVSPropertyOp39
 70
     1
102
RTVSPropertyOp40
 70
     1
102
RTVSPropertyOp41
 70
     1
102
RTVSPropertyOp42
 70
     1
102
RTVSPropertyOp43
 70
     1
102
RTVSPropertyOp44
 70
     1
102
RTVSPropertyOp45
 70
     1
102
RTVSPropertyOp46
 70
     1
102
RTVSPropertyOp47
 70
     1
102
RTVSPropertyOp48
 70
     1
102
RTVSPropertyOp49
 70
     1
102
RTVSPropertyOp50
 70
     1
102
RTVSPropertyOp51
 70
     0
102
RTVSPropertyOp52
 70
     0
102
RTVSPropertyOp53
 70
     1
102
RTVSPropertyOp54
 70
     1
102
RTVSPropertyOp55
 70
     1
102
RTVSPropertyOp56
 70
     1
102
RTVSPropertyOp57
 70
     1
102
RTVSPost2010Prop28
280
     0
102
RTVSPost2010PropOp28
 70
     1
102
RTVSPost2010Prop29
280
     1
102
RTVSPost2010PropOp29
 70
     1
102
RTVSPost2010Prop30
280
     1
102
RTVSPost2010PropOp30
 70
     1
102
RTVSPost2010Prop31
280
     0
102
RTVSPost2010PropOp31
 70
     1
102
RTVSPost2010Prop32
280
     0
102
RTVSPost2010PropOp32
 70
     1
102
RTVSPost2010Prop33
280
     0
102
RTVSPost2010PropOp33
 70
     1
102
RTVSPost2010Prop34
280
     0
102
RTVSPost2010PropOp34
 70
     1
102
RTVSPost2010Prop35
280
     0
102
RTVSPost2010PropOp35
 70
     1
102
RTVSPost2010Prop36
280
     0
102
RTVSPost2010PropOp36
 70
     1
102
RTVSPost2010Prop37
 90
       50
102
RTVSPost2010PropOp37
 70
     1
102
RTVSPost2010Prop38
140
0.0
102
RTVSPost2010PropOp38
 70
     1
102
RTVSPost2010Prop39
140
1.0
102
RTVSPost2010PropOp39
 70
     1
102
RTVSPost2010Prop40
 90
        0
102
RTVSPost2010PropOp40
 70
     1
102
RTVSPost2010Prop41ColorIndex
 90
       18
102
RTVSPost2010Prop41ColorRGB
 90
        0
102
RTVSPost2010PropOp41
 70
     1
102
RTVSPost2010Prop42
 90
       50
102
RTVSPost2010PropOp42
 70
     1
102
RTVSPost2010Prop43
 90
        3
102
RTVSPost2010PropOp43
 70
     1
102
RTVSPost2010Prop44ColorIndex
 90
        5
102
RTVSPost2010Prop44ColorRGB
 90
      255
102
RTVSPost2010PropOp44
 70
     1
102
RTVSPost2010Prop45
280
     0
102
RTVSPost2010PropOp45
 70
     1
102
RTVSPost2010Prop46
 90
       50
102
RTVSPost2010PropOp46
 70
     1
102
RTVSPost2010Prop47
 90
       50
102
RTVSPost2010PropOp47
 70
     1
102
RTVSPost2010Prop48
 90
       50
102
RTVSPost2010PropOp48
 70
     1
102
RTVSPost2010Prop49
280
     0
102
RTVSPost2010PropOp49
 70
     1
102
RTVSPost2010Prop50
 90
       50
102
RTVSPost2010PropOp50
 70
     1
102
RTVSPost2010Prop51ColorIndex
 90
      256
102
RTVSPost2010Prop51ColorRGB
 90
-16777216
102
RTVSPost2010PropOp51
 70
     0
102
RTVSPost2010Prop52
140
1.0
102
RTVSPost2010PropOp52
 70
     0
102
RTVSPost2010Prop53
 90
        2
102
RTVSPost2010PropOp53
 70
     1
102
RTVSPost2010Prop54
  1
strokes_ogs.tif
102
RTVSPost2010PropOp54
 70
     1
102
RTVSPost2010Prop55
280
     0
102
RTVSPost2010PropOp55
 70
     1
102
RTVSPost2010Prop56
140
1.0
102
RTVSPost2010PropOp56
 70
     1
102
RTVSPost2010Prop57
140
1.0
102
RTVSPost2010PropOp57
 70
     1
  0
XRECORD
  5
319
102
{ACAD_REACTORS
330
318
102
}
330
318
100
AcDbXrecord
280
     1
102
RTVSPropertyOp0
 70
     1
102
RTVSPropertyOp1
 70
     1
102
RTVSPropertyOp2
 70
     1
102
RTVSPropertyOp3
 70
     1
102
RTVSPropertyOp4
 70
     1
102
RTVSPropertyOp5
 70
     1
102
RTVSPropertyOp6
 70
     1
102
RTVSPropertyOp7
 70
     1
102
RTVSPropertyOp8
 70
     1
102
RTVSPropertyOp9
 70
     1
102
RTVSPropertyOp10
 70
     1
102
RTVSPropertyOp11
 70
     1
102
RTVSPropertyOp12
 70
     1
102
RTVSPropertyOp13
 70
     1
102
RTVSPropertyOp14
 70
     1
102
RTVSPropertyOp15
 70
     1
102
RTVSPropertyOp16
 70
     1
102
RTVSPropertyOp17
 70
     1
102
RTVSPropertyOp18
 70
     1
102
RTVSPropertyOp19
 70
     1
102
RTVSPropertyOp20
 70
     1
102
RTVSPropertyOp21
 70
     1
102
RTVSPropertyOp22
 70
     1
102
RTVSPropertyOp23
 70
     1
102
RTVSPropertyOp24
 70
     1
102
RTVSPropertyOp25
 70
     1
102
RTVSPropertyOp26
 70
     1
102
RTVSPropertyOp27
 70
     1
102
RTVSPropertyOp28
 70
     1
102
RTVSPropertyOp29
 70
     1
102
RTVSPropertyOp30
 70
     1
102
RTVSPropertyOp31
 70
     1
102
RTVSPropertyOp32
 70
     1
102
RTVSPropertyOp33
 70
     1
102
RTVSPropertyOp34
 70
     1
102
RTVSPropertyOp35
 70
     1
102
RTVSPropertyOp36
 70
     1
102
RTVSPropertyOp37
 70
     1
102
RTVSPropertyOp38
 70
     1
102
RTVSPropertyOp39
 70
     1
102
RTVSPropertyOp40
 70
     1
102
RTVSPropertyOp41
 70
     1
102
RTVSPropertyOp42
 70
     1
102
RTVSPropertyOp43
 70
     1
102
RTVSPropertyOp44
 70
     1
102
RTVSPropertyOp45
 70
     1
102
RTVSPropertyOp46
 70
     1
102
RTVSPropertyOp47
 70
     1
102
RTVSPropertyOp48
 70
     1
102
RTVSPropertyOp49
 70
     1
102
RTVSPropertyOp50
 70
     1
102
RTVSPropertyOp51
 70
     0
102
RTVSPropertyOp52
 70
     0
102
RTVSPropertyOp53
 70
     1
102
RTVSPropertyOp54
 70
     1
102
RTVSPropertyOp55
 70
     1
102
RTVSPropertyOp56
 70
     1
102
RTVSPropertyOp57
 70
     1
102
RTVSPost2010Prop28
280
     0
102
RTVSPost2010PropOp28
 70
     1
102
RTVSPost2010Prop29
280
     1
102
RTVSPost2010PropOp29
 70
     1
102
RTVSPost2010Prop30
280
     1
102
RTVSPost2010PropOp30
 70
     1
102
RTVSPost2010Prop31
280
     0
102
RTVSPost2010PropOp31
 70
     1
102
RTVSPost2010Prop32
280
     0
102
RTVSPost2010PropOp32
 70
     1
102
RTVSPost2010Prop33
280
     0
102
RTVSPost2010PropOp33
 70
     1
102
RTVSPost2010Prop34
280
     0
102
RTVSPost2010PropOp34
 70
     1
102
RTVSPost2010Prop35
280
     0
102
RTVSPost2010PropOp35
 70
     1
102
RTVSPost2010Prop36
280
     0
102
RTVSPost2010PropOp36
 70
     1
102
RTVSPost2010Prop37
 90
       50
102
RTVSPost2010PropOp37
 70
     1
102
RTVSPost2010Prop38
140
0.0
102
RTVSPost2010PropOp38
 70
     1
102
RTVSPost2010Prop39
140
1.0
102
RTVSPost2010PropOp39
 70
     1
102
RTVSPost2010Prop40
 90
        0
102
RTVSPost2010PropOp40
 70
     1
102
RTVSPost2010Prop41ColorIndex
 90
       18
102
RTVSPost2010Prop41ColorRGB
 90
        0
102
RTVSPost2010PropOp41
 70
     1
102
RTVSPost2010Prop42
 90
       50
102
RTVSPost2010PropOp42
 70
     1
102
RTVSPost2010Prop43
 90
        3
102
RTVSPost2010PropOp43
 70
     1
102
RTVSPost2010Prop44ColorIndex
 90
        5
102
RTVSPost2010Prop44ColorRGB
 90
      255
102
RTVSPost2010PropOp44
 70
     1
102
RTVSPost2010Prop45
280
     0
102
RTVSPost2010PropOp45
 70
     1
102
RTVSPost2010Prop46
 90
       50
102
RTVSPost2010PropOp46
 70
     1
102
RTVSPost2010Prop47
 90
       50
102
RTVSPost2010PropOp47
 70
     1
102
RTVSPost2010Prop48
 90
       50
102
RTVSPost2010PropOp48
 70
     1
102
RTVSPost2010Prop49
280
     0
102
RTVSPost2010PropOp49
 70
     1
102
RTVSPost2010Prop50
 90
       50
102
RTVSPost2010PropOp50
 70
     1
102
RTVSPost2010Prop51ColorIndex
 90
      256
102
RTVSPost2010Prop51ColorRGB
 90
-16777216
102
RTVSPost2010PropOp51
 70
     0
102
RTVSPost2010Prop52
140
1.0
102
RTVSPost2010PropOp52
 70
     0
102
RTVSPost2010Prop53
 90
        2
102
RTVSPost2010PropOp53
 70
     1
102
RTVSPost2010Prop54
  1
strokes_ogs.tif
102
RTVSPost2010PropOp54
 70
     1
102
RTVSPost2010Prop55
280
     0
102
RTVSPost2010PropOp55
 70
     1
102
RTVSPost2010Prop56
140
1.0
102
RTVSPost2010PropOp56
 70
     1
102
RTVSPost2010Prop57
140
1.0
102
RTVSPost2010PropOp57
 70
     1
  0
XRECORD
  5
31F
102
{ACAD_REACTORS
330
31E
102
}
330
31E
100
AcDbXrecord
280
     1
102
RTVSPropertyOp0
 70
     1
102
RTVSPropertyOp1
 70
     1
102
RTVSPropertyOp2
 70
     1
102
RTVSPropertyOp3
 70
     1
102
RTVSPropertyOp4
 70
     1
102
RTVSPropertyOp5
 70
     1
102
RTVSPropertyOp6
 70
     1
102
RTVSPropertyOp7
 70
     1
102
RTVSPropertyOp8
 70
     1
102
RTVSPropertyOp9
 70
     1
102
RTVSPropertyOp10
 70
     1
102
RTVSPropertyOp11
 70
     1
102
RTVSPropertyOp12
 70
     1
102
RTVSPropertyOp13
 70
     1
102
RTVSPropertyOp14
 70
     1
102
RTVSPropertyOp15
 70
     1
102
RTVSPropertyOp16
 70
     1
102
RTVSPropertyOp17
 70
     1
102
RTVSPropertyOp18
 70
     1
102
RTVSPropertyOp19
 70
     1
102
RTVSPropertyOp20
 70
     1
102
RTVSPropertyOp21
 70
     1
102
RTVSPropertyOp22
 70
     1
102
RTVSPropertyOp23
 70
     1
102
RTVSPropertyOp24
 70
     1
102
RTVSPropertyOp25
 70
     1
102
RTVSPropertyOp26
 70
     1
102
RTVSPropertyOp27
 70
     1
102
RTVSPropertyOp28
 70
     1
102
RTVSPropertyOp29
 70
     1
102
RTVSPropertyOp30
 70
     1
102
RTVSPropertyOp31
 70
     1
102
RTVSPropertyOp32
 70
     1
102
RTVSPropertyOp33
 70
     1
102
RTVSPropertyOp34
 70
     1
102
RTVSPropertyOp35
 70
     1
102
RTVSPropertyOp36
 70
     1
102
RTVSPropertyOp37
 70
     1
102
RTVSPropertyOp38
 70
     1
102
RTVSPropertyOp39
 70
     1
102
RTVSPropertyOp40
 70
     1
102
RTVSPropertyOp41
 70
     1
102
RTVSPropertyOp42
 70
     1
102
RTVSPropertyOp43
 70
     1
102
RTVSPropertyOp44
 70
     1
102
RTVSPropertyOp45
 70
     1
102
RTVSPropertyOp46
 70
     1
102
RTVSPropertyOp47
 70
     1
102
RTVSPropertyOp48
 70
     1
102
RTVSPropertyOp49
 70
     1
102
RTVSPropertyOp50
 70
     1
102
RTVSPropertyOp51
 70
     0
102
RTVSPropertyOp52
 70
     0
102
RTVSPropertyOp53
 70
     1
102
RTVSPropertyOp54
 70
     1
102
RTVSPropertyOp55
 70
     1
102
RTVSPropertyOp56
 70
     1
102
RTVSPropertyOp57
 70
     1
102
RTVSPost2010Prop28
280
     0
102
RTVSPost2010PropOp28
 70
     1
102
RTVSPost2010Prop29
280
     1
102
RTVSPost2010PropOp29
 70
     1
102
RTVSPost2010Prop30
280
     1
102
RTVSPost2010PropOp30
 70
     1
102
RTVSPost2010Prop31
280
     0
102
RTVSPost2010PropOp31
 70
     1
102
RTVSPost2010Prop32
280
     0
102
RTVSPost2010PropOp32
 70
     1
102
RTVSPost2010Prop33
280
     0
102
RTVSPost2010PropOp33
 70
     1
102
RTVSPost2010Prop34
280
     0
102
RTVSPost2010PropOp34
 70
     1
102
RTVSPost2010Prop35
280
     0
102
RTVSPost2010PropOp35
 70
     1
102
RTVSPost2010Prop36
280
     0
102
RTVSPost2010PropOp36
 70
     1
102
RTVSPost2010Prop37
 90
       50
102
RTVSPost2010PropOp37
 70
     1
102
RTVSPost2010Prop38
140
0.0
102
RTVSPost2010PropOp38
 70
     1
102
RTVSPost2010Prop39
140
1.0
102
RTVSPost2010PropOp39
 70
     1
102
RTVSPost2010Prop40
 90
        0
102
RTVSPost2010PropOp40
 70
     1
102
RTVSPost2010Prop41ColorIndex
 90
       18
102
RTVSPost2010Prop41ColorRGB
 90
        0
102
RTVSPost2010PropOp41
 70
     1
102
RTVSPost2010Prop42
 90
       50
102
RTVSPost2010PropOp42
 70
     1
102
RTVSPost2010Prop43
 90
        3
102
RTVSPost2010PropOp43
 70
     1
102
RTVSPost2010Prop44ColorIndex
 90
        5
102
RTVSPost2010Prop44ColorRGB
 90
      255
102
RTVSPost2010PropOp44
 70
     1
102
RTVSPost2010Prop45
280
     0
102
RTVSPost2010PropOp45
 70
     1
102
RTVSPost2010Prop46
 90
       50
102
RTVSPost2010PropOp46
 70
     1
102
RTVSPost2010Prop47
 90
       50
102
RTVSPost2010PropOp47
 70
     1
102
RTVSPost2010Prop48
 90
       50
102
RTVSPost2010PropOp48
 70
     1
102
RTVSPost2010Prop49
280
     0
102
RTVSPost2010PropOp49
 70
     1
102
RTVSPost2010Prop50
 90
       50
102
RTVSPost2010PropOp50
 70
     1
102
RTVSPost2010Prop51ColorIndex
 90
      256
102
RTVSPost2010Prop51ColorRGB
 90
-16777216
102
RTVSPost2010PropOp51
 70
     0
102
RTVSPost2010Prop52
140
1.0
102
RTVSPost2010PropOp52
 70
     0
102
RTVSPost2010Prop53
 90
        2
102
RTVSPost2010PropOp53
 70
     1
102
RTVSPost2010Prop54
  1
strokes_ogs.tif
102
RTVSPost2010PropOp54
 70
     1
102
RTVSPost2010Prop55
280
     0
102
RTVSPost2010PropOp55
 70
     1
102
RTVSPost2010Prop56
140
1.0
102
RTVSPost2010PropOp56
 70
     1
102
RTVSPost2010Prop57
140
1.0
102
RTVSPost2010PropOp57
 70
     1
  0
XRECORD
  5
333
102
{ACAD_REACTORS
330
332
102
}
330
332
100
AcDbXrecord
280
     1
102
RTVSPropertyOp0
 70
     0
102
RTVSPropertyOp1
 70
     0
102
RTVSPropertyOp2
 70
     0
102
RTVSPropertyOp3
 70
     0
102
RTVSPropertyOp4
 70
     0
102
RTVSPropertyOp5
 70
     0
102
RTVSPropertyOp6
 70
     0
102
RTVSPropertyOp7
 70
     0
102
RTVSPropertyOp8
 70
     0
102
RTVSPropertyOp9
 70
     0
102
RTVSPropertyOp10
 70
     0
102
RTVSPropertyOp11
 70
     0
102
RTVSPropertyOp12
 70
     0
102
RTVSPropertyOp13
 70
     0
102
RTVSPropertyOp14
 70
     2
102
RTVSPropertyOp15
 70
     0
102
RTVSPropertyOp16
 70
     0
102
RTVSPropertyOp17
 70
     0
102
RTVSPropertyOp18
 70
     0
102
RTVSPropertyOp19
 70
     0
102
RTVSPropertyOp20
 70
     0
102
RTVSPropertyOp21
 70
     0
102
RTVSPropertyOp22
 70
     0
102
RTVSPropertyOp23
 70
     0
102
RTVSPropertyOp24
 70
     0
102
RTVSPropertyOp25
 70
     0
102
RTVSPropertyOp26
 70
     0
102
RTVSPropertyOp27
 70
     0
102
RTVSPropertyOp28
 70
     0
102
RTVSPropertyOp29
 70
     0
102
RTVSPropertyOp30
 70
     0
102
RTVSPropertyOp31
 70
     0
102
RTVSPropertyOp32
 70
     0
102
RTVSPropertyOp33
 70
     0
102
RTVSPropertyOp34
 70
     0
102
RTVSPropertyOp35
 70
     0
102
RTVSPropertyOp36
 70
     0
102
RTVSPropertyOp37
 70
     0
102
RTVSPropertyOp38
 70
     0
102
RTVSPropertyOp39
 70
     0
102
RTVSPropertyOp40
 70
     0
102
RTVSPropertyOp41
 70
     0
102
RTVSPropertyOp42
 70
     0
102
RTVSPropertyOp43
 70
     0
102
RTVSPropertyOp44
 70
     0
102
RTVSPropertyOp45
 70
     0
102
RTVSPropertyOp46
 70
     0
102
RTVSPropertyOp47
 70
     0
102
RTVSPropertyOp48
 70
     0
102
RTVSPropertyOp49
 70
     0
102
RTVSPropertyOp50
 70
     0
102
RTVSPropertyOp51
 70
     0
102
RTVSPropertyOp52
 70
     0
102
RTVSPropertyOp53
 70
     0
102
RTVSPropertyOp54
 70
     0
102
RTVSPropertyOp55
 70
     0
102
RTVSPropertyOp56
 70
     0
102
RTVSPropertyOp57
 70
     0
102
RTVSPost2010Prop28
280
     0
102
RTVSPost2010PropOp28
 70
     0
102
RTVSPost2010Prop29
280
     1
102
RTVSPost2010PropOp29
 70
     0
102
RTVSPost2010Prop30
280
     1
102
RTVSPost2010PropOp30
 70
     0
102
RTVSPost2010Prop31
280
     0
102
RTVSPost2010PropOp31
 70
     0
102
RTVSPost2010Prop32
280
     0
102
RTVSPost2010PropOp32
 70
     0
102
RTVSPost2010Prop33
280
     0
102
RTVSPost2010PropOp33
 70
     0
102
RTVSPost2010Prop34
280
     0
102
RTVSPost2010PropOp34
 70
     0
102
RTVSPost2010Prop35
280
     0
102
RTVSPost2010PropOp35
 70
     0
102
RTVSPost2010Prop36
280
     0
102
RTVSPost2010PropOp36
 70
     0
102
RTVSPost2010Prop37
 90
       50
102
RTVSPost2010PropOp37
 70
     0
102
RTVSPost2010Prop38
140
0.0
102
RTVSPost2010PropOp38
 70
     0
102
RTVSPost2010Prop39
140
1.0
102
RTVSPost2010PropOp39
 70
     0
102
RTVSPost2010Prop40
 90
        0
102
RTVSPost2010PropOp40
 70
     0
102
RTVSPost2010Prop41ColorIndex
 90
       18
102
RTVSPost2010Prop41ColorRGB
 90
        0
102
RTVSPost2010PropOp41
 70
     0
102
RTVSPost2010Prop42
 90
       50
102
RTVSPost2010PropOp42
 70
     0
102
RTVSPost2010Prop43
 90
        3
102
RTVSPost2010PropOp43
 70
     0
102
RTVSPost2010Prop44ColorIndex
 90
        5
102
RTVSPost2010Prop44ColorRGB
 90
      255
102
RTVSPost2010PropOp44
 70
     0
102
RTVSPost2010Prop45
280
     0
102
RTVSPost2010PropOp45
 70
     0
102
RTVSPost2010Prop46
 90
       50
102
RTVSPost2010PropOp46
 70
     0
102
RTVSPost2010Prop47
 90
       50
102
RTVSPost2010PropOp47
 70
     0
102
RTVSPost2010Prop48
 90
       50
102
RTVSPost2010PropOp48
 70
     0
102
RTVSPost2010Prop49
280
     0
102
RTVSPost2010PropOp49
 70
     0
102
RTVSPost2010Prop50
 90
       50
102
RTVSPost2010PropOp50
 70
     0
102
RTVSPost2010Prop51ColorIndex
 90
      256
102
RTVSPost2010Prop51ColorRGB
 90
-16777216
102
RTVSPost2010PropOp51
 70
     0
102
RTVSPost2010Prop52
140
1.0
102
RTVSPost2010PropOp52
 70
     0
102
RTVSPost2010Prop53
 90
        2
102
RTVSPost2010PropOp53
 70
     0
102
RTVSPost2010Prop54
  1
strokes_ogs.tif
102
RTVSPost2010PropOp54
 70
     0
102
RTVSPost2010Prop55
280
     0
102
RTVSPost2010PropOp55
 70
     0
102
RTVSPost2010Prop56
140
1.0
102
RTVSPost2010PropOp56
 70
     0
102
RTVSPost2010Prop57
140
1.0
102
RTVSPost2010PropOp57
 70
     0
  0
XRECORD
  5
32D
102
{ACAD_REACTORS
330
32C
102
}
330
32C
100
AcDbXrecord
280
     1
102
RTVSPropertyOp0
 70
     1
102
RTVSPropertyOp1
 70
     1
102
RTVSPropertyOp2
 70
     1
102
RTVSPropertyOp3
 70
     1
102
RTVSPropertyOp4
 70
     1
102
RTVSPropertyOp5
 70
     1
102
RTVSPropertyOp6
 70
     1
102
RTVSPropertyOp7
 70
     1
102
RTVSPropertyOp8
 70
     1
102
RTVSPropertyOp9
 70
     1
102
RTVSPropertyOp10
 70
     1
102
RTVSPropertyOp11
 70
     1
102
RTVSPropertyOp12
 70
     1
102
RTVSPropertyOp13
 70
     1
102
RTVSPropertyOp14
 70
     1
102
RTVSPropertyOp15
 70
     1
102
RTVSPropertyOp16
 70
     1
102
RTVSPropertyOp17
 70
     1
102
RTVSPropertyOp18
 70
     1
102
RTVSPropertyOp19
 70
     1
102
RTVSPropertyOp20
 70
     1
102
RTVSPropertyOp21
 70
     1
102
RTVSPropertyOp22
 70
     1
102
RTVSPropertyOp23
 70
     1
102
RTVSPropertyOp24
 70
     1
102
RTVSPropertyOp25
 70
     1
102
RTVSPropertyOp26
 70
     1
102
RTVSPropertyOp27
 70
     1
102
RTVSPropertyOp28
 70
     1
102
RTVSPropertyOp29
 70
     1
102
RTVSPropertyOp30
 70
     1
102
RTVSPropertyOp31
 70
     1
102
RTVSPropertyOp32
 70
     1
102
RTVSPropertyOp33
 70
     1
102
RTVSPropertyOp34
 70
     1
102
RTVSPropertyOp35
 70
     1
102
RTVSPropertyOp36
 70
     1
102
RTVSPropertyOp37
 70
     1
102
RTVSPropertyOp38
 70
     1
102
RTVSPropertyOp39
 70
     1
102
RTVSPropertyOp40
 70
     1
102
RTVSPropertyOp41
 70
     1
102
RTVSPropertyOp42
 70
     1
102
RTVSPropertyOp43
 70
     1
102
RTVSPropertyOp44
 70
     1
102
RTVSPropertyOp45
 70
     1
102
RTVSPropertyOp46
 70
     1
102
RTVSPropertyOp47
 70
     1
102
RTVSPropertyOp48
 70
     1
102
RTVSPropertyOp49
 70
     1
102
RTVSPropertyOp50
 70
     1
102
RTVSPropertyOp51
 70
     0
102
RTVSPropertyOp52
 70
     0
102
RTVSPropertyOp53
 70
     1
102
RTVSPropertyOp54
 70
     1
102
RTVSPropertyOp55
 70
     1
102
RTVSPropertyOp56
 70
     1
102
RTVSPropertyOp57
 70
     1
102
RTVSPost2010Prop28
280
     0
102
RTVSPost2010PropOp28
 70
     1
102
RTVSPost2010Prop29
280
     1
102
RTVSPost2010PropOp29
 70
     1
102
RTVSPost2010Prop30
280
     1
102
RTVSPost2010PropOp30
 70
     1
102
RTVSPost2010Prop31
280
     0
102
RTVSPost2010PropOp31
 70
     1
102
RTVSPost2010Prop32
280
     0
102
RTVSPost2010PropOp32
 70
     1
102
RTVSPost2010Prop33
280
     0
102
RTVSPost2010PropOp33
 70
     1
102
RTVSPost2010Prop34
280
     0
102
RTVSPost2010PropOp34
 70
     1
102
RTVSPost2010Prop35
280
     0
102
RTVSPost2010PropOp35
 70
     1
102
RTVSPost2010Prop36
280
     0
102
RTVSPost2010PropOp36
 70
     1
102
RTVSPost2010Prop37
 90
       50
102
RTVSPost2010PropOp37
 70
     1
102
RTVSPost2010Prop38
140
0.0
102
RTVSPost2010PropOp38
 70
     1
102
RTVSPost2010Prop39
140
1.0
102
RTVSPost2010PropOp39
 70
     1
102
RTVSPost2010Prop40
 90
        0
102
RTVSPost2010PropOp40
 70
     1
102
RTVSPost2010Prop41ColorIndex
 90
       18
102
RTVSPost2010Prop41ColorRGB
 90
        0
102
RTVSPost2010PropOp41
 70
     1
102
RTVSPost2010Prop42
 90
       50
102
RTVSPost2010PropOp42
 70
     1
102
RTVSPost2010Prop43
 90
        3
102
RTVSPost2010PropOp43
 70
     1
102
RTVSPost2010Prop44ColorIndex
 90
        5
102
RTVSPost2010Prop44ColorRGB
 90
      255
102
RTVSPost2010PropOp44
 70
     1
102
RTVSPost2010Prop45
280
     0
102
RTVSPost2010PropOp45
 70
     1
102
RTVSPost2010Prop46
 90
       50
102
RTVSPost2010PropOp46
 70
     1
102
RTVSPost2010Prop47
 90
       50
102
RTVSPost2010PropOp47
 70
     1
102
RTVSPost2010Prop48
 90
       50
102
RTVSPost2010PropOp48
 70
     1
102
RTVSPost2010Prop49
280
     0
102
RTVSPost2010PropOp49
 70
     1
102
RTVSPost2010Prop50
 90
       50
102
RTVSPost2010PropOp50
 70
     1
102
RTVSPost2010Prop51ColorIndex
 90
      256
102
RTVSPost2010Prop51ColorRGB
 90
-16777216
102
RTVSPost2010PropOp51
 70
     0
102
RTVSPost2010Prop52
140
1.0
102
RTVSPost2010PropOp52
 70
     0
102
RTVSPost2010Prop53
 90
        2
102
RTVSPost2010PropOp53
 70
     1
102
RTVSPost2010Prop54
  1
strokes_ogs.tif
102
RTVSPost2010PropOp54
 70
     1
102
RTVSPost2010Prop55
280
     0
102
RTVSPost2010PropOp55
 70
     1
102
RTVSPost2010Prop56
140
1.0
102
RTVSPost2010PropOp56
 70
     1
102
RTVSPost2010Prop57
140
1.0
102
RTVSPost2010PropOp57
 70
     1
  0
XRECORD
  5
335
102
{ACAD_REACTORS
330
334
102
}
330
334
100
AcDbXrecord
280
     1
102
RTVSPropertyOp0
 70
     0
102
RTVSPropertyOp1
 70
     0
102
RTVSPropertyOp2
 70
     0
102
RTVSPropertyOp3
 70
     0
102
RTVSPropertyOp4
 70
     0
102
RTVSPropertyOp5
 70
     0
102
RTVSPropertyOp6
 70
     0
102
RTVSPropertyOp7
 70
     0
102
RTVSPropertyOp8
 70
     0
102
RTVSPropertyOp9
 70
     0
102
RTVSPropertyOp10
 70
     0
102
RTVSPropertyOp11
 70
     0
102
RTVSPropertyOp12
 70
     0
102
RTVSPropertyOp13
 70
     0
102
RTVSPropertyOp14
 70
     2
102
RTVSPropertyOp15
 70
     0
102
RTVSPropertyOp16
 70
     0
102
RTVSPropertyOp17
 70
     0
102
RTVSPropertyOp18
 70
     0
102
RTVSPropertyOp19
 70
     0
102
RTVSPropertyOp20
 70
     0
102
RTVSPropertyOp21
 70
     0
102
RTVSPropertyOp22
 70
     0
102
RTVSPropertyOp23
 70
     0
102
RTVSPropertyOp24
 70
     0
102
RTVSPropertyOp25
 70
     0
102
RTVSPropertyOp26
 70
     0
102
RTVSPropertyOp27
 70
     0
102
RTVSPropertyOp28
 70
     0
102
RTVSPropertyOp29
 70
     0
102
RTVSPropertyOp30
 70
     0
102
RTVSPropertyOp31
 70
     0
102
RTVSPropertyOp32
 70
     0
102
RTVSPropertyOp33
 70
     0
102
RTVSPropertyOp34
 70
     0
102
RTVSPropertyOp35
 70
     0
102
RTVSPropertyOp36
 70
     0
102
RTVSPropertyOp37
 70
     0
102
RTVSPropertyOp38
 70
     0
102
RTVSPropertyOp39
 70
     0
102
RTVSPropertyOp40
 70
     0
102
RTVSPropertyOp41
 70
     0
102
RTVSPropertyOp42
 70
     0
102
RTVSPropertyOp43
 70
     0
102
RTVSPropertyOp44
 70
     0
102
RTVSPropertyOp45
 70
     0
102
RTVSPropertyOp46
 70
     0
102
RTVSPropertyOp47
 70
     0
102
RTVSPropertyOp48
 70
     0
102
RTVSPropertyOp49
 70
     0
102
RTVSPropertyOp50
 70
     0
102
RTVSPropertyOp51
 70
     0
102
RTVSPropertyOp52
 70
     0
102
RTVSPropertyOp53
 70
     0
102
RTVSPropertyOp54
 70
     0
102
RTVSPropertyOp55
 70
     0
102
RTVSPropertyOp56
 70
     0
102
RTVSPropertyOp57
 70
     0
102
RTVSPost2010Prop28
280
     0
102
RTVSPost2010PropOp28
 70
     0
102
RTVSPost2010Prop29
280
     1
102
RTVSPost2010PropOp29
 70
     0
102
RTVSPost2010Prop30
280
     1
102
RTVSPost2010PropOp30
 70
     0
102
RTVSPost2010Prop31
280
     0
102
RTVSPost2010PropOp31
 70
     0
102
RTVSPost2010Prop32
280
     0
102
RTVSPost2010PropOp32
 70
     0
102
RTVSPost2010Prop33
280
     0
102
RTVSPost2010PropOp33
 70
     0
102
RTVSPost2010Prop34
280
     0
102
RTVSPost2010PropOp34
 70
     0
102
RTVSPost2010Prop35
280
     0
102
RTVSPost2010PropOp35
 70
     0
102
RTVSPost2010Prop36
280
     0
102
RTVSPost2010PropOp36
 70
     0
102
RTVSPost2010Prop37
 90
       50
102
RTVSPost2010PropOp37
 70
     0
102
RTVSPost2010Prop38
140
0.0
102
RTVSPost2010PropOp38
 70
     0
102
RTVSPost2010Prop39
140
1.0
102
RTVSPost2010PropOp39
 70
     0
102
RTVSPost2010Prop40
 90
        0
102
RTVSPost2010PropOp40
 70
     0
102
RTVSPost2010Prop41ColorIndex
 90
       18
102
RTVSPost2010Prop41ColorRGB
 90
        0
102
RTVSPost2010PropOp41
 70
     0
102
RTVSPost2010Prop42
 90
       50
102
RTVSPost2010PropOp42
 70
     0
102
RTVSPost2010Prop43
 90
        3
102
RTVSPost2010PropOp43
 70
     0
102
RTVSPost2010Prop44ColorIndex
 90
        5
102
RTVSPost2010Prop44ColorRGB
 90
      255
102
RTVSPost2010PropOp44
 70
     0
102
RTVSPost2010Prop45
280
     0
102
RTVSPost2010PropOp45
 70
     0
102
RTVSPost2010Prop46
 90
       50
102
RTVSPost2010PropOp46
 70
     0
102
RTVSPost2010Prop47
 90
       50
102
RTVSPost2010PropOp47
 70
     0
102
RTVSPost2010Prop48
 90
       50
102
RTVSPost2010PropOp48
 70
     0
102
RTVSPost2010Prop49
280
     0
102
RTVSPost2010PropOp49
 70
     0
102
RTVSPost2010Prop50
 90
       50
102
RTVSPost2010PropOp50
 70
     0
102
RTVSPost2010Prop51ColorIndex
 90
      256
102
RTVSPost2010Prop51ColorRGB
 90
-16777216
102
RTVSPost2010PropOp51
 70
     0
102
RTVSPost2010Prop52
140
1.0
102
RTVSPost2010PropOp52
 70
     0
102
RTVSPost2010Prop53
 90
        2
102
RTVSPost2010PropOp53
 70
     0
102
RTVSPost2010Prop54
  1
strokes_ogs.tif
102
RTVSPost2010PropOp54
 70
     0
102
RTVSPost2010Prop55
280
     0
102
RTVSPost2010PropOp55
 70
     0
102
RTVSPost2010Prop56
140
1.0
102
RTVSPost2010PropOp56
 70
     0
102
RTVSPost2010Prop57
140
1.0
102
RTVSPost2010PropOp57
 70
     0
  0
XRECORD
  5
323
102
{ACAD_REACTORS
330
322
102
}
330
322
100
AcDbXrecord
280
     1
102
RTVSPropertyOp0
 70
     1
102
RTVSPropertyOp1
 70
     1
102
RTVSPropertyOp2
 70
     1
102
RTVSPropertyOp3
 70
     1
102
RTVSPropertyOp4
 70
     1
102
RTVSPropertyOp5
 70
     1
102
RTVSPropertyOp6
 70
     1
102
RTVSPropertyOp7
 70
     1
102
RTVSPropertyOp8
 70
     1
102
RTVSPropertyOp9
 70
     1
102
RTVSPropertyOp10
 70
     1
102
RTVSPropertyOp11
 70
     1
102
RTVSPropertyOp12
 70
     1
102
RTVSPropertyOp13
 70
     1
102
RTVSPropertyOp14
 70
     1
102
RTVSPropertyOp15
 70
     1
102
RTVSPropertyOp16
 70
     1
102
RTVSPropertyOp17
 70
     1
102
RTVSPropertyOp18
 70
     1
102
RTVSPropertyOp19
 70
     1
102
RTVSPropertyOp20
 70
     1
102
RTVSPropertyOp21
 70
     1
102
RTVSPropertyOp22
 70
     1
102
RTVSPropertyOp23
 70
     1
102
RTVSPropertyOp24
 70
     1
102
RTVSPropertyOp25
 70
     1
102
RTVSPropertyOp26
 70
     1
102
RTVSPropertyOp27
 70
     1
102
RTVSPropertyOp28
 70
     1
102
RTVSPropertyOp29
 70
     1
102
RTVSPropertyOp30
 70
     1
102
RTVSPropertyOp31
 70
     1
102
RTVSPropertyOp32
 70
     1
102
RTVSPropertyOp33
 70
     1
102
RTVSPropertyOp34
 70
     1
102
RTVSPropertyOp35
 70
     1
102
RTVSPropertyOp36
 70
     1
102
RTVSPropertyOp37
 70
     1
102
RTVSPropertyOp38
 70
     1
102
RTVSPropertyOp39
 70
     1
102
RTVSPropertyOp40
 70
     1
102
RTVSPropertyOp41
 70
     1
102
RTVSPropertyOp42
 70
     1
102
RTVSPropertyOp43
 70
     1
102
RTVSPropertyOp44
 70
     1
102
RTVSPropertyOp45
 70
     1
102
RTVSPropertyOp46
 70
     1
102
RTVSPropertyOp47
 70
     1
102
RTVSPropertyOp48
 70
     1
102
RTVSPropertyOp49
 70
     1
102
RTVSPropertyOp50
 70
     1
102
RTVSPropertyOp51
 70
     0
102
RTVSPropertyOp52
 70
     0
102
RTVSPropertyOp53
 70
     1
102
RTVSPropertyOp54
 70
     1
102
RTVSPropertyOp55
 70
     1
102
RTVSPropertyOp56
 70
     1
102
RTVSPropertyOp57
 70
     1
102
RTVSPost2010Prop28
280
     0
102
RTVSPost2010PropOp28
 70
     1
102
RTVSPost2010Prop29
280
     1
102
RTVSPost2010PropOp29
 70
     1
102
RTVSPost2010Prop30
280
     1
102
RTVSPost2010PropOp30
 70
     1
102
RTVSPost2010Prop31
280
     0
102
RTVSPost2010PropOp31
 70
     1
102
RTVSPost2010Prop32
280
     0
102
RTVSPost2010PropOp32
 70
     1
102
RTVSPost2010Prop33
280
     0
102
RTVSPost2010PropOp33
 70
     1
102
RTVSPost2010Prop34
280
     0
102
RTVSPost2010PropOp34
 70
     1
102
RTVSPost2010Prop35
280
     0
102
RTVSPost2010PropOp35
 70
     1
102
RTVSPost2010Prop36
280
     0
102
RTVSPost2010PropOp36
 70
     1
102
RTVSPost2010Prop37
 90
       50
102
RTVSPost2010PropOp37
 70
     1
102
RTVSPost2010Prop38
140
0.0
102
RTVSPost2010PropOp38
 70
     1
102
RTVSPost2010Prop39
140
1.0
102
RTVSPost2010PropOp39
 70
     1
102
RTVSPost2010Prop40
 90
        0
102
RTVSPost2010PropOp40
 70
     1
102
RTVSPost2010Prop41ColorIndex
 90
       18
102
RTVSPost2010Prop41ColorRGB
 90
        0
102
RTVSPost2010PropOp41
 70
     1
102
RTVSPost2010Prop42
 90
       50
102
RTVSPost2010PropOp42
 70
     1
102
RTVSPost2010Prop43
 90
        3
102
RTVSPost2010PropOp43
 70
     1
102
RTVSPost2010Prop44ColorIndex
 90
        5
102
RTVSPost2010Prop44ColorRGB
 90
      255
102
RTVSPost2010PropOp44
 70
     1
102
RTVSPost2010Prop45
280
     0
102
RTVSPost2010PropOp45
 70
     1
102
RTVSPost2010Prop46
 90
       50
102
RTVSPost2010PropOp46
 70
     1
102
RTVSPost2010Prop47
 90
       50
102
RTVSPost2010PropOp47
 70
     1
102
RTVSPost2010Prop48
 90
       50
102
RTVSPost2010PropOp48
 70
     1
102
RTVSPost2010Prop49
280
     0
102
RTVSPost2010PropOp49
 70
     1
102
RTVSPost2010Prop50
 90
       50
102
RTVSPost2010PropOp50
 70
     1
102
RTVSPost2010Prop51ColorIndex
 90
      256
102
RTVSPost2010Prop51ColorRGB
 90
-16777216
102
RTVSPost2010PropOp51
 70
     0
102
RTVSPost2010Prop52
140
1.0
102
RTVSPost2010PropOp52
 70
     0
102
RTVSPost2010Prop53
 90
        2
102
RTVSPost2010PropOp53
 70
     1
102
RTVSPost2010Prop54
  1
strokes_ogs.tif
102
RTVSPost2010PropOp54
 70
     1
102
RTVSPost2010Prop55
280
     0
102
RTVSPost2010PropOp55
 70
     1
102
RTVSPost2010Prop56
140
1.0
102
RTVSPost2010PropOp56
 70
     1
102
RTVSPost2010Prop57
140
1.0
102
RTVSPost2010PropOp57
 70
     1
  0
XRECORD
  5
341
102
{ACAD_REACTORS
330
340
102
}
330
340
100
AcDbXrecord
280
     1
102
RTVSPropertyOp0
 70
     1
102
RTVSPropertyOp1
 70
     1
102
RTVSPropertyOp2
 70
     1
102
RTVSPropertyOp3
 70
     1
102
RTVSPropertyOp4
 70
     1
102
RTVSPropertyOp5
 70
     1
102
RTVSPropertyOp6
 70
     1
102
RTVSPropertyOp7
 70
     1
102
RTVSPropertyOp8
 70
     1
102
RTVSPropertyOp9
 70
     1
102
RTVSPropertyOp10
 70
     1
102
RTVSPropertyOp11
 70
     1
102
RTVSPropertyOp12
 70
     1
102
RTVSPropertyOp13
 70
     1
102
RTVSPropertyOp14
 70
     1
102
RTVSPropertyOp15
 70
     1
102
RTVSPropertyOp16
 70
     1
102
RTVSPropertyOp17
 70
     1
102
RTVSPropertyOp18
 70
     1
102
RTVSPropertyOp19
 70
     1
102
RTVSPropertyOp20
 70
     1
102
RTVSPropertyOp21
 70
     1
102
RTVSPropertyOp22
 70
     1
102
RTVSPropertyOp23
 70
     1
102
RTVSPropertyOp24
 70
     1
102
RTVSPropertyOp25
 70
     1
102
RTVSPropertyOp26
 70
     1
102
RTVSPropertyOp27
 70
     1
102
RTVSPropertyOp28
 70
     1
102
RTVSPropertyOp29
 70
     1
102
RTVSPropertyOp30
 70
     1
102
RTVSPropertyOp31
 70
     1
102
RTVSPropertyOp32
 70
     1
102
RTVSPropertyOp33
 70
     1
102
RTVSPropertyOp34
 70
     1
102
RTVSPropertyOp35
 70
     1
102
RTVSPropertyOp36
 70
     1
102
RTVSPropertyOp37
 70
     1
102
RTVSPropertyOp38
 70
     1
102
RTVSPropertyOp39
 70
     1
102
RTVSPropertyOp40
 70
     1
102
RTVSPropertyOp41
 70
     1
102
RTVSPropertyOp42
 70
     1
102
RTVSPropertyOp43
 70
     1
102
RTVSPropertyOp44
 70
     1
102
RTVSPropertyOp45
 70
     1
102
RTVSPropertyOp46
 70
     1
102
RTVSPropertyOp47
 70
     1
102
RTVSPropertyOp48
 70
     1
102
RTVSPropertyOp49
 70
     1
102
RTVSPropertyOp50
 70
     1
102
RTVSPropertyOp51
 70
     0
102
RTVSPropertyOp52
 70
     0
102
RTVSPropertyOp53
 70
     1
102
RTVSPropertyOp54
 70
     1
102
RTVSPropertyOp55
 70
     1
102
RTVSPropertyOp56
 70
     1
102
RTVSPropertyOp57
 70
     1
102
RTVSPost2010Prop28
280
     0
102
RTVSPost2010PropOp28
 70
     1
102
RTVSPost2010Prop29
280
     1
102
RTVSPost2010PropOp29
 70
     1
102
RTVSPost2010Prop30
280
     1
102
RTVSPost2010PropOp30
 70
     1
102
RTVSPost2010Prop31
280
     0
102
RTVSPost2010PropOp31
 70
     1
102
RTVSPost2010Prop32
280
     0
102
RTVSPost2010PropOp32
 70
     1
102
RTVSPost2010Prop33
280
     0
102
RTVSPost2010PropOp33
 70
     1
102
RTVSPost2010Prop34
280
     0
102
RTVSPost2010PropOp34
 70
     1
102
RTVSPost2010Prop35
280
     0
102
RTVSPost2010PropOp35
 70
     1
102
RTVSPost2010Prop36
280
     0
102
RTVSPost2010PropOp36
 70
     1
102
RTVSPost2010Prop37
 90
       50
102
RTVSPost2010PropOp37
 70
     1
102
RTVSPost2010Prop38
140
0.0
102
RTVSPost2010PropOp38
 70
     1
102
RTVSPost2010Prop39
140
1.0
102
RTVSPost2010PropOp39
 70
     1
102
RTVSPost2010Prop40
 90
        0
102
RTVSPost2010PropOp40
 70
     1
102
RTVSPost2010Prop41ColorIndex
 90
       18
102
RTVSPost2010Prop41ColorRGB
 90
        0
102
RTVSPost2010PropOp41
 70
     1
102
RTVSPost2010Prop42
 90
       50
102
RTVSPost2010PropOp42
 70
     1
102
RTVSPost2010Prop43
 90
        3
102
RTVSPost2010PropOp43
 70
     1
102
RTVSPost2010Prop44ColorIndex
 90
        5
102
RTVSPost2010Prop44ColorRGB
 90
      255
102
RTVSPost2010PropOp44
 70
     1
102
RTVSPost2010Prop45
280
     0
102
RTVSPost2010PropOp45
 70
     1
102
RTVSPost2010Prop46
 90
       50
102
RTVSPost2010PropOp46
 70
     1
102
RTVSPost2010Prop47
 90
       50
102
RTVSPost2010PropOp47
 70
     1
102
RTVSPost2010Prop48
 90
       50
102
RTVSPost2010PropOp48
 70
     1
102
RTVSPost2010Prop49
280
     0
102
RTVSPost2010PropOp49
 70
     1
102
RTVSPost2010Prop50
 90
       50
102
RTVSPost2010PropOp50
 70
     1
102
RTVSPost2010Prop51ColorIndex
 90
      256
102
RTVSPost2010Prop51ColorRGB
 90
-16777216
102
RTVSPost2010PropOp51
 70
     0
102
RTVSPost2010Prop52
140
1.0
102
RTVSPost2010PropOp52
 70
     0
102
RTVSPost2010Prop53
 90
        2
102
RTVSPost2010PropOp53
 70
     1
102
RTVSPost2010Prop54
  1
strokes_ogs.tif
102
RTVSPost2010PropOp54
 70
     1
102
RTVSPost2010Prop55
280
     0
102
RTVSPost2010PropOp55
 70
     1
102
RTVSPost2010Prop56
140
1.0
102
RTVSPost2010PropOp56
 70
     1
102
RTVSPost2010Prop57
140
1.0
102
RTVSPost2010PropOp57
 70
     1
  0
XRECORD
  5
33F
102
{ACAD_REACTORS
330
33E
102
}
330
33E
100
AcDbXrecord
280
     1
102
RTVSPropertyOp0
 70
     1
102
RTVSPropertyOp1
 70
     1
102
RTVSPropertyOp2
 70
     1
102
RTVSPropertyOp3
 70
     1
102
RTVSPropertyOp4
 70
     1
102
RTVSPropertyOp5
 70
     1
102
RTVSPropertyOp6
 70
     1
102
RTVSPropertyOp7
 70
     1
102
RTVSPropertyOp8
 70
     1
102
RTVSPropertyOp9
 70
     1
102
RTVSPropertyOp10
 70
     1
102
RTVSPropertyOp11
 70
     1
102
RTVSPropertyOp12
 70
     1
102
RTVSPropertyOp13
 70
     1
102
RTVSPropertyOp14
 70
     1
102
RTVSPropertyOp15
 70
     1
102
RTVSPropertyOp16
 70
     1
102
RTVSPropertyOp17
 70
     1
102
RTVSPropertyOp18
 70
     1
102
RTVSPropertyOp19
 70
     1
102
RTVSPropertyOp20
 70
     1
102
RTVSPropertyOp21
 70
     1
102
RTVSPropertyOp22
 70
     1
102
RTVSPropertyOp23
 70
     1
102
RTVSPropertyOp24
 70
     1
102
RTVSPropertyOp25
 70
     1
102
RTVSPropertyOp26
 70
     1
102
RTVSPropertyOp27
 70
     1
102
RTVSPropertyOp28
 70
     1
102
RTVSPropertyOp29
 70
     1
102
RTVSPropertyOp30
 70
     1
102
RTVSPropertyOp31
 70
     1
102
RTVSPropertyOp32
 70
     1
102
RTVSPropertyOp33
 70
     1
102
RTVSPropertyOp34
 70
     1
102
RTVSPropertyOp35
 70
     1
102
RTVSPropertyOp36
 70
     1
102
RTVSPropertyOp37
 70
     1
102
RTVSPropertyOp38
 70
     1
102
RTVSPropertyOp39
 70
     1
102
RTVSPropertyOp40
 70
     1
102
RTVSPropertyOp41
 70
     1
102
RTVSPropertyOp42
 70
     1
102
RTVSPropertyOp43
 70
     1
102
RTVSPropertyOp44
 70
     1
102
RTVSPropertyOp45
 70
     1
102
RTVSPropertyOp46
 70
     1
102
RTVSPropertyOp47
 70
     1
102
RTVSPropertyOp48
 70
     1
102
RTVSPropertyOp49
 70
     1
102
RTVSPropertyOp50
 70
     1
102
RTVSPropertyOp51
 70
     0
102
RTVSPropertyOp52
 70
     0
102
RTVSPropertyOp53
 70
     1
102
RTVSPropertyOp54
 70
     1
102
RTVSPropertyOp55
 70
     1
102
RTVSPropertyOp56
 70
     1
102
RTVSPropertyOp57
 70
     1
102
RTVSPost2010Prop28
280
     0
102
RTVSPost2010PropOp28
 70
     1
102
RTVSPost2010Prop29
280
     1
102
RTVSPost2010PropOp29
 70
     1
102
RTVSPost2010Prop30
280
     1
102
RTVSPost2010PropOp30
 70
     1
102
RTVSPost2010Prop31
280
     0
102
RTVSPost2010PropOp31
 70
     1
102
RTVSPost2010Prop32
280
     0
102
RTVSPost2010PropOp32
 70
     1
102
RTVSPost2010Prop33
280
     0
102
RTVSPost2010PropOp33
 70
     1
102
RTVSPost2010Prop34
280
     0
102
RTVSPost2010PropOp34
 70
     1
102
RTVSPost2010Prop35
280
     0
102
RTVSPost2010PropOp35
 70
     1
102
RTVSPost2010Prop36
280
     0
102
RTVSPost2010PropOp36
 70
     1
102
RTVSPost2010Prop37
 90
       50
102
RTVSPost2010PropOp37
 70
     1
102
RTVSPost2010Prop38
140
0.0
102
RTVSPost2010PropOp38
 70
     1
102
RTVSPost2010Prop39
140
1.0
102
RTVSPost2010PropOp39
 70
     1
102
RTVSPost2010Prop40
 90
        0
102
RTVSPost2010PropOp40
 70
     1
102
RTVSPost2010Prop41ColorIndex
 90
       18
102
RTVSPost2010Prop41ColorRGB
 90
        0
102
RTVSPost2010PropOp41
 70
     1
102
RTVSPost2010Prop42
 90
       50
102
RTVSPost2010PropOp42
 70
     1
102
RTVSPost2010Prop43
 90
        3
102
RTVSPost2010PropOp43
 70
     1
102
RTVSPost2010Prop44ColorIndex
 90
        5
102
RTVSPost2010Prop44ColorRGB
 90
      255
102
RTVSPost2010PropOp44
 70
     1
102
RTVSPost2010Prop45
280
     0
102
RTVSPost2010PropOp45
 70
     1
102
RTVSPost2010Prop46
 90
       50
102
RTVSPost2010PropOp46
 70
     1
102
RTVSPost2010Prop47
 90
       50
102
RTVSPost2010PropOp47
 70
     1
102
RTVSPost2010Prop48
 90
       50
102
RTVSPost2010PropOp48
 70
     1
102
RTVSPost2010Prop49
280
     0
102
RTVSPost2010PropOp49
 70
     1
102
RTVSPost2010Prop50
 90
       50
102
RTVSPost2010PropOp50
 70
     1
102
RTVSPost2010Prop51ColorIndex
 90
      256
102
RTVSPost2010Prop51ColorRGB
 90
-16777216
102
RTVSPost2010PropOp51
 70
     0
102
RTVSPost2010Prop52
140
1.0
102
RTVSPost2010PropOp52
 70
     0
102
RTVSPost2010Prop53
 90
        2
102
RTVSPost2010PropOp53
 70
     1
102
RTVSPost2010Prop54
  1
strokes_ogs.tif
102
RTVSPost2010PropOp54
 70
     1
102
RTVSPost2010Prop55
280
     0
102
RTVSPost2010PropOp55
 70
     1
102
RTVSPost2010Prop56
140
1.0
102
RTVSPost2010PropOp56
 70
     1
102
RTVSPost2010Prop57
140
1.0
102
RTVSPost2010PropOp57
 70
     1
  0
XRECORD
  5
339
102
{ACAD_REACTORS
330
338
102
}
330
338
100
AcDbXrecord
280
     1
102
RTVSPropertyOp0
 70
     1
102
RTVSPropertyOp1
 70
     1
102
RTVSPropertyOp2
 70
     1
102
RTVSPropertyOp3
 70
     1
102
RTVSPropertyOp4
 70
     1
102
RTVSPropertyOp5
 70
     1
102
RTVSPropertyOp6
 70
     1
102
RTVSPropertyOp7
 70
     1
102
RTVSPropertyOp8
 70
     1
102
RTVSPropertyOp9
 70
     1
102
RTVSPropertyOp10
 70
     1
102
RTVSPropertyOp11
 70
     1
102
RTVSPropertyOp12
 70
     1
102
RTVSPropertyOp13
 70
     1
102
RTVSPropertyOp14
 70
     1
102
RTVSPropertyOp15
 70
     1
102
RTVSPropertyOp16
 70
     1
102
RTVSPropertyOp17
 70
     1
102
RTVSPropertyOp18
 70
     1
102
RTVSPropertyOp19
 70
     1
102
RTVSPropertyOp20
 70
     1
102
RTVSPropertyOp21
 70
     1
102
RTVSPropertyOp22
 70
     1
102
RTVSPropertyOp23
 70
     1
102
RTVSPropertyOp24
 70
     1
102
RTVSPropertyOp25
 70
     1
102
RTVSPropertyOp26
 70
     1
102
RTVSPropertyOp27
 70
     1
102
RTVSPropertyOp28
 70
     1
102
RTVSPropertyOp29
 70
     1
102
RTVSPropertyOp30
 70
     1
102
RTVSPropertyOp31
 70
     1
102
RTVSPropertyOp32
 70
     1
102
RTVSPropertyOp33
 70
     1
102
RTVSPropertyOp34
 70
     1
102
RTVSPropertyOp35
 70
     1
102
RTVSPropertyOp36
 70
     1
102
RTVSPropertyOp37
 70
     1
102
RTVSPropertyOp38
 70
     1
102
RTVSPropertyOp39
 70
     1
102
RTVSPropertyOp40
 70
     1
102
RTVSPropertyOp41
 70
     1
102
RTVSPropertyOp42
 70
     1
102
RTVSPropertyOp43
 70
     1
102
RTVSPropertyOp44
 70
     1
102
RTVSPropertyOp45
 70
     1
102
RTVSPropertyOp46
 70
     1
102
RTVSPropertyOp47
 70
     1
102
RTVSPropertyOp48
 70
     1
102
RTVSPropertyOp49
 70
     1
102
RTVSPropertyOp50
 70
     1
102
RTVSPropertyOp51
 70
     0
102
RTVSPropertyOp52
 70
     0
102
RTVSPropertyOp53
 70
     1
102
RTVSPropertyOp54
 70
     1
102
RTVSPropertyOp55
 70
     1
102
RTVSPropertyOp56
 70
     1
102
RTVSPropertyOp57
 70
     1
102
RTVSPost2010Prop28
280
     0
102
RTVSPost2010PropOp28
 70
     1
102
RTVSPost2010Prop29
280
     1
102
RTVSPost2010PropOp29
 70
     1
102
RTVSPost2010Prop30
280
     1
102
RTVSPost2010PropOp30
 70
     1
102
RTVSPost2010Prop31
280
     0
102
RTVSPost2010PropOp31
 70
     1
102
RTVSPost2010Prop32
280
     0
102
RTVSPost2010PropOp32
 70
     1
102
RTVSPost2010Prop33
280
     0
102
RTVSPost2010PropOp33
 70
     1
102
RTVSPost2010Prop34
280
     0
102
RTVSPost2010PropOp34
 70
     1
102
RTVSPost2010Prop35
280
     0
102
RTVSPost2010PropOp35
 70
     1
102
RTVSPost2010Prop36
280
     0
102
RTVSPost2010PropOp36
 70
     1
102
RTVSPost2010Prop37
 90
       50
102
RTVSPost2010PropOp37
 70
     1
102
RTVSPost2010Prop38
140
0.0
102
RTVSPost2010PropOp38
 70
     1
102
RTVSPost2010Prop39
140
1.0
102
RTVSPost2010PropOp39
 70
     1
102
RTVSPost2010Prop40
 90
        0
102
RTVSPost2010PropOp40
 70
     1
102
RTVSPost2010Prop41ColorIndex
 90
       18
102
RTVSPost2010Prop41ColorRGB
 90
        0
102
RTVSPost2010PropOp41
 70
     1
102
RTVSPost2010Prop42
 90
       50
102
RTVSPost2010PropOp42
 70
     1
102
RTVSPost2010Prop43
 90
        3
102
RTVSPost2010PropOp43
 70
     1
102
RTVSPost2010Prop44ColorIndex
 90
        5
102
RTVSPost2010Prop44ColorRGB
 90
      255
102
RTVSPost2010PropOp44
 70
     1
102
RTVSPost2010Prop45
280
     0
102
RTVSPost2010PropOp45
 70
     1
102
RTVSPost2010Prop46
 90
       50
102
RTVSPost2010PropOp46
 70
     1
102
RTVSPost2010Prop47
 90
       50
102
RTVSPost2010PropOp47
 70
     1
102
RTVSPost2010Prop48
 90
       50
102
RTVSPost2010PropOp48
 70
     1
102
RTVSPost2010Prop49
280
     0
102
RTVSPost2010PropOp49
 70
     1
102
RTVSPost2010Prop50
 90
       50
102
RTVSPost2010PropOp50
 70
     1
102
RTVSPost2010Prop51ColorIndex
 90
      256
102
RTVSPost2010Prop51ColorRGB
 90
-16777216
102
RTVSPost2010PropOp51
 70
     0
102
RTVSPost2010Prop52
140
1.0
102
RTVSPost2010PropOp52
 70
     0
102
RTVSPost2010Prop53
 90
        2
102
RTVSPost2010PropOp53
 70
     1
102
RTVSPost2010Prop54
  1
strokes_ogs.tif
102
RTVSPost2010PropOp54
 70
     1
102
RTVSPost2010Prop55
280
     0
102
RTVSPost2010PropOp55
 70
     1
102
RTVSPost2010Prop56
140
1.0
102
RTVSPost2010PropOp56
 70
     1
102
RTVSPost2010Prop57
140
1.0
102
RTVSPost2010PropOp57
 70
     1
  0
XRECORD
  5
33B
102
{ACAD_REACTORS
330
33A
102
}
330
33A
100
AcDbXrecord
280
     1
102
RTVSPropertyOp0
 70
     1
102
RTVSPropertyOp1
 70
     1
102
RTVSPropertyOp2
 70
     1
102
RTVSPropertyOp3
 70
     1
102
RTVSPropertyOp4
 70
     1
102
RTVSPropertyOp5
 70
     1
102
RTVSPropertyOp6
 70
     1
102
RTVSPropertyOp7
 70
     1
102
RTVSPropertyOp8
 70
     1
102
RTVSPropertyOp9
 70
     1
102
RTVSPropertyOp10
 70
     1
102
RTVSPropertyOp11
 70
     1
102
RTVSPropertyOp12
 70
     1
102
RTVSPropertyOp13
 70
     1
102
RTVSPropertyOp14
 70
     1
102
RTVSPropertyOp15
 70
     1
102
RTVSPropertyOp16
 70
     1
102
RTVSPropertyOp17
 70
     1
102
RTVSPropertyOp18
 70
     1
102
RTVSPropertyOp19
 70
     1
102
RTVSPropertyOp20
 70
     1
102
RTVSPropertyOp21
 70
     1
102
RTVSPropertyOp22
 70
     1
102
RTVSPropertyOp23
 70
     1
102
RTVSPropertyOp24
 70
     1
102
RTVSPropertyOp25
 70
     1
102
RTVSPropertyOp26
 70
     1
102
RTVSPropertyOp27
 70
     1
102
RTVSPropertyOp28
 70
     1
102
RTVSPropertyOp29
 70
     1
102
RTVSPropertyOp30
 70
     1
102
RTVSPropertyOp31
 70
     1
102
RTVSPropertyOp32
 70
     1
102
RTVSPropertyOp33
 70
     1
102
RTVSPropertyOp34
 70
     1
102
RTVSPropertyOp35
 70
     1
102
RTVSPropertyOp36
 70
     1
102
RTVSPropertyOp37
 70
     1
102
RTVSPropertyOp38
 70
     1
102
RTVSPropertyOp39
 70
     1
102
RTVSPropertyOp40
 70
     1
102
RTVSPropertyOp41
 70
     1
102
RTVSPropertyOp42
 70
     1
102
RTVSPropertyOp43
 70
     1
102
RTVSPropertyOp44
 70
     1
102
RTVSPropertyOp45
 70
     1
102
RTVSPropertyOp46
 70
     1
102
RTVSPropertyOp47
 70
     1
102
RTVSPropertyOp48
 70
     1
102
RTVSPropertyOp49
 70
     1
102
RTVSPropertyOp50
 70
     1
102
RTVSPropertyOp51
 70
     0
102
RTVSPropertyOp52
 70
     0
102
RTVSPropertyOp53
 70
     1
102
RTVSPropertyOp54
 70
     1
102
RTVSPropertyOp55
 70
     1
102
RTVSPropertyOp56
 70
     1
102
RTVSPropertyOp57
 70
     1
102
RTVSPost2010Prop28
280
     0
102
RTVSPost2010PropOp28
 70
     1
102
RTVSPost2010Prop29
280
     1
102
RTVSPost2010PropOp29
 70
     1
102
RTVSPost2010Prop30
280
     1
102
RTVSPost2010PropOp30
 70
     1
102
RTVSPost2010Prop31
280
     0
102
RTVSPost2010PropOp31
 70
     1
102
RTVSPost2010Prop32
280
     0
102
RTVSPost2010PropOp32
 70
     1
102
RTVSPost2010Prop33
280
     0
102
RTVSPost2010PropOp33
 70
     1
102
RTVSPost2010Prop34
280
     0
102
RTVSPost2010PropOp34
 70
     1
102
RTVSPost2010Prop35
280
     0
102
RTVSPost2010PropOp35
 70
     1
102
RTVSPost2010Prop36
280
     0
102
RTVSPost2010PropOp36
 70
     1
102
RTVSPost2010Prop37
 90
       50
102
RTVSPost2010PropOp37
 70
     1
102
RTVSPost2010Prop38
140
0.0
102
RTVSPost2010PropOp38
 70
     1
102
RTVSPost2010Prop39
140
1.0
102
RTVSPost2010PropOp39
 70
     1
102
RTVSPost2010Prop40
 90
        0
102
RTVSPost2010PropOp40
 70
     1
102
RTVSPost2010Prop41ColorIndex
 90
       18
102
RTVSPost2010Prop41ColorRGB
 90
        0
102
RTVSPost2010PropOp41
 70
     1
102
RTVSPost2010Prop42
 90
       50
102
RTVSPost2010PropOp42
 70
     1
102
RTVSPost2010Prop43
 90
        3
102
RTVSPost2010PropOp43
 70
     1
102
RTVSPost2010Prop44ColorIndex
 90
        5
102
RTVSPost2010Prop44ColorRGB
 90
      255
102
RTVSPost2010PropOp44
 70
     1
102
RTVSPost2010Prop45
280
     0
102
RTVSPost2010PropOp45
 70
     1
102
RTVSPost2010Prop46
 90
       50
102
RTVSPost2010PropOp46
 70
     1
102
RTVSPost2010Prop47
 90
       50
102
RTVSPost2010PropOp47
 70
     1
102
RTVSPost2010Prop48
 90
       50
102
RTVSPost2010PropOp48
 70
     1
102
RTVSPost2010Prop49
280
     0
102
RTVSPost2010PropOp49
 70
     1
102
RTVSPost2010Prop50
 90
       50
102
RTVSPost2010PropOp50
 70
     1
102
RTVSPost2010Prop51ColorIndex
 90
      256
102
RTVSPost2010Prop51ColorRGB
 90
-16777216
102
RTVSPost2010PropOp51
 70
     0
102
RTVSPost2010Prop52
140
1.0
102
RTVSPost2010PropOp52
 70
     0
102
RTVSPost2010Prop53
 90
        2
102
RTVSPost2010PropOp53
 70
     1
102
RTVSPost2010Prop54
  1
strokes_ogs.tif
102
RTVSPost2010PropOp54
 70
     1
102
RTVSPost2010Prop55
280
     0
102
RTVSPost2010PropOp55
 70
     1
102
RTVSPost2010Prop56
140
1.0
102
RTVSPost2010PropOp56
 70
     1
102
RTVSPost2010Prop57
140
1.0
102
RTVSPost2010PropOp57
 70
     1
  0
XRECORD
  5
32B
102
{ACAD_REACTORS
330
32A
102
}
330
32A
100
AcDbXrecord
280
     1
102
RTVSPropertyOp0
 70
     1
102
RTVSPropertyOp1
 70
     1
102
RTVSPropertyOp2
 70
     1
102
RTVSPropertyOp3
 70
     1
102
RTVSPropertyOp4
 70
     1
102
RTVSPropertyOp5
 70
     1
102
RTVSPropertyOp6
 70
     1
102
RTVSPropertyOp7
 70
     1
102
RTVSPropertyOp8
 70
     1
102
RTVSPropertyOp9
 70
     1
102
RTVSPropertyOp10
 70
     1
102
RTVSPropertyOp11
 70
     1
102
RTVSPropertyOp12
 70
     1
102
RTVSPropertyOp13
 70
     1
102
RTVSPropertyOp14
 70
     1
102
RTVSPropertyOp15
 70
     1
102
RTVSPropertyOp16
 70
     1
102
RTVSPropertyOp17
 70
     1
102
RTVSPropertyOp18
 70
     1
102
RTVSPropertyOp19
 70
     1
102
RTVSPropertyOp20
 70
     1
102
RTVSPropertyOp21
 70
     1
102
RTVSPropertyOp22
 70
     1
102
RTVSPropertyOp23
 70
     1
102
RTVSPropertyOp24
 70
     1
102
RTVSPropertyOp25
 70
     1
102
RTVSPropertyOp26
 70
     1
102
RTVSPropertyOp27
 70
     1
102
RTVSPropertyOp28
 70
     1
102
RTVSPropertyOp29
 70
     1
102
RTVSPropertyOp30
 70
     1
102
RTVSPropertyOp31
 70
     1
102
RTVSPropertyOp32
 70
     1
102
RTVSPropertyOp33
 70
     1
102
RTVSPropertyOp34
 70
     1
102
RTVSPropertyOp35
 70
     1
102
RTVSPropertyOp36
 70
     1
102
RTVSPropertyOp37
 70
     1
102
RTVSPropertyOp38
 70
     1
102
RTVSPropertyOp39
 70
     1
102
RTVSPropertyOp40
 70
     1
102
RTVSPropertyOp41
 70
     1
102
RTVSPropertyOp42
 70
     1
102
RTVSPropertyOp43
 70
     1
102
RTVSPropertyOp44
 70
     1
102
RTVSPropertyOp45
 70
     1
102
RTVSPropertyOp46
 70
     1
102
RTVSPropertyOp47
 70
     1
102
RTVSPropertyOp48
 70
     1
102
RTVSPropertyOp49
 70
     1
102
RTVSPropertyOp50
 70
     1
102
RTVSPropertyOp51
 70
     0
102
RTVSPropertyOp52
 70
     0
102
RTVSPropertyOp53
 70
     1
102
RTVSPropertyOp54
 70
     1
102
RTVSPropertyOp55
 70
     1
102
RTVSPropertyOp56
 70
     1
102
RTVSPropertyOp57
 70
     1
102
RTVSPost2010Prop28
280
     0
102
RTVSPost2010PropOp28
 70
     1
102
RTVSPost2010Prop29
280
     1
102
RTVSPost2010PropOp29
 70
     1
102
RTVSPost2010Prop30
280
     1
102
RTVSPost2010PropOp30
 70
     1
102
RTVSPost2010Prop31
280
     0
102
RTVSPost2010PropOp31
 70
     1
102
RTVSPost2010Prop32
280
     0
102
RTVSPost2010PropOp32
 70
     1
102
RTVSPost2010Prop33
280
     0
102
RTVSPost2010PropOp33
 70
     1
102
RTVSPost2010Prop34
280
     0
102
RTVSPost2010PropOp34
 70
     1
102
RTVSPost2010Prop35
280
     0
102
RTVSPost2010PropOp35
 70
     1
102
RTVSPost2010Prop36
280
     0
102
RTVSPost2010PropOp36
 70
     1
102
RTVSPost2010Prop37
 90
       50
102
RTVSPost2010PropOp37
 70
     1
102
RTVSPost2010Prop38
140
0.0
102
RTVSPost2010PropOp38
 70
     1
102
RTVSPost2010Prop39
140
1.0
102
RTVSPost2010PropOp39
 70
     1
102
RTVSPost2010Prop40
 90
        0
102
RTVSPost2010PropOp40
 70
     1
102
RTVSPost2010Prop41ColorIndex
 90
       18
102
RTVSPost2010Prop41ColorRGB
 90
        0
102
RTVSPost2010PropOp41
 70
     1
102
RTVSPost2010Prop42
 90
       50
102
RTVSPost2010PropOp42
 70
     1
102
RTVSPost2010Prop43
 90
        3
102
RTVSPost2010PropOp43
 70
     1
102
RTVSPost2010Prop44ColorIndex
 90
        5
102
RTVSPost2010Prop44ColorRGB
 90
      255
102
RTVSPost2010PropOp44
 70
     1
102
RTVSPost2010Prop45
280
     0
102
RTVSPost2010PropOp45
 70
     1
102
RTVSPost2010Prop46
 90
       50
102
RTVSPost2010PropOp46
 70
     1
102
RTVSPost2010Prop47
 90
       50
102
RTVSPost2010PropOp47
 70
     1
102
RTVSPost2010Prop48
 90
       50
102
RTVSPost2010PropOp48
 70
     1
102
RTVSPost2010Prop49
280
     0
102
RTVSPost2010PropOp49
 70
     1
102
RTVSPost2010Prop50
 90
       50
102
RTVSPost2010PropOp50
 70
     1
102
RTVSPost2010Prop51ColorIndex
 90
      256
102
RTVSPost2010Prop51ColorRGB
 90
-16777216
102
RTVSPost2010PropOp51
 70
     0
102
RTVSPost2010Prop52
140
1.0
102
RTVSPost2010PropOp52
 70
     0
102
RTVSPost2010Prop53
 90
        2
102
RTVSPost2010PropOp53
 70
     1
102
RTVSPost2010Prop54
  1
strokes_ogs.tif
102
RTVSPost2010PropOp54
 70
     1
102
RTVSPost2010Prop55
280
     0
102
RTVSPost2010PropOp55
 70
     1
102
RTVSPost2010Prop56
140
1.0
102
RTVSPost2010PropOp56
 70
     1
102
RTVSPost2010Prop57
140
1.0
102
RTVSPost2010PropOp57
 70
     1
  0
XRECORD
  5
31D
102
{ACAD_REACTORS
330
31C
102
}
330
31C
100
AcDbXrecord
280
     1
102
RTVSPropertyOp0
 70
     1
102
RTVSPropertyOp1
 70
     1
102
RTVSPropertyOp2
 70
     1
102
RTVSPropertyOp3
 70
     1
102
RTVSPropertyOp4
 70
     1
102
RTVSPropertyOp5
 70
     1
102
RTVSPropertyOp6
 70
     1
102
RTVSPropertyOp7
 70
     1
102
RTVSPropertyOp8
 70
     1
102
RTVSPropertyOp9
 70
     1
102
RTVSPropertyOp10
 70
     1
102
RTVSPropertyOp11
 70
     1
102
RTVSPropertyOp12
 70
     1
102
RTVSPropertyOp13
 70
     1
102
RTVSPropertyOp14
 70
     1
102
RTVSPropertyOp15
 70
     1
102
RTVSPropertyOp16
 70
     1
102
RTVSPropertyOp17
 70
     1
102
RTVSPropertyOp18
 70
     1
102
RTVSPropertyOp19
 70
     1
102
RTVSPropertyOp20
 70
     1
102
RTVSPropertyOp21
 70
     1
102
RTVSPropertyOp22
 70
     1
102
RTVSPropertyOp23
 70
     1
102
RTVSPropertyOp24
 70
     1
102
RTVSPropertyOp25
 70
     1
102
RTVSPropertyOp26
 70
     1
102
RTVSPropertyOp27
 70
     1
102
RTVSPropertyOp28
 70
     1
102
RTVSPropertyOp29
 70
     1
102
RTVSPropertyOp30
 70
     1
102
RTVSPropertyOp31
 70
     1
102
RTVSPropertyOp32
 70
     1
102
RTVSPropertyOp33
 70
     1
102
RTVSPropertyOp34
 70
     1
102
RTVSPropertyOp35
 70
     1
102
RTVSPropertyOp36
 70
     1
102
RTVSPropertyOp37
 70
     1
102
RTVSPropertyOp38
 70
     1
102
RTVSPropertyOp39
 70
     1
102
RTVSPropertyOp40
 70
     1
102
RTVSPropertyOp41
 70
     1
102
RTVSPropertyOp42
 70
     1
102
RTVSPropertyOp43
 70
     1
102
RTVSPropertyOp44
 70
     1
102
RTVSPropertyOp45
 70
     1
102
RTVSPropertyOp46
 70
     1
102
RTVSPropertyOp47
 70
     1
102
RTVSPropertyOp48
 70
     1
102
RTVSPropertyOp49
 70
     1
102
RTVSPropertyOp50
 70
     1
102
RTVSPropertyOp51
 70
     0
102
RTVSPropertyOp52
 70
     0
102
RTVSPropertyOp53
 70
     1
102
RTVSPropertyOp54
 70
     1
102
RTVSPropertyOp55
 70
     1
102
RTVSPropertyOp56
 70
     1
102
RTVSPropertyOp57
 70
     1
102
RTVSPost2010Prop28
280
     0
102
RTVSPost2010PropOp28
 70
     1
102
RTVSPost2010Prop29
280
     1
102
RTVSPost2010PropOp29
 70
     1
102
RTVSPost2010Prop30
280
     1
102
RTVSPost2010PropOp30
 70
     1
102
RTVSPost2010Prop31
280
     0
102
RTVSPost2010PropOp31
 70
     1
102
RTVSPost2010Prop32
280
     0
102
RTVSPost2010PropOp32
 70
     1
102
RTVSPost2010Prop33
280
     0
102
RTVSPost2010PropOp33
 70
     1
102
RTVSPost2010Prop34
280
     0
102
RTVSPost2010PropOp34
 70
     1
102
RTVSPost2010Prop35
280
     0
102
RTVSPost2010PropOp35
 70
     1
102
RTVSPost2010Prop36
280
     0
102
RTVSPost2010PropOp36
 70
     1
102
RTVSPost2010Prop37
 90
       50
102
RTVSPost2010PropOp37
 70
     1
102
RTVSPost2010Prop38
140
0.0
102
RTVSPost2010PropOp38
 70
     1
102
RTVSPost2010Prop39
140
1.0
102
RTVSPost2010PropOp39
 70
     1
102
RTVSPost2010Prop40
 90
        0
102
RTVSPost2010PropOp40
 70
     1
102
RTVSPost2010Prop41ColorIndex
 90
       18
102
RTVSPost2010Prop41ColorRGB
 90
        0
102
RTVSPost2010PropOp41
 70
     1
102
RTVSPost2010Prop42
 90
       50
102
RTVSPost2010PropOp42
 70
     1
102
RTVSPost2010Prop43
 90
        3
102
RTVSPost2010PropOp43
 70
     1
102
RTVSPost2010Prop44ColorIndex
 90
        5
102
RTVSPost2010Prop44ColorRGB
 90
      255
102
RTVSPost2010PropOp44
 70
     1
102
RTVSPost2010Prop45
280
     0
102
RTVSPost2010PropOp45
 70
     1
102
RTVSPost2010Prop46
 90
       50
102
RTVSPost2010PropOp46
 70
     1
102
RTVSPost2010Prop47
 90
       50
102
RTVSPost2010PropOp47
 70
     1
102
RTVSPost2010Prop48
 90
       50
102
RTVSPost2010PropOp48
 70
     1
102
RTVSPost2010Prop49
280
     0
102
RTVSPost2010PropOp49
 70
     1
102
RTVSPost2010Prop50
 90
       50
102
RTVSPost2010PropOp50
 70
     1
102
RTVSPost2010Prop51ColorIndex
 90
      256
102
RTVSPost2010Prop51ColorRGB
 90
-16777216
102
RTVSPost2010PropOp51
 70
     0
102
RTVSPost2010Prop52
140
1.0
102
RTVSPost2010PropOp52
 70
     0
102
RTVSPost2010Prop53
 90
        2
102
RTVSPost2010PropOp53
 70
     1
102
RTVSPost2010Prop54
  1
strokes_ogs.tif
102
RTVSPost2010PropOp54
 70
     1
102
RTVSPost2010Prop55
280
     0
102
RTVSPost2010PropOp55
 70
     1
102
RTVSPost2010Prop56
140
1.0
102
RTVSPost2010PropOp56
 70
     1
102
RTVSPost2010Prop57
140
1.0
102
RTVSPost2010PropOp57
 70
     1
  0
XRECORD
  5
33D
102
{ACAD_REACTORS
330
33C
102
}
330
33C
100
AcDbXrecord
280
     1
102
RTVSPropertyOp0
 70
     1
102
RTVSPropertyOp1
 70
     1
102
RTVSPropertyOp2
 70
     1
102
RTVSPropertyOp3
 70
     1
102
RTVSPropertyOp4
 70
     1
102
RTVSPropertyOp5
 70
     1
102
RTVSPropertyOp6
 70
     1
102
RTVSPropertyOp7
 70
     1
102
RTVSPropertyOp8
 70
     1
102
RTVSPropertyOp9
 70
     1
102
RTVSPropertyOp10
 70
     1
102
RTVSPropertyOp11
 70
     1
102
RTVSPropertyOp12
 70
     1
102
RTVSPropertyOp13
 70
     1
102
RTVSPropertyOp14
 70
     1
102
RTVSPropertyOp15
 70
     1
102
RTVSPropertyOp16
 70
     1
102
RTVSPropertyOp17
 70
     1
102
RTVSPropertyOp18
 70
     1
102
RTVSPropertyOp19
 70
     1
102
RTVSPropertyOp20
 70
     1
102
RTVSPropertyOp21
 70
     1
102
RTVSPropertyOp22
 70
     1
102
RTVSPropertyOp23
 70
     1
102
RTVSPropertyOp24
 70
     1
102
RTVSPropertyOp25
 70
     1
102
RTVSPropertyOp26
 70
     1
102
RTVSPropertyOp27
 70
     1
102
RTVSPropertyOp28
 70
     1
102
RTVSPropertyOp29
 70
     1
102
RTVSPropertyOp30
 70
     1
102
RTVSPropertyOp31
 70
     1
102
RTVSPropertyOp32
 70
     1
102
RTVSPropertyOp33
 70
     1
102
RTVSPropertyOp34
 70
     1
102
RTVSPropertyOp35
 70
     1
102
RTVSPropertyOp36
 70
     1
102
RTVSPropertyOp37
 70
     1
102
RTVSPropertyOp38
 70
     1
102
RTVSPropertyOp39
 70
     1
102
RTVSPropertyOp40
 70
     1
102
RTVSPropertyOp41
 70
     1
102
RTVSPropertyOp42
 70
     1
102
RTVSPropertyOp43
 70
     1
102
RTVSPropertyOp44
 70
     1
102
RTVSPropertyOp45
 70
     1
102
RTVSPropertyOp46
 70
     1
102
RTVSPropertyOp47
 70
     1
102
RTVSPropertyOp48
 70
     1
102
RTVSPropertyOp49
 70
     1
102
RTVSPropertyOp50
 70
     1
102
RTVSPropertyOp51
 70
     0
102
RTVSPropertyOp52
 70
     0
102
RTVSPropertyOp53
 70
     1
102
RTVSPropertyOp54
 70
     1
102
RTVSPropertyOp55
 70
     1
102
RTVSPropertyOp56
 70
     1
102
RTVSPropertyOp57
 70
     1
102
RTVSPost2010Prop28
280
     0
102
RTVSPost2010PropOp28
 70
     1
102
RTVSPost2010Prop29
280
     1
102
RTVSPost2010PropOp29
 70
     1
102
RTVSPost2010Prop30
280
     1
102
RTVSPost2010PropOp30
 70
     1
102
RTVSPost2010Prop31
280
     0
102
RTVSPost2010PropOp31
 70
     1
102
RTVSPost2010Prop32
280
     0
102
RTVSPost2010PropOp32
 70
     1
102
RTVSPost2010Prop33
280
     0
102
RTVSPost2010PropOp33
 70
     1
102
RTVSPost2010Prop34
280
     0
102
RTVSPost2010PropOp34
 70
     1
102
RTVSPost2010Prop35
280
     0
102
RTVSPost2010PropOp35
 70
     1
102
RTVSPost2010Prop36
280
     0
102
RTVSPost2010PropOp36
 70
     1
102
RTVSPost2010Prop37
 90
       50
102
RTVSPost2010PropOp37
 70
     1
102
RTVSPost2010Prop38
140
0.0
102
RTVSPost2010PropOp38
 70
     1
102
RTVSPost2010Prop39
140
1.0
102
RTVSPost2010PropOp39
 70
     1
102
RTVSPost2010Prop40
 90
        0
102
RTVSPost2010PropOp40
 70
     1
102
RTVSPost2010Prop41ColorIndex
 90
       18
102
RTVSPost2010Prop41ColorRGB
 90
        0
102
RTVSPost2010PropOp41
 70
     1
102
RTVSPost2010Prop42
 90
       50
102
RTVSPost2010PropOp42
 70
     1
102
RTVSPost2010Prop43
 90
        3
102
RTVSPost2010PropOp43
 70
     1
102
RTVSPost2010Prop44ColorIndex
 90
        5
102
RTVSPost2010Prop44ColorRGB
 90
      255
102
RTVSPost2010PropOp44
 70
     1
102
RTVSPost2010Prop45
280
     0
102
RTVSPost2010PropOp45
 70
     1
102
RTVSPost2010Prop46
 90
       50
102
RTVSPost2010PropOp46
 70
     1
102
RTVSPost2010Prop47
 90
       50
102
RTVSPost2010PropOp47
 70
     1
102
RTVSPost2010Prop48
 90
       50
102
RTVSPost2010PropOp48
 70
     1
102
RTVSPost2010Prop49
280
     0
102
RTVSPost2010PropOp49
 70
     1
102
RTVSPost2010Prop50
 90
       50
102
RTVSPost2010PropOp50
 70
     1
102
RTVSPost2010Prop51ColorIndex
 90
      256
102
RTVSPost2010Prop51ColorRGB
 90
-16777216
102
RTVSPost2010PropOp51
 70
     0
102
RTVSPost2010Prop52
140
1.0
102
RTVSPost2010PropOp52
 70
     0
102
RTVSPost2010Prop53
 90
        2
102
RTVSPost2010PropOp53
 70
     1
102
RTVSPost2010Prop54
  1
strokes_ogs.tif
102
RTVSPost2010PropOp54
 70
     1
102
RTVSPost2010Prop55
280
     0
102
RTVSPost2010PropOp55
 70
     1
102
RTVSPost2010Prop56
140
1.0
102
RTVSPost2010PropOp56
 70
     1
102
RTVSPost2010Prop57
140
1.0
102
RTVSPost2010PropOp57
 70
     1
  0
ENDSEC
  0
EOF
