  0
SECTION
  2
HEADER
  9
$ACADVER
  1
AC1021
  9
$ACADMAINTVER
 70
    25
  9
$DWGCODEPAGE
  3
ANSI_1252
  9
$LASTSAVEDBY
  1
venedis
  9
$INSBASE
 10
0.0
 20
0.0
 30
0.0
  9
$EXTMIN
 10
-298.0000000000025
 20
-62.00001630782994
 30
-0.0000000000000392
  9
$EXTMAX
 10
297.9999999999976
 20
544.9999999999844
 30
598.000017642975
  9
$LIMMIN
 10
0.0
 20
0.0
  9
$LIMMAX
 10
12.0
 20
9.0
  9
$ORTHOMODE
 70
     0
  9
$REGENMODE
 70
     1
  9
$FILLMODE
 70
     1
  9
$QTEXTMODE
 70
     0
  9
$MIRRTEXT
 70
     1
  9
$LTSCALE
 40
1.0
  9
$ATTMODE
 70
     1
  9
$TEXTSIZE
 40
0.2
  9
$TRACEWID
 40
0.05
  9
$TEXTSTYLE
  7
Standard
  9
$CLAYER
  8
FP_OB60S$Fisher _ Paykel-1
  9
$CELTYPE
  6
ByLayer
  9
$CECOLOR
 62
   256
  9
$CELTSCALE
 40
1.0
  9
$DISPSILH
 70
     0
  9
$DIMSCALE
 40
1.0
  9
$DIMASZ
 40
0.18
  9
$DIMEXO
 40
0.0625
  9
$DIMDLI
 40
0.38
  9
$DIMRND
 40
0.0
  9
$DIMDLE
 40
0.0
  9
$DIMEXE
 40
0.18
  9
$DIMTP
 40
0.0
  9
$DIMTM
 40
0.0
  9
$DIMTXT
 40
0.18
  9
$DIMCEN
 40
0.09
  9
$DIMTSZ
 40
0.0
  9
$DIMTOL
 70
     0
  9
$DIMLIM
 70
     0
  9
$DIMTIH
 70
     1
  9
$DIMTOH
 70
     1
  9
$DIMSE1
 70
     0
  9
$DIMSE2
 70
     0
  9
$DIMTAD
 70
     0
  9
$DIMZIN
 70
     0
  9
$DIMBLK
  1

  9
$DIMASO
 70
     1
  9
$DIMSHO
 70
     1
  9
$DIMPOST
  1

  9
$DIMAPOST
  1

  9
$DIMALT
 70
     0
  9
$DIMALTD
 70
     2
  9
$DIMALTF
 40
25.4
  9
$DIMLFAC
 40
1.0
  9
$DIMTOFL
 70
     0
  9
$DIMTVP
 40
0.0
  9
$DIMTIX
 70
     0
  9
$DIMSOXD
 70
     0
  9
$DIMSAH
 70
     0
  9
$DIMBLK1
  1

  9
$DIMBLK2
  1

  9
$DIMSTYLE
  2
STANDARD_ACAD
  9
$DIMCLRD
 70
     0
  9
$DIMCLRE
 70
     0
  9
$DIMCLRT
 70
     0
  9
$DIMTFAC
 40
1.0
  9
$DIMGAP
 40
0.09
  9
$DIMJUST
 70
     0
  9
$DIMSD1
 70
     0
  9
$DIMSD2
 70
     0
  9
$DIMTOLJ
 70
     1
  9
$DIMTZIN
 70
     0
  9
$DIMALTZ
 70
     0
  9
$DIMALTTZ
 70
     0
  9
$DIMUPT
 70
     0
  9
$DIMDEC
 70
     4
  9
$DIMTDEC
 70
     4
  9
$DIMALTU
 70
     2
  9
$DIMALTTD
 70
     2
  9
$DIMTXSTY
  7
Standard
  9
$DIMAUNIT
 70
     0
  9
$DIMADEC
 70
     0
  9
$DIMALTRND
 40
0.0
  9
$DIMAZIN
 70
     0
  9
$DIMDSEP
 70
    46
  9
$DIMATFIT
 70
     3
  9
$DIMFRAC
 70
     0
  9
$DIMLDRBLK
  1

  9
$DIMLUNIT
 70
     2
  9
$DIMLWD
 70
    -2
  9
$DIMLWE
 70
    -2
  9
$DIMTMOVE
 70
     2
  9
$DIMFXL
 40
1.0
  9
$DIMFXLON
 70
     0
  9
$DIMJOGANG
 40
0.7853981633974483
  9
$DIMTFILL
 70
     0
  9
$DIMTFILLCLR
 70
     0
  9
$DIMARCSYM
 70
     0
  9
$DIMLTYPE
  6

  9
$DIMLTEX1
  6

  9
$DIMLTEX2
  6

  9
$LUNITS
 70
     2
  9
$LUPREC
 70
     3
  9
$SKETCHINC
 40
0.1
  9
$FILLETRAD
 40
0.0
  9
$AUNITS
 70
     0
  9
$AUPREC
 70
     0
  9
$MENU
  1
.
  9
$ELEVATION
 40
0.0
  9
$PELEVATION
 40
0.0
  9
$THICKNESS
 40
0.0
  9
$LIMCHECK
 70
     0
  9
$CHAMFERA
 40
0.0
  9
$CHAMFERB
 40
0.0
  9
$CHAMFERC
 40
0.0
  9
$CHAMFERD
 40
0.0
  9
$SKPOLY
 70
     0
  9
$TDCREATE
 40
2460224.851136667
  9
$TDUCREATE
 40
2460224.30947
  9
$TDUPDATE
 40
2460224.851150591
  9
$TDUUPDATE
 40
2460224.309483924
  9
$TDINDWG
 40
0.0000000116
  9
$TDUSRTIMER
 40
0.0000000116
  9
$USRTIMER
 70
     1
  9
$ANGBASE
 50
0.0
  9
$ANGDIR
 70
     0
  9
$PDMODE
 70
     0
  9
$PDSIZE
 40
0.0
  9
$PLINEWID
 40
0.0
  9
$SPLFRAME
 70
     0
  9
$SPLINETYPE
 70
     6
  9
$SPLINESEGS
 70
     8
  9
$HANDSEED
  5
2DD
  9
$SURFTAB1
 70
     6
  9
$SURFTAB2
 70
     6
  9
$SURFTYPE
 70
     6
  9
$SURFU
 70
     6
  9
$SURFV
 70
     6
  9
$UCSBASE
  2

  9
$UCSNAME
  2

  9
$UCSORG
 10
0.0
 20
0.0
 30
0.0
  9
$UCSXDIR
 10
1.0
 20
0.0
 30
0.0
  9
$UCSYDIR
 10
0.0
 20
1.0
 30
0.0
  9
$UCSORTHOREF
  2

  9
$UCSORTHOVIEW
 70
     0
  9
$UCSORGTOP
 10
0.0
 20
0.0
 30
0.0
  9
$UCSORGBOTTOM
 10
0.0
 20
0.0
 30
0.0
  9
$UCSORGLEFT
 10
0.0
 20
0.0
 30
0.0
  9
$UCSORGRIGHT
 10
0.0
 20
0.0
 30
0.0
  9
$UCSORGFRONT
 10
0.0
 20
0.0
 30
0.0
  9
$UCSORGBACK
 10
0.0
 20
0.0
 30
0.0
  9
$PUCSBASE
  2

  9
$PUCSNAME
  2

  9
$PUCSORG
 10
0.0
 20
0.0
 30
0.0
  9
$PUCSXDIR
 10
1.0
 20
0.0
 30
0.0
  9
$PUCSYDIR
 10
0.0
 20
1.0
 30
0.0
  9
$PUCSORTHOREF
  2

  9
$PUCSORTHOVIEW
 70
     0
  9
$PUCSORGTOP
 10
0.0
 20
0.0
 30
0.0
  9
$PUCSORGBOTTOM
 10
0.0
 20
0.0
 30
0.0
  9
$PUCSORGLEFT
 10
0.0
 20
0.0
 30
0.0
  9
$PUCSORGRIGHT
 10
0.0
 20
0.0
 30
0.0
  9
$PUCSORGFRONT
 10
0.0
 20
0.0
 30
0.0
  9
$PUCSORGBACK
 10
0.0
 20
0.0
 30
0.0
  9
$USERI1
 70
     0
  9
$USERI2
 70
     0
  9
$USERI3
 70
     0
  9
$USERI4
 70
     0
  9
$USERI5
 70
     0
  9
$USERR1
 40
0.0
  9
$USERR2
 40
0.0
  9
$USERR3
 40
0.0
  9
$USERR4
 40
0.0
  9
$USERR5
 40
0.0
  9
$WORLDVIEW
 70
     1
  9
$SHADEDGE
 70
     3
  9
$SHADEDIF
 70
    70
  9
$TILEMODE
 70
     1
  9
$MAXACTVP
 70
    64
  9
$PINSBASE
 10
0.0
 20
0.0
 30
0.0
  9
$PLIMCHECK
 70
     0
  9
$PEXTMIN
 10
1.000000000000000E+20
 20
1.000000000000000E+20
 30
1.000000000000000E+20
  9
$PEXTMAX
 10
-1.000000000000000E+20
 20
-1.000000000000000E+20
 30
-1.000000000000000E+20
  9
$PLIMMIN
 10
0.0
 20
0.0
  9
$PLIMMAX
 10
12.0
 20
9.0
  9
$UNITMODE
 70
     0
  9
$VISRETAIN
 70
     1
  9
$PLINEGEN
 70
     0
  9
$PSLTSCALE
 70
     1
  9
$TREEDEPTH
 70
  3020
  9
$CMLSTYLE
  2
Standard
  9
$CMLJUST
 70
     0
  9
$CMLSCALE
 40
1.0
  9
$PROXYGRAPHICS
 70
     1
  9
$MEASUREMENT
 70
     1
  9
$CELWEIGHT
370
    -1
  9
$ENDCAPS
280
     0
  9
$JOINSTYLE
280
     0
  9
$LWDISPLAY
290
     0
  9
$INSUNITS
 70
     4
  9
$HYPERLINKBASE
  1

  9
$STYLESHEET
  1

  9
$XEDIT
290
     1
  9
$CEPSNTYPE
380
     0
  9
$PSTYLEMODE
290
     1
  9
$FINGERPRINTGUID
  2
{1824394f-be3b-450f-8ae8-db0fd8f9746a}
  9
$VERSIONGUID
  2
{FAEB1C32-E019-11D5-929B-00C0DF256EC4}
  9
$EXTNAMES
290
     1
  9
$PSVPSCALE
 40
0.0
  9
$OLESTARTUP
290
     0
  9
$SORTENTS
280
   127
  9
$INDEXCTL
280
     0
  9
$HIDETEXT
280
     1
  9
$XCLIPFRAME
290
     0
  9
$HALOGAP
280
     0
  9
$OBSCOLOR
 70
   257
  9
$OBSLTYPE
280
     0
  9
$INTERSECTIONDISPLAY
280
     0
  9
$INTERSECTIONCOLOR
 70
   257
  9
$DIMASSOC
280
     2
  9
$PROJECTNAME
  1

  9
$CAMERADISPLAY
290
     0
  9
$LENSLENGTH
 40
50.0
  9
$CAMERAHEIGHT
 40
0.0
  9
$STEPSPERSEC
 40
2.0
  9
$STEPSIZE
 40
6.0
  9
$3DDWFPREC
 40
2.0
  9
$PSOLWIDTH
 40
0.25
  9
$PSOLHEIGHT
 40
4.0
  9
$LOFTANG1
 40
1.570796326794897
  9
$LOFTANG2
 40
1.570796326794897
  9
$LOFTMAG1
 40
0.0
  9
$LOFTMAG2
 40
0.0
  9
$LOFTPARAM
 70
     7
  9
$LOFTNORMALS
280
     1
  9
$LATITUDE
 40
37.795
  9
$LONGITUDE
 40
-122.394
  9
$NORTHDIRECTION
 40
0.0
  9
$TIMEZONE
 70
 -8000
  9
$LIGHTGLYPHDISPLAY
280
     1
  9
$TILEMODELIGHTSYNCH
280
     1
  9
$CMATERIAL
347
44
  9
$SOLIDHIST
280
     0
  9
$SHOWHIST
280
     1
  9
$DWFFRAME
280
     2
  9
$DGNFRAME
280
     2
  9
$REALWORLDSCALE
290
     1
  9
$INTERFERECOLOR
 62
   256
  9
$CSHADOW
280
     0
  9
$SHADOWPLANELOCATION
 40
0.0
  0
ENDSEC
  0
SECTION
  2
CLASSES
  0
CLASS
  1
ACDBDICTIONARYWDFLT
  2
AcDbDictionaryWithDefault
  3
ObjectDBX Classes
 90
        0
 91
        3
280
     0
281
     0
  0
CLASS
  1
VISUALSTYLE
  2
AcDbVisualStyle
  3
ObjectDBX Classes
 90
     4095
 91
        3
280
     0
281
     0
  0
CLASS
  1
MATERIAL
  2
AcDbMaterial
  3
ObjectDBX Classes
 90
     1153
 91
        3
280
     0
281
     0
  0
CLASS
  1
SCALE
  2
AcDbScale
  3
ObjectDBX Classes
 90
     1153
 91
        3
280
     0
281
     0
  0
CLASS
  1
TABLESTYLE
  2
AcDbTableStyle
  3
ObjectDBX Classes
 90
     4095
 91
        3
280
     0
281
     0
  0
CLASS
  1
MLEADERSTYLE
  2
AcDbMLeaderStyle
  3
ACDB_MLEADERSTYLE_CLASS
 90
     4095
 91
        3
280
     0
281
     0
  0
CLASS
  1
SUN
  2
AcDbSun
  3
SCENEOE
 90
     1153
 91
        3
280
     0
281
     0
  0
CLASS
  1
DICTIONARYVAR
  2
AcDbDictionaryVar
  3
ObjectDBX Classes
 90
        0
 91
        3
280
     0
281
     0
  0
CLASS
  1
CELLSTYLEMAP
  2
AcDbCellStyleMap
  3
ObjectDBX Classes
 90
     1152
 91
        3
280
     0
281
     0
  0
ENDSEC
  0
SECTION
  2
TABLES
  0
TABLE
  2
VPORT
  5
8
330
0
100
AcDbSymbolTable
 70
     1
  0
VPORT
  5
29
330
8
100
AcDbSymbolTableRecord
100
AcDbViewportTableRecord
  2
*Active
 70
     0
 10
0.0
 20
0.0
 11
1.0
 21
1.0
 12
10.42990654205607
 22
4.5
 13
0.0
 23
0.0
 14
0.5
 24
0.5
 15
0.5
 25
0.5
 16
0.0
 26
0.0
 36
1.0
 17
0.0
 27
0.0
 37
0.0
 40
9.0
 41
1.972972972850329
 42
50.0
 43
0.0
 44
0.0
 50
0.0
 51
0.0
 71
     0
 72
   100
 73
     1
 74
     3
 75
     0
 76
     0
 77
     0
 78
     0
281
     0
 65
     1
110
0.0
120
0.0
130
0.0
111
1.0
121
0.0
131
0.0
112
0.0
122
1.0
132
0.0
 79
     0
146
0.0
348
2F
 60
     3
 61
     5
292
     1
282
     1
141
0.0
142
0.0
 63
   250
361
5D
  0
ENDTAB
  0
TABLE
  2
LTYPE
  5
5
330
0
100
AcDbSymbolTable
 70
     1
  0
LTYPE
  5
14
330
5
100
AcDbSymbolTableRecord
100
AcDbLinetypeTableRecord
  2
ByBlock
 70
     0
  3

 72
    65
 73
     0
 40
0.0
  0
LTYPE
  5
15
330
5
100
AcDbSymbolTableRecord
100
AcDbLinetypeTableRecord
  2
ByLayer
 70
     0
  3

 72
    65
 73
     0
 40
0.0
  0
LTYPE
  5
16
330
5
100
AcDbSymbolTableRecord
100
AcDbLinetypeTableRecord
  2
Continuous
 70
     0
  3
Solid line
 72
    65
 73
     0
 40
0.0
  0
ENDTAB
  0
TABLE
  2
LAYER
  5
2
330
0
100
AcDbSymbolTable
 70
     5
  0
LAYER
  5
10
330
2
100
AcDbSymbolTableRecord
100
AcDbLayerTableRecord
  2
0
 70
     0
 62
     7
  6
Continuous
370
    -3
390
F
347
46
  0
LAYER
  5
5F
330
2
100
AcDbSymbolTableRecord
100
AcDbLayerTableRecord
  2
FP_OB60S$Fisher _ Paykel-2
 70
     0
 62
   250
420
  2631720
  6
Continuous
370
    40
390
F
347
46
  0
LAYER
  5
C6
330
2
100
AcDbSymbolTableRecord
100
AcDbLayerTableRecord
  2
FP_OB60S$Fisher _ Paykel-4
 70
     0
 62
    18
420
        0
  6
Continuous
370
    40
390
F
347
46
  0
LAYER
  5
1F4
330
2
100
AcDbSymbolTableRecord
100
AcDbLayerTableRecord
  2
FP_OB60S$Fisher _ Paykel-3
 70
     0
 62
   250
420
  1315860
  6
Continuous
370
    40
390
F
347
46
  0
LAYER
  5
225
330
2
100
AcDbSymbolTableRecord
100
AcDbLayerTableRecord
  2
FP_OB60S$Fisher _ Paykel-1
 70
     0
 62
   253
420
 11711154
  6
Continuous
370
    40
390
F
347
46
  0
ENDTAB
  0
TABLE
  2
STYLE
  5
3
330
0
100
AcDbSymbolTable
 70
     1
  0
STYLE
  5
11
330
3
100
AcDbSymbolTableRecord
100
AcDbTextStyleTableRecord
  2
Standard
 70
     0
 40
0.0
 41
1.0
 50
0.0
 71
     0
 42
0.2
  3
txt
  4

  0
ENDTAB
  0
TABLE
  2
VIEW
  5
6
330
0
100
AcDbSymbolTable
 70
     0
  0
ENDTAB
  0
TABLE
  2
UCS
  5
7
330
0
100
AcDbSymbolTable
 70
     0
  0
ENDTAB
  0
TABLE
  2
APPID
  5
9
330
0
100
AcDbSymbolTable
 70
     3
  0
APPID
  5
12
330
9
100
AcDbSymbolTableRecord
100
AcDbRegAppTableRecord
  2
ACAD
 70
     0
  0
APPID
  5
5E
330
9
100
AcDbSymbolTableRecord
100
AcDbRegAppTableRecord
  2
Rhino
 70
     0
  0
APPID
  5
2D5
330
9
100
AcDbSymbolTableRecord
100
AcDbRegAppTableRecord
  2
ACAD_MLEADERVER
 70
     0
  0
ENDTAB
  0
TABLE
  2
DIMSTYLE
  5
A
330
0
100
AcDbSymbolTable
 70
     1
100
AcDbDimStyleTable
  0
DIMSTYLE
105
27
330
A
100
AcDbSymbolTableRecord
100
AcDbDimStyleTableRecord
  2
STANDARD_ACAD
 70
     0
178
     0
340
11
  0
ENDTAB
  0
TABLE
  2
BLOCK_RECORD
  5
1
330
0
100
AcDbSymbolTable
 70
     4
  0
BLOCK_RECORD
  5
1F
330
1
100
AcDbSymbolTableRecord
100
AcDbBlockTableRecord
  2
*Model_Space
340
22
 70
     0
280
     1
281
     0
  0
BLOCK_RECORD
  5
1B
330
1
100
AcDbSymbolTableRecord
100
AcDbBlockTableRecord
  2
*Paper_Space
340
1E
 70
     0
280
     1
281
     0
  0
BLOCK_RECORD
  5
23
330
1
100
AcDbSymbolTableRecord
100
AcDbBlockTableRecord
  2
*Paper_Space0
340
26
 70
     0
280
     1
281
     0
  0
BLOCK_RECORD
  5
60
330
1
100
AcDbSymbolTableRecord
100
AcDbBlockTableRecord
  2
F_P Dial OB - F_P Dial OB Black-116342-View 1
340
0
102
{BLKREFS
331
C5
102
}
 70
     0
280
     1
281
     0
  0
BLOCK_RECORD
  5
ED
330
1
100
AcDbSymbolTableRecord
100
AcDbBlockTableRecord
  2
F_P Handle Contemporary Square OB60-24 - Aluminium Dark-114234-View 1
340
0
102
{BLKREFS
331
19A
102
}
 70
     0
280
     1
281
     0
  0
BLOCK_RECORD
  5
256
330
1
100
AcDbSymbolTableRecord
100
AcDbBlockTableRecord
  2
FamilyGeomCombination_81130-View 1
340
0
102
{BLKREFS
331
29F
102
}
 70
     0
280
     1
281
     0
  0
ENDTAB
  0
ENDSEC
  0
SECTION
  2
BLOCKS
  0
BLOCK
  5
20
330
1F
100
AcDbEntity
  8
0
100
AcDbBlockBegin
  2
*Model_Space
 70
     0
 10
0.0
 20
0.0
 30
0.0
  3
*Model_Space
  1

  0
ENDBLK
  5
21
330
1F
100
AcDbEntity
  8
0
100
AcDbBlockEnd
  0
BLOCK
  5
1C
330
1B
100
AcDbEntity
 67
     1
  8
0
100
AcDbBlockBegin
  2
*Paper_Space
 70
     0
 10
0.0
 20
0.0
 30
0.0
  3
*Paper_Space
  1

  0
ENDBLK
  5
1D
330
1B
100
AcDbEntity
 67
     1
  8
0
100
AcDbBlockEnd
  0
BLOCK
  5
24
330
23
100
AcDbEntity
  8
0
100
AcDbBlockBegin
  2
*Paper_Space0
 70
     0
 10
0.0
 20
0.0
 30
0.0
  3
*Paper_Space0
  1

  0
ENDBLK
  5
25
330
23
100
AcDbEntity
  8
0
100
AcDbBlockEnd
  0
BLOCK
  5
C3
330
60
100
AcDbEntity
  8
0
100
AcDbBlockBegin
  2
F_P Dial OB - F_P Dial OB Black-116342-View 1
 70
     0
 10
0.0
 20
0.0
 30
0.0
  3
F_P Dial OB - F_P Dial OB Black-116342-View 1
  1

  0
ARC
  5
61
330
60
100
AcDbEntity
  8
FP_OB60S$Fisher _ Paykel-2
100
AcDbCircle
 10
-0.0000000000000018
 20
0.0000000000000314
 30
-13.19063095055335
 40
19.45000056624412
210
0.0
220
1.0
230
0.0
100
AcDbArc
 50
0.0000000000000996
 51
180.0000000000001
  0
LINE
  5
62
330
60
100
AcDbEntity
  8
FP_OB60S$Fisher _ Paykel-2
100
AcDbLine
 10
19.45000056624412
 20
-13.19063095055334
 30
-0.0000000000000349
 11
19.45000056624412
 21
-8.900000676512716
 31
0.0
  0
ARC
  5
63
330
60
100
AcDbEntity
  8
FP_OB60S$Fisher _ Paykel-2
100
AcDbCircle
 10
-0.0000000000000018
 20
0.0000000000000314
 30
8.900000676512716
 40
19.45000056624412
210
0.0
220
-1.0
230
0.0
100
AcDbArc
 50
359.9999999999999
 51
179.9999999999999
  0
LINE
  5
64
330
60
100
AcDbEntity
  8
FP_OB60S$Fisher _ Paykel-2
100
AcDbLine
 10
-19.45000056624412
 20
-8.900000676512716
 30
0.00000000000006
 11
-19.45000056624412
 21
-13.19063095055334
 31
0.0000000000000632
  0
ARC
  5
65
330
60
100
AcDbEntity
  8
FP_OB60S$Fisher _ Paykel-2
100
AcDbCircle
 10
0.0000000000000018
 20
0.0000000000000314
 30
-13.19063095055335
 40
19.45000056624412
210
0.0
220
1.0
230
0.0
100
AcDbArc
 50
180.0000000000002
 51
0.0000000000000926
  0
ARC
  5
66
330
60
100
AcDbEntity
  8
FP_OB60S$Fisher _ Paykel-2
100
AcDbCircle
 10
0.0000000000000018
 20
0.0000000000000314
 30
8.900000676512716
 40
19.45000056624412
210
0.0
220
-1.0
230
0.0
100
AcDbArc
 50
179.9999999999999
 51
359.9999999999999
  0
ARC
  5
67
330
60
100
AcDbEntity
  8
FP_OB60S$Fisher _ Paykel-2
100
AcDbCircle
 10
0.0
 20
0.0000000000000314
 30
11.04531581353303
 40
19.45000056624412
210
0.0
220
-1.0
230
0.0
100
AcDbArc
 50
359.9999999999999
 51
179.9999999999999
  0
LINE
  5
68
330
60
100
AcDbEntity
  8
FP_OB60S$Fisher _ Paykel-2
100
AcDbLine
 10
0.0000000000000314
 20
-8.900000676512716
 30
19.45000056624416
 11
0.0000000000000314
 21
-13.19063095055334
 31
19.45000056624416
  0
ARC
  5
69
330
60
100
AcDbEntity
  8
FP_OB60S$Fisher _ Paykel-2
100
AcDbCircle
 10
0.0
 20
0.0000000000000314
 30
11.04531581353303
 40
19.45000056624412
210
0.0
220
-1.0
230
0.0
100
AcDbArc
 50
179.9999999999999
 51
359.9999999999999
  0
LINE
  5
6A
330
60
100
AcDbEntity
  8
FP_OB60S$Fisher _ Paykel-2
100
AcDbLine
 10
-0.0000000000000314
 20
-8.900000676512716
 30
-19.45000056624409
 11
-0.0000000000000314
 21
-13.19063095055334
 31
-19.45000056624409
  0
LINE
  5
6B
330
60
100
AcDbEntity
  8
FP_OB60S$Fisher _ Paykel-2
100
AcDbLine
 10
0.0000000000000071
 20
-8.900000676512718
 30
19.45000056624416
 11
0.0000000000000071
 21
-8.900000676512718
 31
-19.4500005662441
  0
LINE
  5
6C
330
60
100
AcDbEntity
  8
FP_OB60S$Fisher _ Paykel-2
100
AcDbLine
 10
19.45000056624413
 20
-8.900000676512718
 30
0.000000000000032
 11
-19.45000056624413
 21
-8.900000676512718
 31
0.000000000000032
  0
LINE
  5
6D
330
60
100
AcDbEntity
  8
FP_OB60S$Fisher _ Paykel-2
100
AcDbLine
 10
0.0000000000000497
 20
-13.19063095055334
 30
-19.45000056624409
 11
0.0000000000000497
 21
-13.19063095055334
 31
19.45000056624416
  0
LINE
  5
6E
330
60
100
AcDbEntity
  8
FP_OB60S$Fisher _ Paykel-2
100
AcDbLine
 10
19.45000056624413
 20
-13.19063095055334
 30
0.000000000000032
 11
-19.45000056624414
 21
-13.19063095055334
 31
0.000000000000032
  0
ARC
  5
6F
330
60
100
AcDbEntity
  8
FP_OB60S$Fisher _ Paykel-2
100
AcDbCircle
 10
0.0000000000000355
 20
-0.0000000000000266
 30
-0.8429319893941623
 40
21.9999993503094
210
0.0
220
1.0
230
0.0
100
AcDbArc
 50
90.0000000000001
 51
270.0000000000001
  0
LINE
  5
70
330
60
100
AcDbEntity
  8
FP_OB60S$Fisher _ Paykel-2
100
AcDbLine
 10
-0.0000000000000711
 20
-0.8429319893941962
 30
-21.99999935030942
 11
-0.0000000000000756
 21
-0.0000000000000331
 31
-21.99999935030943
  0
ARC
  5
71
330
60
100
AcDbEntity
  8
FP_OB60S$Fisher _ Paykel-2
100
AcDbCircle
 10
-0.0000000000000355
 20
-0.0000000000000302
 30
-0.0000000000000012
 40
21.9999993503094
210
0.0
220
-1.0
230
0.0
100
AcDbArc
 50
269.9999999999999
 51
89.99999999999991
  0
LINE
  5
72
330
60
100
AcDbEntity
  8
FP_OB60S$Fisher _ Paykel-2
100
AcDbLine
 10
-0.0000000000000003
 20
0.0000000000000347
 30
21.99999935030937
 11
0.0000000000000003
 21
-0.8429319893941285
 31
21.99999935030937
  0
ARC
  5
73
330
60
100
AcDbEntity
  8
FP_OB60S$Fisher _ Paykel-2
100
AcDbCircle
 10
0.0000000000000355
 20
-0.0000000000000266
 30
-0.8429319893941625
 40
21.99999935030939
210
0.0
220
1.0
230
0.0
100
AcDbArc
 50
270.0000000000001
 51
90.0000000000001
  0
ARC
  5
74
330
60
100
AcDbEntity
  8
FP_OB60S$Fisher _ Paykel-2
100
AcDbCircle
 10
-0.0000000000000355
 20
-0.0000000000000266
 30
-0.0000000000000012
 40
21.9999993503094
210
0.0
220
-1.0
230
0.0
100
AcDbArc
 50
89.99999999999991
 51
269.9999999999999
  0
SPLINE
  5
75
330
60
100
AcDbEntity
  8
FP_OB60S$Fisher _ Paykel-2
100
AcDbSpline
210
0.0
220
0.0
230
1.0
 70
    24
 71
     2
 72
     6
 73
     3
 74
     0
 42
0.0000000001
 43
0.0000000001
 40
-0.0721784755587579
 40
-0.0721784755587579
 40
-0.0721784755587579
 40
0.0721784755587579
 40
0.0721784755587579
 40
0.0721784755587579
 10
-0.0000000000000756
 20
-0.0000000000000331
 30
-21.99999935030943
 10
-0.000000000000038
 20
0.0000000000000008
 30
-0.0000000000000284
 10
-0.0000000000000003
 20
0.0000000000000347
 30
21.99999935030937
  0
SPLINE
  5
76
330
60
100
AcDbEntity
  8
FP_OB60S$Fisher _ Paykel-2
100
AcDbSpline
210
0.0
220
0.0
230
1.0
 70
    24
 71
     2
 72
     6
 73
     3
 74
     0
 42
0.0000000001
 43
0.0000000001
 40
-0.1312336027622224
 40
-0.1312336027622224
 40
-0.1312336027622224
 40
0.0
 40
0.0
 40
0.0
 10
0.0000000000000003
 20
-8.900000108778478
 30
20.00000106096267
 10
-0.0000000000000327
 20
-8.900000108778508
 30
-0.0000000000000142
 10
-0.0000000000000657
 20
-8.900000108778539
 30
-20.0000010609627
  0
ARC
  5
77
330
60
100
AcDbEntity
  8
FP_OB60S$Fisher _ Paykel-2
100
AcDbCircle
 10
-0.0000000000000323
 20
-0.0000000000000178
 30
8.900000108778507
 40
20.00000106096268
210
0.0
220
-1.0
230
0.0
100
AcDbArc
 50
269.9999999999999
 51
89.99999999999991
  0
LINE
  5
78
330
60
100
AcDbEntity
  8
FP_OB60S$Fisher _ Paykel-2
100
AcDbLine
 10
-0.0000000000000657
 20
-8.900000108778539
 30
-20.0000010609627
 11
-0.0000000000000615
 21
-13.19063095055337
 31
-20.00000106096268
  0
ARC
  5
79
330
60
100
AcDbEntity
  8
FP_OB60S$Fisher _ Paykel-2
100
AcDbCircle
 10
-0.0000000000000323
 20
-0.0000000000000089
 30
13.19063095055334
 40
20.00000106096267
210
0.0
220
-1.0
230
0.0
100
AcDbArc
 50
269.9999999999999
 51
89.99999999999991
  0
LINE
  5
7A
330
60
100
AcDbEntity
  8
FP_OB60S$Fisher _ Paykel-2
100
AcDbLine
 10
-0.0000000000000033
 20
-13.19063095055331
 30
20.00000106096268
 11
0.0000000000000003
 21
-8.900000108778478
 31
20.00000106096267
  0
ARC
  5
7B
330
60
100
AcDbEntity
  8
FP_OB60S$Fisher _ Paykel-2
100
AcDbCircle
 10
-0.0000000000000323
 20
-0.0000000000000107
 30
8.900000108778507
 40
20.00000106096268
210
0.0
220
-1.0
230
0.0
100
AcDbArc
 50
89.99999999999991
 51
269.9999999999999
  0
ARC
  5
7C
330
60
100
AcDbEntity
  8
FP_OB60S$Fisher _ Paykel-2
100
AcDbCircle
 10
-0.0000000000000323
 20
-0.0000000000000053
 30
13.19063095055334
 40
20.00000106096268
210
0.0
220
-1.0
230
0.0
100
AcDbArc
 50
89.99999999999991
 51
269.9999999999999
  0
LINE
  5
7D
330
60
100
AcDbEntity
  8
FP_OB60S$Fisher _ Paykel-2
100
AcDbLine
 10
-0.0000000000000615
 20
-13.19063095055337
 30
-20.00000106096268
 11
-0.0000000000000726
 21
-13.69999952316291
 31
-21.19999821782114
  0
ARC
  5
7E
330
60
100
AcDbEntity
  8
FP_OB60S$Fisher _ Paykel-2
100
AcDbCircle
 10
-0.0000000000000178
 20
0.0
 30
13.69999952316288
 40
21.19999821782114
210
0.0
220
-1.0
230
0.0
100
AcDbArc
 50
269.9999999999998
 51
89.99999999999996
  0
LINE
  5
7F
330
60
100
AcDbEntity
  8
FP_OB60S$Fisher _ Paykel-2
100
AcDbLine
 10
-0.0000000000000018
 20
-13.69999952316285
 30
21.19999821782114
 11
-0.0000000000000033
 21
-13.19063095055331
 31
20.00000106096268
  0
ARC
  5
80
330
60
100
AcDbEntity
  8
FP_OB60S$Fisher _ Paykel-2
100
AcDbCircle
 10
-0.0000000000000178
 20
0.0
 30
13.69999952316288
 40
21.19999821782114
210
0.0
220
-1.0
230
0.0
100
AcDbArc
 50
89.99999999999994
 51
269.9999999999998
  0
SPLINE
  5
81
330
60
100
AcDbEntity
  8
FP_OB60S$Fisher _ Paykel-2
100
AcDbSpline
210
0.0
220
0.0
230
1.0
 70
    24
 71
     2
 72
     6
 73
     3
 74
     0
 42
0.0000000001
 43
0.0000000001
 40
-0.0026246756315233
 40
-0.0026246756315233
 40
-0.0026246756315233
 40
0.0
 40
0.0
 40
0.0
 10
-0.0000000000000726
 20
-13.69999952316291
 30
-21.19999821782114
 10
-0.0000000000000719
 20
-13.69999952316291
 30
-21.59999878406528
 10
-0.0000000000000711
 20
-13.69999952316291
 30
-21.99999935030942
  0
SPLINE
  5
82
330
60
100
AcDbEntity
  8
FP_OB60S$Fisher _ Paykel-2
100
AcDbSpline
210
0.0
220
0.0
230
1.0
 70
    24
 71
     2
 72
     6
 73
     3
 74
     0
 42
0.0000000001
 43
0.0000000001
 40
-0.0026246756315233
 40
-0.0026246756315233
 40
-0.0026246756315233
 40
0.0
 40
0.0
 40
0.0
 10
0.0000000000000003
 20
-13.69999952316284
 30
21.99999935030941
 10
-0.0000000000000007
 20
-13.69999952316284
 30
21.59999878406527
 10
-0.0000000000000018
 20
-13.69999952316285
 30
21.19999821782114
  0
ARC
  5
83
330
60
100
AcDbEntity
  8
FP_OB60S$Fisher _ Paykel-2
100
AcDbCircle
 10
-0.0000000000000355
 20
-0.0000000000000124
 30
13.69999952316287
 40
21.99999935030941
210
0.0
220
-1.0
230
0.0
100
AcDbArc
 50
269.9999999999999
 51
89.99999999999991
  0
LINE
  5
84
330
60
100
AcDbEntity
  8
FP_OB60S$Fisher _ Paykel-2
100
AcDbLine
 10
-0.0000000000000711
 20
-13.69999952316291
 30
-21.99999935030942
 11
-0.0000000000000756
 21
-2.39019294977194
 31
-21.99999935030943
  0
ARC
  5
85
330
60
100
AcDbEntity
  8
FP_OB60S$Fisher _ Paykel-2
100
AcDbCircle
 10
-0.0000000000000355
 20
-0.0000000000000266
 30
2.390192949771905
 40
21.99999935030941
210
0.0
220
-1.0
230
0.0
100
AcDbArc
 50
269.9999999999999
 51
89.99999999999991
  0
LINE
  5
86
330
60
100
AcDbEntity
  8
FP_OB60S$Fisher _ Paykel-2
100
AcDbLine
 10
-0.0000000000000003
 20
-2.390192949771872
 30
21.99999935030938
 11
0.0000000000000003
 21
-13.69999952316284
 31
21.99999935030941
  0
ARC
  5
87
330
60
100
AcDbEntity
  8
FP_OB60S$Fisher _ Paykel-2
100
AcDbCircle
 10
-0.0000000000000355
 20
0.0
 30
13.69999952316288
 40
21.99999935030941
210
0.0
220
-1.0
230
0.0
100
AcDbArc
 50
89.99999999999991
 51
269.9999999999999
  0
ARC
  5
88
330
60
100
AcDbEntity
  8
FP_OB60S$Fisher _ Paykel-2
100
AcDbCircle
 10
-0.0000000000000355
 20
-0.0000000000000249
 30
2.390192949771905
 40
21.99999935030941
210
0.0
220
-1.0
230
0.0
100
AcDbArc
 50
89.99999999999991
 51
269.9999999999999
  0
SPLINE
  5
89
330
60
100
AcDbEntity
  8
FP_OB60S$Fisher _ Paykel-2
100
AcDbSpline
210
0.0
220
0.0
230
1.0
 70
    24
 71
     2
 72
     6
 73
     3
 74
     0
 42
0.0000000001
 43
0.0000000001
 40
-0.0195601209998131
 40
-0.0195601209998131
 40
-0.0195601209998131
 40
0.0
 40
0.0
 40
0.0
 10
-0.0000000000000756
 20
-2.39019294977194
 30
-21.99999935030943
 10
-0.000000000000064
 20
-2.390192949771935
 30
-19.01903690993792
 10
-0.0000000000000523
 20
-2.39019294977193
 30
-16.0380744695664
  0
SPLINE
  5
8A
330
60
100
AcDbEntity
  8
FP_OB60S$Fisher _ Paykel-2
100
AcDbSpline
210
0.0
220
0.0
230
1.0
 70
    24
 71
     2
 72
     6
 73
     3
 74
     0
 42
0.0000000001
 43
0.0000000001
 40
-0.0195601209998131
 40
-0.0195601209998131
 40
-0.0195601209998131
 40
0.0
 40
0.0
 40
0.0
 10
0.0
 20
-2.390192949771881
 30
16.03807446956635
 10
-0.0000000000000002
 20
-2.390192949771876
 30
19.01903690993786
 10
-0.0000000000000003
 20
-2.390192949771872
 30
21.99999935030938
  0
ARC
  5
8B
330
60
100
AcDbEntity
  8
FP_OB60S$Fisher _ Paykel-2
100
AcDbCircle
 10
-0.0000000000000259
 20
-0.0000000000000266
 30
2.390192949771905
 40
16.03807446956638
210
0.0
220
-1.0
230
0.0
100
AcDbArc
 50
269.9999999999999
 51
89.99999999999991
  0
LINE
  5
8C
330
60
100
AcDbEntity
  8
FP_OB60S$Fisher _ Paykel-2
100
AcDbLine
 10
-0.0000000000000523
 20
-2.39019294977193
 30
-16.0380744695664
 11
-0.0000000000000516
 21
-0.8429319893941872
 31
-16.0380744695664
  0
ARC
  5
8D
330
60
100
AcDbEntity
  8
FP_OB60S$Fisher _ Paykel-2
100
AcDbCircle
 10
-0.0000000000000259
 20
-0.0000000000000284
 30
0.8429319893941626
 40
16.03807446956638
210
0.0
220
-1.0
230
0.0
100
AcDbArc
 50
269.9999999999999
 51
89.99999999999991
  0
LINE
  5
8E
330
60
100
AcDbEntity
  8
FP_OB60S$Fisher _ Paykel-2
100
AcDbLine
 10
-0.0000000000000002
 20
-0.8429319893941378
 30
16.03807446956635
 11
0.0
 21
-2.390192949771881
 31
16.03807446956635
  0
ARC
  5
8F
330
60
100
AcDbEntity
  8
FP_OB60S$Fisher _ Paykel-2
100
AcDbCircle
 10
-0.0000000000000259
 20
-0.0000000000000249
 30
2.390192949771905
 40
16.03807446956637
210
0.0
220
-1.0
230
0.0
100
AcDbArc
 50
89.99999999999991
 51
269.9999999999999
  0
ARC
  5
90
330
60
100
AcDbEntity
  8
FP_OB60S$Fisher _ Paykel-2
100
AcDbCircle
 10
0.0000000000000259
 20
-0.0000000000000284
 30
-0.8429319893941626
 40
16.03807446956638
210
0.0
220
1.0
230
0.0
100
AcDbArc
 50
270.0000000000001
 51
90.0000000000001
  0
SPLINE
  5
91
330
60
100
AcDbEntity
  8
FP_OB60S$Fisher _ Paykel-2
100
AcDbSpline
210
0.0
220
0.0
230
1.0
 70
    24
 71
     2
 72
     6
 73
     3
 74
     0
 42
0.0000000001
 43
0.0000000001
 40
-0.0195601209998131
 40
-0.0195601209998131
 40
-0.0195601209998131
 40
0.0
 40
0.0
 40
0.0
 10
0.0000000000000003
 20
-0.8429319893941285
 30
21.99999935030937
 10
0.0
 20
-0.8429319893941332
 30
19.01903690993786
 10
-0.0000000000000002
 20
-0.8429319893941378
 30
16.03807446956635
  0
SPLINE
  5
92
330
60
100
AcDbEntity
  8
FP_OB60S$Fisher _ Paykel-2
100
AcDbSpline
210
0.0
220
0.0
230
1.0
 70
    24
 71
     2
 72
     6
 73
     3
 74
     0
 42
0.0000000001
 43
0.0000000001
 40
0.0
 40
0.0
 40
0.0
 40
0.0195601209998131
 40
0.0195601209998131
 40
0.0195601209998131
 10
-0.0000000000000711
 20
-0.8429319893941962
 30
-21.99999935030942
 10
-0.0000000000000613
 20
-0.8429319893941918
 30
-19.01903690993791
 10
-0.0000000000000516
 20
-0.8429319893941872
 30
-16.0380744695664
  0
ARC
  5
93
330
60
100
AcDbEntity
  8
FP_OB60S$Fisher _ Paykel-2
100
AcDbCircle
 10
-0.0000000000000355
 20
-0.000000000000029
 30
0.4214659946970803
 40
21.9999993503094
210
0.0
220
-1.0
230
0.0
100
AcDbArc
 50
269.9999999999999
 51
89.9999999999999
  0
LINE
  5
94
330
60
100
AcDbEntity
  8
FP_OB60S$Fisher _ Paykel-2
100
AcDbLine
 10
21.99999935030936
 20
0.0000000000000016
 30
-0.0000000000000652
 11
21.99999935030936
 21
-0.8429319893941625
 31
-0.0000000000000639
  0
ARC
  5
95
330
60
100
AcDbEntity
  8
FP_OB60S$Fisher _ Paykel-2
100
AcDbCircle
 10
-0.0000000000000355
 20
-0.000000000000029
 30
0.4214659946970804
 40
21.9999993503094
210
0.0
220
-1.0
230
0.0
100
AcDbArc
 50
89.99999999999991
 51
269.9999999999999
  0
LINE
  5
96
330
60
100
AcDbEntity
  8
FP_OB60S$Fisher _ Paykel-2
100
AcDbLine
 10
-21.99999935030943
 20
0.0000000000000016
 30
0.0000000000000059
 11
-21.99999935030943
 21
-0.8429319893941626
 31
0.0000000000000072
  0
LINE
  5
97
330
60
100
AcDbEntity
  8
FP_OB60S$Fisher _ Paykel-2
100
AcDbLine
 10
10.99999967515466
 20
-0.0000000000000293
 30
-19.05255832060912
 11
10.99999967515466
 21
0.0000000000000294
 31
19.05255832060906
  0
LINE
  5
98
330
60
100
AcDbEntity
  8
FP_OB60S$Fisher _ Paykel-2
100
AcDbLine
 10
21.99999935030936
 20
0.0
 30
-0.0000000000000518
 11
-0.0000000000000412
 21
0.0
 31
-0.0000000000000518
  0
LINE
  5
99
330
60
100
AcDbEntity
  8
FP_OB60S$Fisher _ Paykel-2
100
AcDbLine
 10
-10.99999967515474
 20
-0.0000000000000293
 30
-19.05255832060911
 11
-10.99999967515474
 21
0.0000000000000294
 31
19.05255832060906
  0
LINE
  5
9A
330
60
100
AcDbEntity
  8
FP_OB60S$Fisher _ Paykel-2
100
AcDbLine
 10
-0.0000000000000411
 20
0.0
 30
-0.0000000000000145
 11
-21.99999935030944
 21
0.0
 31
-0.0000000000000145
  0
LINE
  5
9B
330
60
100
AcDbEntity
  8
FP_OB60S$Fisher _ Paykel-2
100
AcDbLine
 10
10.00000053048131
 20
-8.900000108778535
 30
-17.32050899450944
 11
10.00000053048131
 21
-8.900000108778482
 31
17.32050899450939
  0
LINE
  5
9C
330
60
100
AcDbEntity
  8
FP_OB60S$Fisher _ Paykel-2
100
AcDbLine
 10
20.00000106096266
 20
-8.900000108778508
 30
-0.0000000000000363
 11
-0.0000000000000303
 21
-8.900000108778508
 31
-0.0000000000000363
  0
LINE
  5
9D
330
60
100
AcDbEntity
  8
FP_OB60S$Fisher _ Paykel-2
100
AcDbLine
 10
-10.00000053048138
 20
-8.900000108778535
 30
-17.32050899450944
 11
-10.00000053048138
 21
-8.900000108778482
 31
17.3205089945094
  0
LINE
  5
9E
330
60
100
AcDbEntity
  8
FP_OB60S$Fisher _ Paykel-2
100
AcDbLine
 10
-0.0000000000000331
 20
-8.900000108778508
 30
-0.0000000000000008
 11
-20.00000106096273
 21
-8.900000108778508
 31
-0.0000000000000008
  0
ARC
  5
9F
330
60
100
AcDbEntity
  8
FP_OB60S$Fisher _ Paykel-2
100
AcDbCircle
 10
-0.0000000000000323
 20
-0.0000000000000126
 30
11.04531552966592
 40
20.00000106096268
210
0.0
220
-1.0
230
0.0
100
AcDbArc
 50
269.9999999999999
 51
89.9999999999999
  0
LINE
  5
A0
330
60
100
AcDbEntity
  8
FP_OB60S$Fisher _ Paykel-2
100
AcDbLine
 10
20.00000106096265
 20
-8.900000108778507
 30
-0.0000000000000482
 11
20.00000106096265
 21
-13.19063095055334
 31
-0.0000000000000416
  0
ARC
  5
A1
330
60
100
AcDbEntity
  8
FP_OB60S$Fisher _ Paykel-2
100
AcDbCircle
 10
-0.0000000000000323
 20
-0.0000000000000126
 30
11.04531552966592
 40
20.00000106096268
210
0.0
220
-1.0
230
0.0
100
AcDbArc
 50
89.99999999999991
 51
269.9999999999999
  0
LINE
  5
A2
330
60
100
AcDbEntity
  8
FP_OB60S$Fisher _ Paykel-2
100
AcDbLine
 10
-20.00000106096271
 20
-8.900000108778507
 30
0.0000000000000164
 11
-20.00000106096271
 21
-13.19063095055334
 31
0.000000000000023
  0
ARC
  5
A3
330
60
100
AcDbEntity
  8
FP_OB60S$Fisher _ Paykel-2
100
AcDbCircle
 10
0.0000000000000178
 20
0.0000000000000175
 30
-13.44531523685811
 40
20.59999963939191
210
0.0
220
1.0
230
0.0
100
AcDbArc
 50
90.00000000000006
 51
270.0000000000001
  0
LINE
  5
A4
330
60
100
AcDbEntity
  8
FP_OB60S$Fisher _ Paykel-2
100
AcDbLine
 10
16.18034074583576
 20
-13.19063095055332
 30
11.75570566946769
 11
17.15115883893587
 21
-13.69999952316286
 31
12.46104630106199
  0
LINE
  5
A5
330
60
100
AcDbEntity
  8
FP_OB60S$Fisher _ Paykel-2
100
AcDbLine
 10
11.75570566946767
 20
-13.19063095055336
 30
-16.18034074583579
 11
12.46104630106197
 21
-13.69999952316291
 31
-17.1511588389359
  0
ARC
  5
A6
330
60
100
AcDbEntity
  8
FP_OB60S$Fisher _ Paykel-2
100
AcDbCircle
 10
0.0000000000000178
 20
0.0000000000000175
 30
-13.44531523685811
 40
20.59999963939192
210
0.0
220
1.0
230
0.0
100
AcDbArc
 50
270.0000000000002
 51
90.00000000000004
  0
LINE
  5
A7
330
60
100
AcDbEntity
  8
FP_OB60S$Fisher _ Paykel-2
100
AcDbLine
 10
-16.18034074583582
 20
-13.19063095055336
 30
-11.75570566946767
 11
-17.15115883893593
 21
-13.6999995231629
 31
-12.46104630106196
  0
LINE
  5
A8
330
60
100
AcDbEntity
  8
FP_OB60S$Fisher _ Paykel-2
100
AcDbLine
 10
-11.75570566946769
 20
-13.19063095055332
 30
16.18034074583579
 11
-12.46104630106198
 21
-13.69999952316285
 31
17.15115883893591
  0
LINE
  5
A9
330
60
100
AcDbEntity
  8
FP_OB60S$Fisher _ Paykel-2
100
AcDbLine
 10
10.99999967515468
 20
-13.69999952316291
 30
-19.05255832060911
 11
10.99999967515468
 21
-13.69999952316291
 31
-18.12291178542279
  0
LINE
  5
AA
330
60
100
AcDbEntity
  8
FP_OB60S$Fisher _ Paykel-2
100
AcDbLine
 10
10.99999967515468
 20
-13.69999952316285
 30
18.12291178542278
 11
10.99999967515468
 21
-13.69999952316285
 31
19.0525583206091
  0
LINE
  5
AB
330
60
100
AcDbEntity
  8
FP_OB60S$Fisher _ Paykel-2
100
AcDbLine
 10
21.99999935030939
 20
-13.69999952316288
 30
-0.0000000000000218
 11
21.19999821782113
 21
-13.69999952316288
 31
-0.0000000000000218
  0
LINE
  5
AC
330
60
100
AcDbEntity
  8
FP_OB60S$Fisher _ Paykel-2
100
AcDbLine
 10
-10.99999967515475
 20
-13.69999952316291
 30
-19.05255832060911
 11
-10.99999967515475
 21
-13.69999952316291
 31
-18.12291178542277
  0
LINE
  5
AD
330
60
100
AcDbEntity
  8
FP_OB60S$Fisher _ Paykel-2
100
AcDbLine
 10
-10.99999967515475
 20
-13.69999952316285
 30
18.12291178542275
 11
-10.99999967515475
 21
-13.69999952316285
 31
19.05255832060911
  0
LINE
  5
AE
330
60
100
AcDbEntity
  8
FP_OB60S$Fisher _ Paykel-2
100
AcDbLine
 10
-21.19999821782115
 20
-13.69999952316288
 30
0.0000000000000137
 11
-21.99999935030947
 21
-13.69999952316288
 31
0.0000000000000137
  0
ARC
  5
AF
330
60
100
AcDbEntity
  8
FP_OB60S$Fisher _ Paykel-2
100
AcDbCircle
 10
-0.0000000000000355
 20
-0.0000000000000172
 30
8.04509623646739
 40
21.9999993503094
210
0.0
220
-1.0
230
0.0
100
AcDbArc
 50
269.9999999999999
 51
89.9999999999999
  0
LINE
  5
B0
330
60
100
AcDbEntity
  8
FP_OB60S$Fisher _ Paykel-2
100
AcDbLine
 10
21.99999935030937
 20
-2.390192949771905
 30
-0.0000000000000615
 11
21.99999935030937
 21
-13.69999952316287
 31
-0.000000000000044
  0
ARC
  5
B1
330
60
100
AcDbEntity
  8
FP_OB60S$Fisher _ Paykel-2
100
AcDbCircle
 10
-0.0000000000000355
 20
-0.0000000000000172
 30
8.04509623646739
 40
21.9999993503094
210
0.0
220
-1.0
230
0.0
100
AcDbArc
 50
89.99999999999991
 51
269.9999999999999
  0
LINE
  5
B2
330
60
100
AcDbEntity
  8
FP_OB60S$Fisher _ Paykel-2
100
AcDbLine
 10
-21.99999935030944
 20
-2.390192949771905
 30
0.0000000000000096
 11
-21.99999935030944
 21
-13.69999952316288
 31
0.000000000000027
  0
LINE
  5
B3
330
60
100
AcDbEntity
  8
FP_OB60S$Fisher _ Paykel-2
100
AcDbLine
 10
10.99999967515467
 20
-2.390192949771935
 30
-19.05255832060912
 11
10.99999967515467
 21
-2.390192949771924
 31
-11.67132553902743
  0
LINE
  5
B4
330
60
100
AcDbEntity
  8
FP_OB60S$Fisher _ Paykel-2
100
AcDbLine
 10
10.99999967515467
 20
-2.390192949771888
 30
11.67132553902738
 11
10.99999967515467
 21
-2.390192949771877
 31
19.05255832060907
  0
LINE
  5
B5
330
60
100
AcDbEntity
  8
FP_OB60S$Fisher _ Paykel-2
100
AcDbLine
 10
21.99999935030937
 20
-2.390192949771906
 30
-0.0000000000000481
 11
16.03807446956634
 21
-2.390192949771906
 31
-0.0000000000000481
  0
LINE
  5
B6
330
60
100
AcDbEntity
  8
FP_OB60S$Fisher _ Paykel-2
100
AcDbLine
 10
-10.99999967515474
 20
-2.390192949771935
 30
-19.05255832060912
 11
-10.99999967515474
 21
-2.390192949771924
 31
-11.67132553902742
  0
LINE
  5
B7
330
60
100
AcDbEntity
  8
FP_OB60S$Fisher _ Paykel-2
100
AcDbLine
 10
-10.99999967515474
 20
-2.390192949771888
 30
11.67132553902736
 11
-10.99999967515474
 21
-2.390192949771877
 31
19.05255832060906
  0
LINE
  5
B8
330
60
100
AcDbEntity
  8
FP_OB60S$Fisher _ Paykel-2
100
AcDbLine
 10
-16.0380744695664
 20
-2.390192949771906
 30
-0.0000000000000108
 11
-21.99999935030945
 21
-2.390192949771906
 31
-0.0000000000000108
  0
ARC
  5
B9
330
60
100
AcDbEntity
  8
FP_OB60S$Fisher _ Paykel-2
100
AcDbCircle
 10
-0.0000000000000259
 20
-0.0000000000000271
 30
1.616562469583034
 40
16.03807446956638
210
0.0
220
-1.0
230
0.0
100
AcDbArc
 50
269.9999999999999
 51
89.9999999999999
  0
LINE
  5
BA
330
60
100
AcDbEntity
  8
FP_OB60S$Fisher _ Paykel-2
100
AcDbLine
 10
16.03807446956635
 20
-0.8429319893941627
 30
-0.0000000000000542
 11
16.03807446956635
 21
-2.390192949771905
 31
-0.0000000000000518
  0
ARC
  5
BB
330
60
100
AcDbEntity
  8
FP_OB60S$Fisher _ Paykel-2
100
AcDbCircle
 10
-0.0000000000000259
 20
-0.0000000000000271
 30
1.616562469583034
 40
16.03807446956637
210
0.0
220
-1.0
230
0.0
100
AcDbArc
 50
89.99999999999991
 51
269.9999999999999
  0
LINE
  5
BC
330
60
100
AcDbEntity
  8
FP_OB60S$Fisher _ Paykel-2
100
AcDbLine
 10
-16.0380744695664
 20
-0.8429319893941627
 30
-0.0000000000000024
 11
-16.0380744695664
 21
-2.390192949771905
 31
0.0
  0
LINE
  5
BD
330
60
100
AcDbEntity
  8
FP_OB60S$Fisher _ Paykel-2
100
AcDbLine
 10
10.99999967515467
 20
-0.8429319893941918
 30
-19.05255832060911
 11
10.99999967515467
 21
-0.8429319893941805
 31
-11.67132553902744
  0
LINE
  5
BE
330
60
100
AcDbEntity
  8
FP_OB60S$Fisher _ Paykel-2
100
AcDbLine
 10
10.99999967515467
 20
-0.8429319893941444
 30
11.67132553902738
 11
10.99999967515467
 21
-0.8429319893941329
 31
19.05255832060906
  0
LINE
  5
BF
330
60
100
AcDbEntity
  8
FP_OB60S$Fisher _ Paykel-2
100
AcDbLine
 10
21.99999935030937
 20
-0.8429319893941624
 30
-0.0000000000000381
 11
16.03807446956635
 21
-0.8429319893941624
 31
-0.0000000000000381
  0
LINE
  5
C0
330
60
100
AcDbEntity
  8
FP_OB60S$Fisher _ Paykel-2
100
AcDbLine
 10
-10.99999967515473
 20
-0.8429319893941918
 30
-19.05255832060911
 11
-10.99999967515473
 21
-0.8429319893941805
 31
-11.67132553902742
  0
LINE
  5
C1
330
60
100
AcDbEntity
  8
FP_OB60S$Fisher _ Paykel-2
100
AcDbLine
 10
-10.99999967515473
 20
-0.8429319893941443
 30
11.67132553902735
 11
-10.99999967515473
 21
-0.842931989394133
 31
19.05255832060906
  0
LINE
  5
C2
330
60
100
AcDbEntity
  8
FP_OB60S$Fisher _ Paykel-2
100
AcDbLine
 10
-16.0380744695664
 20
-0.8429319893941624
 30
-0.0000000000000061
 11
-21.99999935030944
 21
-0.8429319893941624
 31
-0.0000000000000061
  0
ENDBLK
  5
C4
330
60
100
AcDbEntity
  8
0
100
AcDbBlockEnd
  0
BLOCK
  5
198
330
ED
100
AcDbEntity
  8
0
100
AcDbBlockBegin
  2
F_P Handle Contemporary Square OB60-24 - Aluminium Dark-114234-View 1
 70
     0
 10
0.0
 20
0.0
 30
0.0
  3
F_P Handle Contemporary Square OB60-24 - Aluminium Dark-114234-View 1
  1

  0
SPLINE
  5
EE
330
ED
100
AcDbEntity
  8
FP_OB60S$Fisher _ Paykel-2
100
AcDbSpline
210
0.0
220
0.0
230
1.0
 70
    24
 71
     2
 72
     6
 73
     3
 74
     0
 42
0.0000000001
 43
0.0000000001
 40
-0.091840617625401
 40
-0.091840617625401
 40
-0.091840617625401
 40
0.0
 40
0.0
 40
0.0
 10
-282.4999999999999
 20
-27.99302025222224
 30
-6.721931543946349
 10
-282.4999999999999
 20
-13.99651012611113
 30
-6.721931543946351
 10
-282.4999999999999
 20
-0.0000000000000249
 30
-6.721931543946352
  0
SPLINE
  5
EF
330
ED
100
AcDbEntity
  8
FP_OB60S$Fisher _ Paykel-2
100
AcDbSpline
210
0.0
220
0.0
230
1.0
 70
    24
 71
     2
 72
     6
 73
     3
 74
     0
 42
0.0000000001
 43
0.0000000001
 40
-0.0043978086770327
 40
-0.0043978086770327
 40
-0.0043978086770327
 40
0.0000000000000002
 40
0.0000000000000002
 40
0.0000000000000002
 10
-282.4999999999999
 20
-0.0000000000000249
 30
-6.721931543946352
 10
-282.0260786205054
 20
-0.0000000000000251
 30
-7.195852923440929
 10
-281.5521572410108
 20
-0.0000000000000254
 30
-7.669774302935508
  0
SPLINE
  5
F0
330
ED
100
AcDbEntity
  8
FP_OB60S$Fisher _ Paykel-2
100
AcDbSpline
210
0.0
220
0.0
230
1.0
 70
    24
 71
     2
 72
     6
 73
     3
 74
     0
 42
0.0000000001
 43
0.0000000001
 40
-0.0914036630133118
 40
-0.0914036630133118
 40
-0.0914036630133118
 40
0.0
 40
0.0
 40
0.0
 10
-281.5521572410108
 20
-0.0000000000000254
 30
-7.669774302935508
 10
-281.5521572410108
 20
-13.92991824322875
 30
-7.669774302935459
 10
-281.5521572410109
 20
-27.85983648645747
 30
-7.66977430293541
  0
SPLINE
  5
F1
330
ED
100
AcDbEntity
  8
FP_OB60S$Fisher _ Paykel-2
100
AcDbSpline
210
0.707106781186576
220
1.287475816120718E-13
230
0.707106781186519
 70
    12
 71
     2
 72
     8
 73
     5
 74
     0
 42
0.0000000001
 43
0.0000000001
 40
0.0
 40
0.0
 40
0.0
 40
1.570796326794897
 40
1.570796326794897
 40
2.14644905690821
 40
2.14644905690821
 40
2.14644905690821
 10
-281.5521572410109
 20
-27.85983648645747
 30
-7.66977430293541
 41
1.0
 10
-281.5521572410109
 20
-28.25983648645748
 30
-7.669774302935394
 41
0.7071067811865475
 10
-281.952157241011
 20
-28.25983648645748
 30
-7.269774302935405
 41
1.0
 10
-282.0682748856522
 20
-28.25983648645748
 30
-7.153656658294206
 41
0.8926628626731852
 10
-282.1663429562984
 20
-28.19765963451985
 30
-7.05558858764788
 41
0.8639978168081638
  0
SPLINE
  5
F2
330
ED
100
AcDbEntity
  8
FP_OB60S$Fisher _ Paykel-2
100
AcDbSpline
210
-0.7071067811863831
220
5.610042797117270E-13
230
-0.707106781186712
 70
     8
 71
     3
 72
     9
 73
     5
 74
     0
 42
0.0000000001
 43
0.0000000001
 40
-1.0
 40
-1.0
 40
-1.0
 40
-1.0
 40
-0.5
 40
0.0
 40
0.0
 40
0.0
 40
0.0
 10
-282.1663429562984
 20
-28.19765963451986
 30
-7.055588587647881
 10
-282.2214442847223
 20
-28.1627245037208
 30
-7.000487259224017
 10
-282.3321551204297
 20
-28.09368280920545
 30
-6.889776423516578
 10
-282.4438823138566
 20
-28.02629824885571
 30
-6.778049230089645
 10
-282.4999999999999
 20
-27.99302025222224
 30
-6.721931543946349
  0
SPLINE
  5
F3
330
ED
100
AcDbEntity
  8
FP_OB60S$Fisher _ Paykel-2
100
AcDbSpline
210
0.0
220
0.0
230
1.0
 70
    24
 71
     2
 72
     6
 73
     3
 74
     0
 42
0.0000000001
 43
0.0000000001
 40
-0.091840617625401
 40
-0.091840617625401
 40
-0.091840617625401
 40
0.0
 40
0.0
 40
0.0
 10
-282.5
 20
-0.0000000000000006
 30
6.678077480197051
 10
-282.5
 20
-13.99651012611112
 30
6.678077480197051
 10
-282.5
 20
-27.99302025222223
 30
6.678077480197051
  0
SPLINE
  5
F4
330
ED
100
AcDbEntity
  8
FP_OB60S$Fisher _ Paykel-2
100
AcDbSpline
210
-0.7071067811869006
220
-1.134889091208955E-12
230
0.7071067811861944
 70
     8
 71
     3
 72
     9
 73
     5
 74
     0
 42
0.0000000001
 43
0.0000000001
 40
-1.0
 40
-1.0
 40
-1.0
 40
-1.0
 40
-0.5
 40
0.0
 40
0.0
 40
0.0
 40
0.0
 10
-282.5
 20
-27.99302025222223
 30
6.678077480197051
 10
-282.435276003696
 20
-28.03140186142706
 30
6.742801476501049
 10
-282.3065064920679
 20
-28.10926566861437
 30
6.871570988129147
 10
-282.1790939424
 20
-28.18933065335663
 30
6.998983537797045
 10
-282.115726908056
 20
-28.22991344011664
 30
7.062350572141064
  0
SPLINE
  5
F5
330
ED
100
AcDbEntity
  8
FP_OB60S$Fisher _ Paykel-2
100
AcDbSpline
210
-0.7071067811864966
220
-2.039985030199061E-14
230
0.7071067811865985
 70
    12
 71
     2
 72
     8
 73
     5
 74
     0
 42
0.0000000001
 43
0.0000000001
 40
0.9907598299379581
 40
0.9907598299379581
 40
0.9907598299379581
 40
1.570796326794897
 40
1.570796326794897
 40
3.141592653589793
 40
3.141592653589793
 40
3.141592653589793
 10
-282.115726908056
 20
-28.22991344011664
 30
7.062350572141065
 41
0.8635657935204983
 10
-282.0171090078987
 20
-28.29307246959693
 30
7.16096847229838
 41
0.8918454584495024
 10
-281.899999856949
 20
-28.29307246959693
 30
7.278077623248095
 41
1.0
 10
-281.4999998569489
 20
-28.29307246959693
 30
7.678077623248089
 41
0.7071067811865475
 10
-281.4999998569489
 20
-27.89307246959693
 30
7.6780776232481
 41
1.0
  0
SPLINE
  5
F6
330
ED
100
AcDbEntity
  8
FP_OB60S$Fisher _ Paykel-2
100
AcDbSpline
210
0.0
220
0.0
230
1.0
 70
    24
 71
     2
 72
     6
 73
     3
 74
     0
 42
0.0000000001
 43
0.0000000001
 40
-0.0915127049527459
 40
-0.0915127049527459
 40
-0.0915127049527459
 40
0.0
 40
0.0
 40
0.0
 10
-281.4999998569489
 20
-27.89307246959693
 30
7.6780776232481
 10
-281.4999998569489
 20
-13.94653623479847
 30
7.678077623248101
 10
-281.4999998569489
 20
0.0
 30
7.678077623248102
  0
SPLINE
  5
F7
330
ED
100
AcDbEntity
  8
FP_OB60S$Fisher _ Paykel-2
100
AcDbSpline
210
0.0
220
0.0
230
1.0
 70
    24
 71
     2
 72
     6
 73
     3
 74
     0
 42
0.0000000001
 43
0.0000000001
 40
-0.0046398089392316
 40
-0.0046398089392316
 40
-0.0046398089392316
 40
0.0
 40
0.0
 40
0.0
 10
-281.4999998569489
 20
0.0
 30
7.678077623248102
 10
-281.9999999284744
 20
-0.0000000000000003
 30
7.178077551722577
 10
-282.5
 20
-0.0000000000000006
 30
6.678077480197051
  0
ARC
  5
F8
330
ED
100
AcDbEntity
  8
FP_OB60S$Fisher _ Paykel-2
100
AcDbCircle
 10
27.89307246959693
 20
7.278077623248099
 30
182.4946225166319
 40
0.3999999999999977
210
-1.0
220
0.0
230
0.0
100
AcDbArc
 50
327.3628011143205
 51
89.99999999999949
  0
LINE
  5
F9
330
ED
100
AcDbEntity
  8
FP_OB60S$Fisher _ Paykel-2
100
AcDbLine
 10
-182.4946225166319
 20
-27.89307246959693
 30
7.678077623248099
 11
-281.4999998569489
 21
-27.89307246959693
 31
7.6780776232481
  0
LINE
  5
FA
330
ED
100
AcDbEntity
  8
FP_OB60S$Fisher _ Paykel-2
100
AcDbLine
 10
-282.115726908056
 20
-28.22991344011664
 30
7.062350572141064
 11
-182.4946225166319
 21
-28.22991344011664
 31
7.062350572141064
  0
ARC
  5
FB
330
ED
100
AcDbEntity
  8
FP_OB60S$Fisher _ Paykel-2
100
AcDbCircle
 10
27.85983648645748
 20
-7.269774302935417
 30
182.494622516632
 40
0.399999999999997
210
-1.0
220
0.0
230
0.0
100
AcDbArc
 50
269.999999999999
 51
32.37540377551592
  0
LINE
  5
FC
330
ED
100
AcDbEntity
  8
FP_OB60S$Fisher _ Paykel-2
100
AcDbLine
 10
-182.4946225166319
 20
-28.19765963451982
 30
-7.055588587647847
 11
-282.1663429562984
 21
-28.19765963451986
 31
-7.055588587647881
  0
LINE
  5
FD
330
ED
100
AcDbEntity
  8
FP_OB60S$Fisher _ Paykel-2
100
AcDbLine
 10
-281.5521572410109
 20
-27.85983648645747
 30
-7.66977430293541
 11
-182.4946225166319
 21
-27.85983648645747
 31
-7.669774302935418
  0
ARC
  5
FE
330
ED
100
AcDbEntity
  8
FP_OB60S$Fisher _ Paykel-2
100
AcDbCircle
 10
-39.29146057257936
 20
-0.0219270318746383
 30
-182.4946225166319
 40
13.13563147071554
210
1.0
220
0.0
230
0.0
100
AcDbArc
 50
327.624596224481
 51
32.63719888567983
  0
ARC
  5
FF
330
ED
100
AcDbEntity
  8
FP_OB60S$Fisher _ Paykel-2
100
AcDbCircle
 10
39.2914605725794
 20
-0.0219270318746259
 30
282.4999999999998
 40
13.13563147071557
210
-1.0
220
0.0
230
0.0
100
AcDbArc
 50
149.3319488326786
 51
210.6680511673216
  0
SPLINE
  5
100
330
ED
100
AcDbEntity
  8
FP_OB60S$Fisher _ Paykel-2
100
AcDbSpline
210
0.0
220
0.0
230
1.0
 70
    24
 71
     2
 72
     6
 73
     3
 74
     0
 42
0.0000000001
 43
0.0000000001
 40
-0.0915127049527459
 40
-0.0915127049527459
 40
-0.0915127049527459
 40
0.0
 40
0.0
 40
0.0
 10
-182.4946225166319
 20
-27.89307246959693
 30
7.678077623248099
 10
-182.4946225166319
 20
-13.94653623479847
 30
7.678077623248099
 10
-182.4946225166319
 20
0.0
 30
7.6780776232481
  0
SPLINE
  5
101
330
ED
100
AcDbEntity
  8
FP_OB60S$Fisher _ Paykel-2
100
AcDbSpline
210
0.0
220
0.0
230
1.0
 70
    24
 71
     2
 72
     6
 73
     3
 74
     0
 42
0.0000000001
 43
0.0000000001
 40
-0.3248207917989401
 40
-0.3248207917989401
 40
-0.3248207917989401
 40
0.0
 40
0.0
 40
0.0
 10
-182.4946225166319
 20
0.0
 30
7.6780776232481
 10
-231.9973111867904
 20
0.0
 30
7.678077623248101
 10
-281.4999998569489
 20
0.0
 30
7.678077623248102
  0
SPLINE
  5
102
330
ED
100
AcDbEntity
  8
FP_OB60S$Fisher _ Paykel-2
100
AcDbSpline
210
0.0
220
0.0
230
1.0
 70
    24
 71
     2
 72
     6
 73
     3
 74
     0
 42
0.0000000001
 43
0.0000000001
 40
-0.0503538449021772
 40
-0.0503538449021772
 40
-0.0503538449021772
 40
0.0
 40
0.0
 40
0.0
 10
-182.4946225166319
 20
0.0
 30
7.6780776232481
 10
-182.4946225166319
 20
-0.0000000000000127
 30
0.004151660156297
 10
-182.4946225166319
 20
-0.0000000000000254
 30
-7.669774302935506
  0
SPLINE
  5
103
330
ED
100
AcDbEntity
  8
FP_OB60S$Fisher _ Paykel-2
100
AcDbSpline
210
0.0
220
0.0
230
1.0
 70
    24
 71
     2
 72
     6
 73
     3
 74
     0
 42
0.0000000001
 43
0.0000000001
 40
-0.3249919118253899
 40
-0.3249919118253899
 40
-0.3249919118253899
 40
-0.0000000000000002
 40
-0.0000000000000002
 40
-0.0000000000000002
 10
-182.4946225166319
 20
-0.0000000000000254
 30
-7.669774302935506
 10
-232.0233898788214
 20
-0.0000000000000254
 30
-7.669774302935507
 10
-281.5521572410108
 20
-0.0000000000000254
 30
-7.669774302935508
  0
SPLINE
  5
104
330
ED
100
AcDbEntity
  8
FP_OB60S$Fisher _ Paykel-2
100
AcDbSpline
210
0.0
220
0.0
230
1.0
 70
    24
 71
     2
 72
     6
 73
     3
 74
     0
 42
0.0000000001
 43
0.0000000001
 40
-0.0914036630133119
 40
-0.0914036630133119
 40
-0.0914036630133119
 40
0.0
 40
0.0
 40
0.0
 10
-182.4946225166319
 20
-0.0000000000000254
 30
-7.669774302935506
 10
-182.4946225166319
 20
-13.92991824322875
 30
-7.669774302935462
 10
-182.4946225166319
 20
-27.85983648645747
 30
-7.669774302935418
  0
SPLINE
  5
105
330
ED
100
AcDbEntity
  8
FP_OB60S$Fisher _ Paykel-2
100
AcDbSpline
210
0.0
220
0.0
230
1.0
 70
    24
 71
     2
 72
     6
 73
     3
 74
     0
 42
0.0000000001
 43
0.0000000001
 40
0.0
 40
0.0
 40
0.0
 40
0.0439632841999455
 40
0.0439632841999455
 40
0.0439632841999455
 10
-282.5
 20
-0.0000000000000006
 30
6.678077480197051
 10
-282.4999999999999
 20
-0.0000000000000127
 30
-0.0219270318746503
 10
-282.4999999999999
 20
-0.0000000000000249
 30
-6.721931543946352
  0
LINE
  5
106
330
ED
100
AcDbEntity
  8
FP_OB60S$Fisher _ Paykel-2
100
AcDbLine
 10
-282.0260786205054
 20
-28.25294668685124
 30
-7.195852923440943
 11
-282.0260786205054
 21
-0.0000000000000293
 31
-7.195852923440943
  0
LINE
  5
107
330
ED
100
AcDbEntity
  8
FP_OB60S$Fisher _ Paykel-2
100
AcDbLine
 10
-281.5521572410108
 20
-14.12991824322875
 30
-7.669774302935458
 11
-282.4999999999999
 21
-14.12991824322875
 31
-6.721931543946362
  0
LINE
  5
108
330
ED
100
AcDbEntity
  8
FP_OB60S$Fisher _ Paykel-2
100
AcDbLine
 10
-281.9999999284744
 20
-28.28037078574981
 30
7.178077551722585
 11
-281.9999999284744
 21
0.0000000000000002
 31
7.178077551722585
  0
LINE
  5
109
330
ED
100
AcDbEntity
  8
FP_OB60S$Fisher _ Paykel-2
100
AcDbLine
 10
-282.4999999999999
 20
-14.14653623479847
 30
6.678077480197068
 11
-281.4999998569489
 21
-14.14653623479847
 31
7.678077623248103
  0
ARC
  5
10A
330
ED
100
AcDbEntity
  8
FP_OB60S$Fisher _ Paykel-2
100
AcDbCircle
 10
27.89307246959693
 20
7.278077623248101
 30
232.3051747123445
 40
0.3999999999999986
210
-1.0
220
0.0
230
0.0
100
AcDbArc
 50
327.3628011143203
 51
90.0
  0
LINE
  5
10B
330
ED
100
AcDbEntity
  8
FP_OB60S$Fisher _ Paykel-2
100
AcDbLine
 10
-182.494622516632
 20
-28.29307246959693
 30
7.278077623248101
 11
-281.899702423976
 21
-28.29307246959693
 31
7.278077623248101
  0
ARC
  5
10C
330
ED
100
AcDbEntity
  8
FP_OB60S$Fisher _ Paykel-2
100
AcDbCircle
 10
27.85983648645748
 20
-7.269774302935418
 30
232.3304827364645
 40
0.4000000000000021
210
-1.0
220
0.0
230
0.0
100
AcDbArc
 50
270.0
 51
32.3754037755129
  0
LINE
  5
10D
330
ED
100
AcDbEntity
  8
FP_OB60S$Fisher _ Paykel-2
100
AcDbLine
 10
-182.494622516632
 20
-28.25983648645748
 30
-7.269774302935418
 11
-281.9518652079996
 21
-28.25983648645748
 31
-7.269774302935418
  0
ARC
  5
10E
330
ED
100
AcDbEntity
  8
FP_OB60S$Fisher _ Paykel-2
100
AcDbCircle
 10
-39.29146057257932
 20
-0.0219270318746225
 30
-232.4973112583157
 40
13.13563147071551
210
1.0
220
0.0
230
0.0
100
AcDbArc
 50
327.6245962244807
 51
32.63719888567985
  0
LINE
  5
10F
330
ED
100
AcDbEntity
  8
FP_OB60S$Fisher _ Paykel-2
100
AcDbLine
 10
-282.4999999999999
 20
-26.15582910186381
 30
-0.0219270318746437
 11
-182.494622516632
 21
-26.15582910186381
 31
-0.0219270318746437
  0
LINE
  5
110
330
ED
100
AcDbEntity
  8
FP_OB60S$Fisher _ Paykel-2
100
AcDbLine
 10
-281.4999998569489
 20
-13.94653623479847
 30
7.6780776232481
 11
-182.494622516632
 21
-13.94653623479847
 31
7.6780776232481
  0
LINE
  5
111
330
ED
100
AcDbEntity
  8
FP_OB60S$Fisher _ Paykel-2
100
AcDbLine
 10
-231.9973111867905
 20
-27.89307246959694
 30
7.6780776232481
 11
-231.9973111867905
 21
-0.0000000000000004
 31
7.6780776232481
  0
LINE
  5
112
330
ED
100
AcDbEntity
  8
FP_OB60S$Fisher _ Paykel-2
100
AcDbLine
 10
-282.4999999999999
 20
-0.0000000000000127
 30
0.0041516601562996
 11
-182.494622516632
 21
-0.0000000000000127
 31
0.0041516601562996
  0
LINE
  5
113
330
ED
100
AcDbEntity
  8
FP_OB60S$Fisher _ Paykel-2
100
AcDbLine
 10
-232.497311258316
 20
0.0
 30
7.678077623248103
 11
-232.497311258316
 21
-0.0000000000000254
 31
-7.669774302935508
  0
LINE
  5
114
330
ED
100
AcDbEntity
  8
FP_OB60S$Fisher _ Paykel-2
100
AcDbLine
 10
-281.5521572410108
 20
-13.92991824322875
 30
-7.669774302935463
 11
-182.494622516632
 21
-13.92991824322875
 31
-7.669774302935463
  0
LINE
  5
115
330
ED
100
AcDbEntity
  8
FP_OB60S$Fisher _ Paykel-2
100
AcDbLine
 10
-232.0233898788215
 20
-0.0000000000000254
 30
-7.669774302935506
 11
-232.0233898788215
 21
-27.85983648645748
 31
-7.669774302935418
  0
LINE
  5
116
330
ED
100
AcDbEntity
  8
FP_OB60S$Fisher _ Paykel-2
100
AcDbLine
 10
-182.494622516632
 20
-14.17889780462844
 30
7.6780776232481
 11
-182.494622516632
 21
-14.17889780462844
 31
-7.669774302935463
  0
LINE
  5
117
330
ED
100
AcDbEntity
  8
FP_OB60S$Fisher _ Paykel-2
100
AcDbLine
 10
-182.494622516632
 20
-26.155854989422
 30
0.0041516601562969
 11
-182.494622516632
 21
-0.0000000000000162
 31
0.0041516601562969
  0
LINE
  5
118
330
ED
100
AcDbEntity
  8
FP_OB60S$Fisher _ Paykel-2
100
AcDbLine
 10
-282.4999999999999
 20
-13.99651012611112
 30
-6.721931543946357
 11
-282.4999999999999
 21
-13.99651012611112
 31
6.678077480197046
  0
LINE
  5
119
330
ED
100
AcDbEntity
  8
FP_OB60S$Fisher _ Paykel-2
100
AcDbLine
 10
-282.4999999999999
 20
-26.15582910186382
 30
-0.0219270318746548
 11
-282.4999999999999
 21
-0.0000000000000145
 31
-0.0219270318746548
  0
SPLINE
  5
11A
330
ED
100
AcDbEntity
  8
FP_OB60S$Fisher _ Paykel-2
100
AcDbSpline
210
0.0
220
0.0
230
1.0
 70
    24
 71
     2
 72
     6
 73
     3
 74
     0
 42
0.0000000001
 43
0.0000000001
 40
-0.0918406387123485
 40
-0.0918406387123485
 40
-0.0918406387123485
 40
0.0
 40
0.0
 40
0.0
 10
282.4999999999999
 20
-0.0000000000000249
 30
-6.721942382506871
 10
282.4999999999999
 20
-13.99651333976194
 30
-6.72194238250687
 10
282.4999999999999
 20
-27.99302667952385
 30
-6.721942382506869
  0
SPLINE
  5
11B
330
ED
100
AcDbEntity
  8
FP_OB60S$Fisher _ Paykel-2
100
AcDbSpline
210
-0.7071067811882921
220
5.816950943794724E-12
230
0.7071067811848032
 70
     8
 71
     3
 72
     9
 73
     5
 74
     0
 42
0.0000000001
 43
0.0000000001
 40
-1.0
 40
-1.0
 40
-1.0
 40
-1.0
 40
-0.5
 40
0.0
 40
0.0
 40
0.0
 40
0.0
 10
282.4999999999999
 20
-27.99302667952385
 30
-6.721942382506869
 10
282.4438841526039
 20
-28.02630365852921
 30
-6.778058229902898
 10
282.3321606043509
 20
-28.09368613003398
 30
-6.889781778155895
 10
282.2214533491766
 20
-28.1627256285265
 30
-7.000489033330227
 10
282.1663537948589
 20
-28.19765963451981
 30
-7.05558858764784
  0
SPLINE
  5
11C
330
ED
100
AcDbEntity
  8
FP_OB60S$Fisher _ Paykel-2
100
AcDbSpline
210
-0.7071067811865901
220
2.198129442158370E-14
230
0.7071067811865051
 70
    12
 71
     2
 72
     8
 73
     5
 74
     0
 42
0.0000000001
 43
0.0000000001
 40
0.9951435966812492
 40
0.9951435966812492
 40
0.9951435966812492
 40
1.570796326794897
 40
1.570796326794897
 40
3.141592653589793
 40
3.141592653589793
 40
3.141592653589793
 10
282.166353794859
 20
-28.19765963451981
 30
-7.055588587647841
 41
0.8639978168081306
 10
282.0682857242126
 20
-28.25983648645748
 30
-7.153656658294175
 41
0.892662862673123
 10
281.9521680795713
 20
-28.25983648645748
 30
-7.269774302935446
 41
1.0
 10
281.5521680795715
 20
-28.25983648645748
 30
-7.669774302935446
 41
0.7071067811865475
 10
281.5521680795715
 20
-27.85983648645748
 30
-7.669774302935402
 41
1.0
  0
SPLINE
  5
11D
330
ED
100
AcDbEntity
  8
FP_OB60S$Fisher _ Paykel-2
100
AcDbSpline
210
0.0
220
0.0
230
1.0
 70
    24
 71
     2
 72
     6
 73
     3
 74
     0
 42
0.0000000001
 43
0.0000000001
 40
-0.0914036630133119
 40
-0.0914036630133119
 40
-0.0914036630133119
 40
0.0
 40
0.0
 40
0.0
 10
281.5521680795715
 20
-27.85983648645748
 30
-7.669774302935402
 10
281.5521680795714
 20
-13.92991824322875
 30
-7.669774302935455
 10
281.5521680795713
 20
-0.0000000000000255
 30
-7.669774302935508
  0
SPLINE
  5
11E
330
ED
100
AcDbEntity
  8
FP_OB60S$Fisher _ Paykel-2
100
AcDbSpline
210
0.0
220
0.0
230
1.0
 70
    24
 71
     2
 72
     6
 73
     3
 74
     0
 42
0.0000000001
 43
0.0000000001
 40
-0.0043977583881899
 40
-0.0043977583881899
 40
-0.0043977583881899
 40
0.0
 40
0.0
 40
0.0
 10
281.5521680795713
 20
-0.0000000000000255
 30
-7.669774302935508
 10
282.0260840397856
 20
-0.0000000000000252
 30
-7.19585834272119
 10
282.4999999999999
 20
-0.0000000000000249
 30
-6.721942382506871
  0
SPLINE
  5
11F
330
ED
100
AcDbEntity
  8
FP_OB60S$Fisher _ Paykel-2
100
AcDbSpline
210
0.0
220
0.0
230
1.0
 70
    24
 71
     2
 72
     6
 73
     3
 74
     0
 42
0.0000000001
 43
0.0000000001
 40
-0.0918406387123485
 40
-0.0918406387123485
 40
-0.0918406387123485
 40
0.0
 40
0.0
 40
0.0
 10
282.4999999999999
 20
-27.99302667952384
 30
6.678088318757553
 10
282.4999999999999
 20
-13.99651333976192
 30
6.678088318757555
 10
282.4999999999999
 20
-0.0000000000000034
 30
6.678088318757557
  0
SPLINE
  5
120
330
ED
100
AcDbEntity
  8
FP_OB60S$Fisher _ Paykel-2
100
AcDbSpline
210
0.0
220
0.0
230
1.0
 70
    24
 71
     2
 72
     6
 73
     3
 74
     0
 42
0.0000000001
 43
0.0000000001
 40
-0.0046397586503889
 40
-0.0046397586503889
 40
-0.0046397586503889
 40
0.0
 40
0.0
 40
0.0
 10
282.4999999999999
 20
-0.0000000000000034
 30
6.678088318757557
 10
282.0000053477547
 20
-0.0000000000000017
 30
7.178082971002828
 10
281.5000106955094
 20
0.0
 30
7.6780776232481
  0
SPLINE
  5
121
330
ED
100
AcDbEntity
  8
FP_OB60S$Fisher _ Paykel-2
100
AcDbSpline
210
0.0
220
0.0
230
1.0
 70
    24
 71
     2
 72
     6
 73
     3
 74
     0
 42
0.0000000001
 43
0.0000000001
 40
-0.0915127049527458
 40
-0.0915127049527458
 40
-0.0915127049527458
 40
0.0
 40
0.0
 40
0.0
 10
281.5000106955094
 20
0.0
 30
7.6780776232481
 10
281.5000106955094
 20
-13.94653623479847
 30
7.6780776232481
 10
281.5000106955094
 20
-27.89307246959693
 30
7.6780776232481
  0
SPLINE
  5
122
330
ED
100
AcDbEntity
  8
FP_OB60S$Fisher _ Paykel-2
100
AcDbSpline
210
-0.7071067811865567
220
-1.880611199714930E-14
230
-0.7071067811865384
 70
    12
 71
     2
 72
     8
 73
     5
 74
     0
 42
0.0000000001
 43
0.0000000001
 40
0.0
 40
0.0
 40
0.0
 40
1.570796326794897
 40
1.570796326794897
 40
2.150832823651846
 40
2.150832823651846
 40
2.150832823651846
 10
281.5000106955094
 20
-27.89307246959693
 30
7.6780776232481
 41
1.0
 10
281.5000106955094
 20
-28.29307246959693
 30
7.678077623248111
 41
0.7071067811865475
 10
281.9000106955094
 20
-28.29307246959693
 30
7.278077623248111
 41
1.0
 10
282.0171198464591
 20
-28.29307246959693
 30
7.1609684722984
 41
0.8918454584495004
 10
282.1157377466164
 20
-28.22991344011668
 30
7.062350572141092
 41
0.8635657935204972
  0
SPLINE
  5
123
330
ED
100
AcDbEntity
  8
FP_OB60S$Fisher _ Paykel-2
100
AcDbSpline
210
-0.7071067811887756
220
7.095752599736040E-12
230
-0.7071067811843197
 70
     8
 71
     3
 72
     9
 73
     5
 74
     0
 42
0.0000000001
 43
0.0000000001
 40
-1.0
 40
-1.0
 40
-1.0
 40
-1.0
 40
-0.5
 40
0.0
 40
0.0
 40
0.0
 40
0.0
 10
282.1157377466164
 20
-28.22991344011668
 30
7.062350572141092
 10
282.1791030118803
 20
-28.18933178633698
 30
6.998985306877233
 10
282.3065119860415
 20
-28.1092690057918
 30
6.87157633271602
 10
282.4352778474694
 20
-28.03140727927509
 30
6.742810471288083
 10
282.4999999999999
 20
-27.99302667952384
 30
6.678088318757553
  0
ARC
  5
124
330
ED
100
AcDbEntity
  8
FP_OB60S$Fisher _ Paykel-2
100
AcDbCircle
 10
-27.89307246959693
 20
7.278077623248098
 30
182.505377674103
 40
0.4000000000000009
210
1.0
220
0.0
230
0.0
100
AcDbArc
 50
90.0000000000005
 51
212.6371988856767
  0
LINE
  5
125
330
ED
100
AcDbEntity
  8
FP_OB60S$Fisher _ Paykel-2
100
AcDbLine
 10
182.505377674103
 20
-28.22991344011665
 30
7.062350572141071
 11
282.1157377466164
 21
-28.22991344011668
 31
7.062350572141092
  0
LINE
  5
126
330
ED
100
AcDbEntity
  8
FP_OB60S$Fisher _ Paykel-2
100
AcDbLine
 10
281.5000106955094
 20
-27.89307246959693
 30
7.6780776232481
 11
182.505377674103
 21
-27.89307246959693
 31
7.6780776232481
  0
ARC
  5
127
330
ED
100
AcDbEntity
  8
FP_OB60S$Fisher _ Paykel-2
100
AcDbCircle
 10
-27.85983648645748
 20
-7.269774302935428
 30
182.505377674103
 40
0.3999999999999941
210
1.0
220
0.0
230
0.0
100
AcDbArc
 50
147.6245962244786
 51
270.0000000000005
  0
LINE
  5
128
330
ED
100
AcDbEntity
  8
FP_OB60S$Fisher _ Paykel-2
100
AcDbLine
 10
182.505377674103
 20
-27.85983648645748
 30
-7.669774302935419
 11
281.5521680795715
 21
-27.85983648645748
 31
-7.669774302935402
  0
LINE
  5
129
330
ED
100
AcDbEntity
  8
FP_OB60S$Fisher _ Paykel-2
100
AcDbLine
 10
282.1663537948589
 20
-28.19765963451981
 30
-7.05558858764784
 11
182.505377674103
 21
-28.1976596345198
 31
-7.055588587647835
  0
ARC
  5
12A
330
ED
100
AcDbEntity
  8
FP_OB60S$Fisher _ Paykel-2
100
AcDbCircle
 10
-39.29146057257937
 20
-0.0219270318746657
 30
182.505377674103
 40
13.13563147071555
210
1.0
220
0.0
230
0.0
100
AcDbArc
 50
327.6245962244812
 51
32.63719888567997
  0
ARC
  5
12B
330
ED
100
AcDbEntity
  8
FP_OB60S$Fisher _ Paykel-2
100
AcDbCircle
 10
39.29146057257939
 20
-0.0219270318746453
 30
-282.4999999999996
 40
13.13563147071558
210
-1.0
220
0.0
230
0.0
100
AcDbArc
 50
149.3318938689905
 51
210.6681061310096
  0
SPLINE
  5
12C
330
ED
100
AcDbEntity
  8
FP_OB60S$Fisher _ Paykel-2
100
AcDbSpline
210
0.0
220
0.0
230
1.0
 70
    24
 71
     2
 72
     6
 73
     3
 74
     0
 42
0.0000000001
 43
0.0000000001
 40
-0.0915127049527459
 40
-0.0915127049527459
 40
-0.0915127049527459
 40
0.0
 40
0.0
 40
0.0
 10
182.505377674103
 20
0.0
 30
7.6780776232481
 10
182.505377674103
 20
-13.94653623479847
 30
7.6780776232481
 10
182.505377674103
 20
-27.89307246959693
 30
7.6780776232481
  0
SPLINE
  5
12D
330
ED
100
AcDbEntity
  8
FP_OB60S$Fisher _ Paykel-2
100
AcDbSpline
210
0.0
220
0.0
230
1.0
 70
    24
 71
     2
 72
     6
 73
     3
 74
     0
 42
0.0000000001
 43
0.0000000001
 40
-0.3247855414088137
 40
-0.3247855414088137
 40
-0.3247855414088137
 40
0.0
 40
0.0
 40
0.0
 10
281.5000106955094
 20
0.0
 30
7.6780776232481
 10
232.0026941848062
 20
0.0
 30
7.6780776232481
 10
182.505377674103
 20
0.0
 30
7.6780776232481
  0
SPLINE
  5
12E
330
ED
100
AcDbEntity
  8
FP_OB60S$Fisher _ Paykel-2
100
AcDbSpline
210
0.0
220
0.0
230
1.0
 70
    24
 71
     2
 72
     6
 73
     3
 74
     0
 42
0.0000000001
 43
0.0000000001
 40
-0.0503538449021772
 40
-0.0503538449021772
 40
-0.0503538449021772
 40
0.0
 40
0.0
 40
0.0
 10
182.505377674103
 20
-0.0000000000000255
 30
-7.669774302935508
 10
182.505377674103
 20
-0.0000000000000128
 30
0.0041516601562961
 10
182.505377674103
 20
0.0
 30
7.6780776232481
  0
SPLINE
  5
12F
330
ED
100
AcDbEntity
  8
FP_OB60S$Fisher _ Paykel-2
100
AcDbSpline
210
0.0
220
0.0
230
1.0
 70
    24
 71
     2
 72
     6
 73
     3
 74
     0
 42
0.0000000001
 43
0.0000000001
 40
-0.3249566614352635
 40
-0.3249566614352635
 40
-0.3249566614352635
 40
0.0
 40
0.0
 40
0.0
 10
281.5521680795713
 20
-0.0000000000000255
 30
-7.669774302935508
 10
232.0287728768371
 20
-0.0000000000000255
 30
-7.669774302935508
 10
182.505377674103
 20
-0.0000000000000255
 30
-7.669774302935508
  0
SPLINE
  5
130
330
ED
100
AcDbEntity
  8
FP_OB60S$Fisher _ Paykel-2
100
AcDbSpline
210
0.0
220
0.0
230
1.0
 70
    24
 71
     2
 72
     6
 73
     3
 74
     0
 42
0.0000000001
 43
0.0000000001
 40
0.0
 40
0.0
 40
0.0
 40
0.0914036630133119
 40
0.0914036630133119
 40
0.0914036630133119
 10
182.505377674103
 20
-0.0000000000000255
 30
-7.669774302935508
 10
182.505377674103
 20
-13.92991824322875
 30
-7.669774302935464
 10
182.505377674103
 20
-27.85983648645748
 30
-7.669774302935419
  0
SPLINE
  5
131
330
ED
100
AcDbEntity
  8
FP_OB60S$Fisher _ Paykel-2
100
AcDbSpline
210
0.0
220
0.0
230
1.0
 70
    24
 71
     2
 72
     6
 73
     3
 74
     0
 42
0.0000000001
 43
0.0000000001
 40
0.0
 40
0.0
 40
0.0
 40
0.043963355319109
 40
0.043963355319109
 40
0.043963355319109
 10
282.4999999999999
 20
-0.0000000000000249
 30
-6.721942382506871
 10
282.4999999999999
 20
-0.0000000000000141
 30
-0.0219270318746569
 10
282.4999999999999
 20
-0.0000000000000034
 30
6.678088318757557
  0
LINE
  5
132
330
ED
100
AcDbEntity
  8
FP_OB60S$Fisher _ Paykel-2
100
AcDbLine
 10
282.0260840397856
 20
-28.25294770586693
 30
-7.195858342721182
 11
282.0260840397856
 21
-0.0000000000000293
 31
-7.195858342721182
  0
LINE
  5
133
330
ED
100
AcDbEntity
  8
FP_OB60S$Fisher _ Paykel-2
100
AcDbLine
 10
282.4999999999999
 20
-14.12991824322875
 30
-6.721942382506871
 11
281.5521680795714
 21
-14.12991824322875
 31
-7.669774302935428
  0
LINE
  5
134
330
ED
100
AcDbEntity
  8
FP_OB60S$Fisher _ Paykel-2
100
AcDbLine
 10
282.0000053477547
 20
-28.28037218496258
 30
7.178082971002818
 11
282.0000053477547
 21
0.0000000000000002
 31
7.178082971002818
  0
LINE
  5
135
330
ED
100
AcDbEntity
  8
FP_OB60S$Fisher _ Paykel-2
100
AcDbLine
 10
281.5000106955094
 20
-14.14653623479847
 30
7.678077623248083
 11
282.4999999999999
 21
-14.14653623479847
 31
6.678088318757554
  0
ARC
  5
136
330
ED
100
AcDbEntity
  8
FP_OB60S$Fisher _ Paykel-2
100
AcDbCircle
 10
-27.89307246959693
 20
7.278077623248101
 30
232.3105577103597
 40
0.3999999999999986
210
1.0
220
0.0
230
0.0
100
AcDbArc
 50
90.0
 51
212.637198885675
  0
LINE
  5
137
330
ED
100
AcDbEntity
  8
FP_OB60S$Fisher _ Paykel-2
100
AcDbLine
 10
182.505377674103
 20
-28.29307246959693
 30
7.278077623248101
 11
281.8997132625365
 21
-28.29307246959693
 31
7.278077623248101
  0
ARC
  5
138
330
ED
100
AcDbEntity
  8
FP_OB60S$Fisher _ Paykel-2
100
AcDbCircle
 10
-27.85983648645748
 20
-7.269774302935418
 30
232.3358657344816
 40
0.4000000000000021
210
1.0
220
0.0
230
0.0
100
AcDbArc
 50
147.6245962244809
 51
270.0
  0
LINE
  5
139
330
ED
100
AcDbEntity
  8
FP_OB60S$Fisher _ Paykel-2
100
AcDbLine
 10
182.505377674103
 20
-28.25983648645748
 30
-7.269774302935418
 11
281.95187604656
 21
-28.25983648645748
 31
-7.269774302935418
  0
ARC
  5
13A
330
ED
100
AcDbEntity
  8
FP_OB60S$Fisher _ Paykel-2
100
AcDbCircle
 10
39.29146057257932
 20
-0.0219270318746649
 30
-232.5026888370503
 40
13.13563147071551
210
-1.0
220
0.0
230
0.0
100
AcDbArc
 50
147.3628011143198
 51
212.3754037755189
  0
LINE
  5
13B
330
ED
100
AcDbEntity
  8
FP_OB60S$Fisher _ Paykel-2
100
AcDbLine
 10
282.4999999999999
 20
-26.15582910186381
 30
-0.0219270318746437
 11
182.505377674103
 21
-26.15582910186381
 31
-0.0219270318746437
  0
LINE
  5
13C
330
ED
100
AcDbEntity
  8
FP_OB60S$Fisher _ Paykel-2
100
AcDbLine
 10
281.5000106955094
 20
-13.94653623479847
 30
7.6780776232481
 11
182.505377674103
 21
-13.94653623479847
 31
7.6780776232481
  0
LINE
  5
13D
330
ED
100
AcDbEntity
  8
FP_OB60S$Fisher _ Paykel-2
100
AcDbLine
 10
232.0026941848062
 20
0.0
 30
7.6780776232481
 11
232.0026941848062
 21
-27.89307246959693
 31
7.6780776232481
  0
LINE
  5
13E
330
ED
100
AcDbEntity
  8
FP_OB60S$Fisher _ Paykel-2
100
AcDbLine
 10
282.4999999999999
 20
-0.0000000000000127
 30
0.0041516601562961
 11
182.505377674103
 21
-0.0000000000000127
 31
0.0041516601562961
  0
LINE
  5
13F
330
ED
100
AcDbEntity
  8
FP_OB60S$Fisher _ Paykel-2
100
AcDbLine
 10
232.5026888370515
 20
-0.0000000000000254
 30
-7.669774302935508
 11
232.5026888370515
 21
0.0
 31
7.6780776232481
  0
LINE
  5
140
330
ED
100
AcDbEntity
  8
FP_OB60S$Fisher _ Paykel-2
100
AcDbLine
 10
281.5521680795714
 20
-13.92991824322875
 30
-7.669774302935463
 11
182.505377674103
 21
-13.92991824322875
 31
-7.669774302935463
  0
LINE
  5
141
330
ED
100
AcDbEntity
  8
FP_OB60S$Fisher _ Paykel-2
100
AcDbLine
 10
232.0287728768373
 20
-27.85983648645748
 30
-7.669774302935418
 11
232.0287728768373
 21
-0.0000000000000242
 31
-7.669774302935507
  0
LINE
  5
142
330
ED
100
AcDbEntity
  8
FP_OB60S$Fisher _ Paykel-2
100
AcDbLine
 10
182.505377674103
 20
-14.17889780462844
 30
7.678077623248103
 11
182.505377674103
 21
-14.17889780462844
 31
-7.669774302935462
  0
LINE
  5
143
330
ED
100
AcDbEntity
  8
FP_OB60S$Fisher _ Paykel-2
100
AcDbLine
 10
182.505377674103
 20
-0.0000000000000142
 30
0.004151660156297
 11
182.505377674103
 21
-26.155854989422
 31
0.004151660156297
  0
LINE
  5
144
330
ED
100
AcDbEntity
  8
FP_OB60S$Fisher _ Paykel-2
100
AcDbLine
 10
282.4999999999999
 20
-13.99651333976193
 30
-6.721942382506866
 11
282.4999999999999
 21
-13.99651333976193
 31
6.678088318757546
  0
LINE
  5
145
330
ED
100
AcDbEntity
  8
FP_OB60S$Fisher _ Paykel-2
100
AcDbLine
 10
282.4999999999999
 20
-0.0000000000000142
 30
-0.0219270318746592
 11
282.4999999999999
 21
-26.15582910186381
 31
-0.0219270318746592
  0
SPLINE
  5
146
330
ED
100
AcDbEntity
  8
FP_OB60S$Fisher _ Paykel-2
100
AcDbSpline
210
0.0
220
0.0
230
1.0
 70
    24
 71
     2
 72
     6
 73
     3
 74
     0
 42
0.0000000001
 43
0.0000000001
 40
-0.0060317507581529
 40
-0.0060317507581529
 40
-0.0060317507581529
 40
0.0000000000000001
 40
0.0000000000000001
 40
0.0000000000000001
 10
-282.4999999999999
 20
-40.50001630783081
 30
6.678077480196962
 10
-281.8499999999999
 20
-40.50001630783081
 30
7.328077480196963
 10
-281.1999999999999
 20
-40.50001630783081
 30
7.978077480196965
  0
SPLINE
  5
147
330
ED
100
AcDbEntity
  8
FP_OB60S$Fisher _ Paykel-2
100
AcDbSpline
210
0.0
220
0.0
230
1.0
 70
    24
 71
     2
 72
     6
 73
     3
 74
     0
 42
0.0000000001
 43
0.0000000001
 40
-0.0360448468017258
 40
-0.0360448468017258
 40
-0.0360448468017258
 40
0.0
 40
0.0
 40
0.0
 10
-281.1999999999999
 20
-40.50001630783081
 30
7.978077480196965
 10
-281.1999999999999
 20
-35.00678165524781
 30
7.97807748019696
 10
-281.1999999999999
 20
-29.51354700266479
 30
7.978077480196956
  0
SPLINE
  5
148
330
ED
100
AcDbEntity
  8
FP_OB60S$Fisher _ Paykel-2
100
AcDbSpline
210
0.7071067811865561
220
1.957936427882407E-14
230
-0.707106781186539
 70
    12
 71
     2
 72
     6
 73
     3
 74
     0
 42
0.0000000001
 43
0.0000000001
 40
0.0
 40
0.0
 40
0.0
 40
0.9402202361386548
 40
0.9402202361386548
 40
0.9402202361386548
 10
-281.1999999999999
 20
-29.51354700266479
 30
7.978077480196956
 41
1.0
 10
-281.1999999999999
 20
-29.00032340702211
 30
7.97807748019697
 41
0.824685016982375
 10
-281.6169681500276
 20
-28.70109770460505
 30
7.56110933016934
 41
0.8592440856412136
  0
SPLINE
  5
149
330
ED
100
AcDbEntity
  8
FP_OB60S$Fisher _ Paykel-2
100
AcDbSpline
210
-0.7071067811858678
220
2.050691195803430E-12
230
0.7071067811872274
 70
    12
 71
     2
 72
     6
 73
     3
 74
     0
 42
0.0000000001
 43
0.0000000001
 40
0.9402202361384941
 40
0.9402202361384941
 40
0.9402202361384941
 40
1.017914916049264
 40
1.017914916049264
 40
1.017914916049264
 10
-281.6169681500276
 20
-28.70109770460505
 30
7.561109330169341
 41
0.8592440856412018
 10
-282.0466997531005
 20
-28.39271266183409
 30
7.131377727096292
 41
0.8620998588677887
 10
-282.4999999999999
 20
-28.12015171186954
 30
6.678077480197027
 41
0.8663887506595076
  0
SPLINE
  5
14A
330
ED
100
AcDbEntity
  8
FP_OB60S$Fisher _ Paykel-2
100
AcDbSpline
210
0.0
220
0.0
230
1.0
 70
    24
 71
     2
 72
     6
 73
     3
 74
     0
 42
0.0000000001
 43
0.0000000001
 40
-0.0406163536612902
 40
-0.0406163536612902
 40
-0.0406163536612902
 40
0.0
 40
0.0
 40
0.0
 10
-282.4999999999999
 20
-28.12015171186954
 30
6.678077480197027
 10
-282.4999999999999
 20
-34.31008400985018
 30
6.678077480196995
 10
-282.4999999999999
 20
-40.50001630783081
 30
6.678077480196962
  0
LINE
  5
14B
330
ED
100
AcDbEntity
  8
FP_OB60S$Fisher _ Paykel-2
100
AcDbLine
 10
-282.5
 20
-40.7000163078308
 30
6.478077480196951
 11
-281.2
 21
-42.00001630783081
 31
6.478077480196953
  0
ARC
  5
14C
330
ED
100
AcDbEntity
  8
FP_OB60S$Fisher _ Paykel-2
100
AcDbCircle
 10
40.5000163078308
 20
6.478077480196981
 30
281.2
 40
1.500000000000006
210
-1.0
220
0.0
230
0.0
100
AcDbArc
 50
359.9999999999989
 51
89.99999999999947
  0
ARC
  5
14D
330
ED
100
AcDbEntity
  8
FP_OB60S$Fisher _ Paykel-2
100
AcDbCircle
 10
-40.50001630783082
 20
6.478077480196963
 30
-282.4999999999999
 40
0.2000000000000028
210
1.0
220
0.0
230
0.0
100
AcDbArc
 50
89.99999999999797
 51
180.0000000000038
  0
SPLINE
  5
14E
330
ED
100
AcDbEntity
  8
FP_OB60S$Fisher _ Paykel-2
100
AcDbSpline
210
0.0
220
0.0
230
1.0
 70
    24
 71
     2
 72
     6
 73
     3
 74
     0
 42
0.0000000001
 43
0.0000000001
 40
-0.0060317507581529
 40
-0.0060317507581529
 40
-0.0060317507581529
 40
0.0
 40
0.0
 40
0.0
 10
-282.4999999999999
 20
-40.70001630783082
 30
-6.52193154394624
 10
-281.8499999999999
 20
-41.35001630783081
 30
-6.52193154394624
 10
-281.2
 20
-42.00001630783081
 30
-6.52193154394624
  0
SPLINE
  5
14F
330
ED
100
AcDbEntity
  8
FP_OB60S$Fisher _ Paykel-2
100
AcDbSpline
210
0.0
220
0.0
230
1.0
 70
    24
 71
     2
 72
     6
 73
     3
 74
     0
 42
0.0000000001
 43
0.0000000001
 40
-0.0426509482419396
 40
-0.0426509482419396
 40
-0.0426509482419396
 40
0.0
 40
0.0
 40
0.0
 10
-281.2
 20
-42.00001630783081
 30
-6.52193154394624
 10
-281.2
 20
-42.00001630783081
 30
-0.0219270318746436
 10
-281.2
 20
-42.00001630783081
 30
6.478077480196953
  0
SPLINE
  5
150
330
ED
100
AcDbEntity
  8
FP_OB60S$Fisher _ Paykel-2
100
AcDbSpline
210
0.0
220
0.0
230
1.0
 70
    24
 71
     2
 72
     6
 73
     3
 74
     0
 42
0.0000000001
 43
0.0000000001
 40
-0.0426509482419396
 40
-0.0426509482419396
 40
-0.0426509482419396
 40
0.0
 40
0.0
 40
0.0
 10
-282.5
 20
-40.7000163078308
 30
6.478077480196951
 10
-282.4999999999999
 20
-40.70001630783081
 30
-0.0219270318746441
 10
-282.4999999999999
 20
-40.70001630783082
 30
-6.52193154394624
  0
LINE
  5
151
330
ED
100
AcDbEntity
  8
FP_OB60S$Fisher _ Paykel-2
100
AcDbLine
 10
-282.4999999999999
 20
-40.50001630783081
 30
-6.721931543946248
 11
-281.1999999999999
 21
-40.50001630783083
 31
-8.021931543946238
  0
ARC
  5
152
330
ED
100
AcDbEntity
  8
FP_OB60S$Fisher _ Paykel-2
100
AcDbCircle
 10
40.50001630783084
 20
-6.52193154394625
 30
281.1999999999999
 40
1.499999999999986
210
-1.0
220
0.0
230
0.0
100
AcDbArc
 50
269.9999999999997
 51
359.9999999999999
  0
ARC
  5
153
330
ED
100
AcDbEntity
  8
FP_OB60S$Fisher _ Paykel-2
100
AcDbCircle
 10
-40.5000163078308
 20
-6.52193154394624
 30
-282.4999999999999
 40
0.2000000000000162
210
1.0
220
0.0
230
0.0
100
AcDbArc
 50
180.0
 51
270.0
  0
SPLINE
  5
154
330
ED
100
AcDbEntity
  8
FP_OB60S$Fisher _ Paykel-2
100
AcDbSpline
210
0.0
220
0.0
230
1.0
 70
    24
 71
     2
 72
     6
 73
     3
 74
     0
 42
0.0000000001
 43
0.0000000001
 40
-0.0406885974871735
 40
-0.0406885974871735
 40
-0.0406885974871735
 40
0.0
 40
0.0
 40
0.0
 10
-282.4999999999999
 20
-40.50001630783081
 30
-6.721931543946248
 10
-282.4999999999999
 20
-34.29907405078558
 30
-6.721931543946283
 10
-282.4999999999999
 20
-28.09813179374034
 30
-6.721931543946319
  0
SPLINE
  5
155
330
ED
100
AcDbEntity
  8
FP_OB60S$Fisher _ Paykel-2
100
AcDbSpline
210
-0.7071067811868295
220
-7.824463861273374E-13
230
-0.7071067811862656
 70
    12
 71
     2
 72
     6
 73
     3
 74
     0
 42
0.0000000001
 43
0.0000000001
 40
2.120514397979684
 40
2.120514397979684
 40
2.120514397979684
 40
2.197789643787674
 40
2.197789643787674
 40
2.197789643787674
 10
-282.4999999999999
 20
-28.09813179374034
 30
-6.721931543946319
 41
0.8667403708896237
 10
-282.0484242890487
 20
-28.36763909483857
 30
-7.173507254897584
 41
0.8624165982098928
 10
-281.6200217393712
 20
-28.67264083826996
 30
-7.601909804575102
 41
0.8595105125036657
  0
SPLINE
  5
156
330
ED
100
AcDbEntity
  8
FP_OB60S$Fisher _ Paykel-2
100
AcDbSpline
210
-0.7071067811865759
220
-9.013772857432508E-14
230
-0.7071067811865192
 70
    12
 71
     2
 72
     6
 73
     3
 74
     0
 42
0.0000000001
 43
0.0000000001
 40
2.19778964378769
 40
2.19778964378769
 40
2.19778964378769
 40
3.141592653589793
 40
3.141592653589793
 40
3.141592653589793
 10
-281.6200217393712
 20
-28.67264083826996
 30
-7.6019098045751
 41
0.8595105125036645
 10
-281.2
 20
-28.97167585307952
 30
-8.021931543946275
 41
0.8240169672214561
 10
-281.1999999999999
 20
-29.48727279025683
 30
-8.021931543946266
 41
1.0
  0
SPLINE
  5
157
330
ED
100
AcDbEntity
  8
FP_OB60S$Fisher _ Paykel-2
100
AcDbSpline
210
0.0
220
0.0
230
1.0
 70
    24
 71
     2
 72
     6
 73
     3
 74
     0
 42
0.0000000001
 43
0.0000000001
 40
-0.0361310482860039
 40
-0.0361310482860039
 40
-0.0361310482860039
 40
0.0000000000000001
 40
0.0000000000000001
 40
0.0000000000000001
 10
-281.1999999999999
 20
-29.48727279025683
 30
-8.021931543946266
 10
-281.1999999999999
 20
-34.99364454904383
 30
-8.021931543946252
 10
-281.1999999999999
 20
-40.50001630783083
 30
-8.021931543946238
  0
SPLINE
  5
158
330
ED
100
AcDbEntity
  8
FP_OB60S$Fisher _ Paykel-2
100
AcDbSpline
210
0.0
220
0.0
230
1.0
 70
    24
 71
     2
 72
     6
 73
     3
 74
     0
 42
0.0000000001
 43
0.0000000001
 40
-0.0060317004693094
 40
-0.0060317004693094
 40
-0.0060317004693094
 40
0.0
 40
0.0
 40
0.0
 10
282.4999999999999
 20
-40.50001630783081
 30
-6.721942382506887
 10
281.8500054192808
 20
-40.50001630783083
 30
-7.371936963226555
 10
281.2000108385617
 20
-40.50001630783084
 30
-8.021931543946224
  0
SPLINE
  5
159
330
ED
100
AcDbEntity
  8
FP_OB60S$Fisher _ Paykel-2
100
AcDbSpline
210
0.0
220
0.0
230
1.0
 70
    24
 71
     2
 72
     6
 73
     3
 74
     0
 42
0.0000000001
 43
0.0000000001
 40
-0.036131048286004
 40
-0.036131048286004
 40
-0.036131048286004
 40
0.0
 40
0.0
 40
0.0
 10
281.2000108385617
 20
-40.50001630783084
 30
-8.021931543946224
 10
281.2000108385612
 20
-34.99364454904384
 30
-8.021931543946234
 10
281.2000108385606
 20
-29.48727279025683
 30
-8.021931543946247
  0
SPLINE
  5
15A
330
ED
100
AcDbEntity
  8
FP_OB60S$Fisher _ Paykel-2
100
AcDbSpline
210
-0.7071067811865418
220
-1.218077413166502E-14
230
0.7071067811865533
 70
    12
 71
     2
 72
     6
 73
     3
 74
     0
 42
0.0000000001
 43
0.0000000001
 40
3.141592653589793
 40
3.141592653589793
 40
3.141592653589793
 40
4.085395663391804
 40
4.085395663391804
 40
4.085395663391804
 10
281.2000108385606
 20
-29.48727279025683
 30
-8.021931543946247
 41
1.0
 10
281.2000108385606
 20
-28.97167585307957
 30
-8.021931543946295
 41
0.8240169672214734
 10
281.6200325779317
 20
-28.67264083827001
 30
-7.601909804575174
 41
0.8595105125036575
  0
SPLINE
  5
15B
330
ED
100
AcDbEntity
  8
FP_OB60S$Fisher _ Paykel-2
100
AcDbSpline
210
-0.7071067811859699
220
-1.705935553571626E-12
230
0.7071067811871251
 70
    12
 71
     2
 72
     6
 73
     3
 74
     0
 42
0.0000000001
 43
0.0000000001
 40
4.085395663391901
 40
4.085395663391901
 40
4.085395663391901
 40
4.162669977183723
 40
4.162669977183723
 40
4.162669977183723
 10
281.6200325779317
 20
-28.67264083827
 30
-7.601909804575174
 41
0.8595105125036648
 10
282.0484299780601
 20
-28.3676427610667
 30
-7.173512404446733
 41
0.8624165631596135
 10
282.5
 20
-28.09813826236637
 30
-6.721942382506904
 41
0.8667402665918479
  0
SPLINE
  5
15C
330
ED
100
AcDbEntity
  8
FP_OB60S$Fisher _ Paykel-2
100
AcDbSpline
210
0.0
220
0.0
230
1.0
 70
    24
 71
     2
 72
     6
 73
     3
 74
     0
 42
0.0000000001
 43
0.0000000001
 40
-0.0406885762646471
 40
-0.0406885762646471
 40
-0.0406885762646471
 40
0.0
 40
0.0
 40
0.0
 10
282.5
 20
-28.09813826236638
 30
-6.721942382506904
 10
282.5
 20
-34.29907728509859
 30
-6.721942382506896
 10
282.4999999999999
 20
-40.50001630783081
 30
-6.721942382506887
  0
LINE
  5
15D
330
ED
100
AcDbEntity
  8
FP_OB60S$Fisher _ Paykel-2
100
AcDbLine
 10
282.5
 20
-40.70002714639148
 30
-6.521931543946238
 11
281.2000108385628
 21
-42.0000163078308
 31
-6.52193154394624
  0
ARC
  5
15E
330
ED
100
AcDbEntity
  8
FP_OB60S$Fisher _ Paykel-2
100
AcDbCircle
 10
-40.50001630783082
 20
-6.521931543946224
 30
281.2000108385628
 40
1.499999999999991
210
1.0
220
0.0
230
0.0
100
AcDbArc
 50
180.0000000000006
 51
269.9999999999989
  0
ARC
  5
15F
330
ED
100
AcDbEntity
  8
FP_OB60S$Fisher _ Paykel-2
100
AcDbCircle
 10
40.50001630783079
 20
-6.521931543946188
 30
-282.5
 40
0.2000108385606936
210
-1.0
220
0.0
230
0.0
100
AcDbArc
 50
270.0000000000061
 51
359.9999999999862
  0
SPLINE
  5
160
330
ED
100
AcDbEntity
  8
FP_OB60S$Fisher _ Paykel-2
100
AcDbSpline
210
0.0
220
0.0
230
1.0
 70
    24
 71
     2
 72
     6
 73
     3
 74
     0
 42
0.0000000001
 43
0.0000000001
 40
-0.0060317004693094
 40
-0.0060317004693094
 40
-0.0060317004693094
 40
0.0
 40
0.0
 40
0.0
 10
282.4999999999999
 20
-40.70002714639149
 30
6.478077480196952
 10
281.8500054192813
 20
-41.35002172711115
 30
6.478077480196954
 10
281.2000108385627
 20
-42.0000163078308
 30
6.478077480196956
  0
SPLINE
  5
161
330
ED
100
AcDbEntity
  8
FP_OB60S$Fisher _ Paykel-2
100
AcDbSpline
210
0.0
220
0.0
230
1.0
 70
    24
 71
     2
 72
     6
 73
     3
 74
     0
 42
0.0000000001
 43
0.0000000001
 40
-0.0426509482419396
 40
-0.0426509482419396
 40
-0.0426509482419396
 40
0.0
 40
0.0
 40
0.0
 10
281.2000108385627
 20
-42.0000163078308
 30
6.478077480196956
 10
281.2000108385628
 20
-42.0000163078308
 30
-0.0219270318746423
 10
281.2000108385628
 20
-42.0000163078308
 30
-6.52193154394624
  0
SPLINE
  5
162
330
ED
100
AcDbEntity
  8
FP_OB60S$Fisher _ Paykel-2
100
AcDbSpline
210
0.0
220
0.0
230
1.0
 70
    24
 71
     2
 72
     6
 73
     3
 74
     0
 42
0.0000000001
 43
0.0000000001
 40
-0.0426509482419396
 40
-0.0426509482419396
 40
-0.0426509482419396
 40
0.0
 40
0.0
 40
0.0
 10
282.5
 20
-40.70002714639148
 30
-6.521931543946238
 10
282.4999999999999
 20
-40.70002714639148
 30
-0.0219270318746427
 10
282.4999999999999
 20
-40.70002714639149
 30
6.478077480196952
  0
LINE
  5
163
330
ED
100
AcDbEntity
  8
FP_OB60S$Fisher _ Paykel-2
100
AcDbLine
 10
282.4999999999999
 20
-40.50001630783081
 30
6.678088318757633
 11
281.2000108385618
 21
-40.50001630783081
 31
7.978077480196923
  0
ARC
  5
164
330
ED
100
AcDbEntity
  8
FP_OB60S$Fisher _ Paykel-2
100
AcDbCircle
 10
-40.50001630783081
 20
6.478077480196934
 30
281.2000108385618
 40
1.499999999999993
210
1.0
220
0.0
230
0.0
100
AcDbArc
 50
89.99999999999973
 51
179.9999999999991
  0
ARC
  5
165
330
ED
100
AcDbEntity
  8
FP_OB60S$Fisher _ Paykel-2
100
AcDbCircle
 10
40.50001630783082
 20
6.478077480196948
 30
-282.4999999999999
 40
0.2000108385606758
210
-1.0
220
0.0
230
0.0
100
AcDbArc
 50
0.0000000000012722
 51
90.00000000000203
  0
SPLINE
  5
166
330
ED
100
AcDbEntity
  8
FP_OB60S$Fisher _ Paykel-2
100
AcDbSpline
210
0.0
220
0.0
230
1.0
 70
    24
 71
     2
 72
     6
 73
     3
 74
     0
 42
0.0000000001
 43
0.0000000001
 40
-0.0406163322799561
 40
-0.0406163322799561
 40
-0.0406163322799561
 40
0.0
 40
0.0
 40
0.0
 10
282.4999999999999
 20
-40.50001630783081
 30
6.678088318757633
 10
282.4999999999999
 20
-34.31008726836549
 30
6.678088318757593
 10
282.5
 20
-28.12015822890017
 30
6.678088318757553
  0
SPLINE
  5
167
330
ED
100
AcDbEntity
  8
FP_OB60S$Fisher _ Paykel-2
100
AcDbSpline
210
0.7071067811861192
220
1.086004663390154E-12
230
0.7071067811869758
 70
    12
 71
     2
 72
     6
 73
     3
 74
     0
 42
0.0000000001
 43
0.0000000001
 40
5.265271324604425
 40
5.265271324604425
 40
5.265271324604425
 40
5.342965071041109
 40
5.342965071041109
 40
5.342965071041109
 10
282.5
 20
-28.12015822890017
 30
6.678088318757554
 41
0.8663886476006781
 10
282.0467054456907
 20
-28.39271635469794
 30
7.131382873066676
 41
0.8620998245566823
 10
281.6169789885879
 20
-28.70109770460514
 30
7.561109330169474
 41
0.8592440856412006
  0
SPLINE
  5
168
330
ED
100
AcDbEntity
  8
FP_OB60S$Fisher _ Paykel-2
100
AcDbSpline
210
0.7071067811865186
220
1.835565401139978E-13
230
0.7071067811865765
 70
    12
 71
     2
 72
     6
 73
     3
 74
     0
 42
0.0000000001
 43
0.0000000001
 40
5.34296507104111
 40
5.34296507104111
 40
5.34296507104111
 40
6.283185307179586
 40
6.283185307179586
 40
6.283185307179586
 10
281.6169789885879
 20
-28.70109770460513
 30
7.561109330169473
 41
0.8592440856412005
 10
281.2000108385604
 20
-29.0003234070222
 30
7.978077480196974
 41
0.8246850169824083
 10
281.2000108385606
 20
-29.5135470026648
 30
7.978077480196937
 41
1.0
  0
SPLINE
  5
169
330
ED
100
AcDbEntity
  8
FP_OB60S$Fisher _ Paykel-2
100
AcDbSpline
210
0.0
220
0.0
230
1.0
 70
    24
 71
     2
 72
     6
 73
     3
 74
     0
 42
0.0000000001
 43
0.0000000001
 40
-0.0360448468017258
 40
-0.0360448468017258
 40
-0.0360448468017258
 40
0.0
 40
0.0
 40
0.0
 10
281.2000108385606
 20
-29.5135470026648
 30
7.978077480196937
 10
281.2000108385612
 20
-35.00678165524781
 30
7.97807748019693
 10
281.2000108385618
 20
-40.50001630783081
 30
7.978077480196923
  0
LINE
  5
16A
330
ED
100
AcDbEntity
  8
FP_OB60S$Fisher _ Paykel-2
100
AcDbLine
 10
-281.6200217393712
 20
-28.67264083826996
 30
-7.601909804575101
 11
281.6200325779317
 21
-28.67264083827
 31
-7.601909804575174
  0
SPLINE
  5
16B
330
ED
100
AcDbEntity
  8
FP_OB60S$Fisher _ Paykel-2
100
AcDbSpline
210
0.0
220
0.0
230
1.0
 70
    24
 71
     2
 72
     6
 73
     3
 74
     0
 42
0.0000000001
 43
0.0000000001
 40
-1.845144392514962
 40
-1.845144392514962
 40
-1.845144392514962
 40
0.0
 40
0.0
 40
0.0
 10
281.2000108385617
 20
-40.50001630783084
 30
-8.021931543946224
 10
0.0000054192808818
 20
-40.50001630783083
 30
-8.02193154394623
 10
-281.1999999999999
 20
-40.50001630783083
 30
-8.021931543946238
  0
SPLINE
  5
16C
330
ED
100
AcDbEntity
  8
FP_OB60S$Fisher _ Paykel-2
100
AcDbSpline
210
0.0
220
0.0
230
1.0
 70
    24
 71
     2
 72
     6
 73
     3
 74
     0
 42
0.0000000001
 43
0.0000000001
 40
-0.0000000000000002
 40
-0.0000000000000002
 40
-0.0000000000000002
 40
1.845144392514963
 40
1.845144392514963
 40
1.845144392514963
 10
-281.1999999999999
 20
-29.48727279025683
 30
-8.021931543946266
 10
0.0000054192803418
 20
-29.48727279025683
 30
-8.021931543946256
 10
281.2000108385606
 20
-29.48727279025683
 30
-8.021931543946247
  0
SPLINE
  5
16D
330
ED
100
AcDbEntity
  8
FP_OB60S$Fisher _ Paykel-2
100
AcDbSpline
210
0.0
220
0.0
230
1.0
 70
    24
 71
     2
 72
     6
 73
     3
 74
     0
 42
0.0000000001
 43
0.0000000001
 40
-1.845144392514962
 40
-1.845144392514962
 40
-1.845144392514962
 40
0.0
 40
0.0
 40
0.0
 10
281.2000108385627
 20
-42.0000163078308
 30
6.478077480196956
 10
0.000005419281365
 20
-42.0000163078308
 30
6.478077480196955
 10
-281.2
 20
-42.00001630783081
 30
6.478077480196953
  0
SPLINE
  5
16E
330
ED
100
AcDbEntity
  8
FP_OB60S$Fisher _ Paykel-2
100
AcDbSpline
210
0.0
220
0.0
230
1.0
 70
    24
 71
     2
 72
     6
 73
     3
 74
     0
 42
0.0000000001
 43
0.0000000001
 40
-0.0000000000000002
 40
-0.0000000000000002
 40
-0.0000000000000002
 40
1.845144392514962
 40
1.845144392514962
 40
1.845144392514962
 10
-281.2
 20
-42.00001630783081
 30
-6.52193154394624
 10
0.0000054192813934
 20
-42.0000163078308
 30
-6.52193154394624
 10
281.2000108385628
 20
-42.0000163078308
 30
-6.52193154394624
  0
SPLINE
  5
16F
330
ED
100
AcDbEntity
  8
FP_OB60S$Fisher _ Paykel-2
100
AcDbSpline
210
0.0
220
0.0
230
1.0
 70
    24
 71
     2
 72
     6
 73
     3
 74
     0
 42
0.0000000001
 43
0.0000000001
 40
-1.845144392514963
 40
-1.845144392514963
 40
-1.845144392514963
 40
-0.0000000000000002
 40
-0.0000000000000002
 40
-0.0000000000000002
 10
281.2000108385606
 20
-29.5135470026648
 30
7.978077480196937
 10
0.0000054192803418
 20
-29.51354700266479
 30
7.978077480196946
 10
-281.1999999999999
 20
-29.51354700266479
 30
7.978077480196956
  0
SPLINE
  5
170
330
ED
100
AcDbEntity
  8
FP_OB60S$Fisher _ Paykel-2
100
AcDbSpline
210
0.0
220
0.0
230
1.0
 70
    24
 71
     2
 72
     6
 73
     3
 74
     0
 42
0.0000000001
 43
0.0000000001
 40
0.0
 40
0.0
 40
0.0
 40
1.845144392514963
 40
1.845144392514963
 40
1.845144392514963
 10
-281.1999999999999
 20
-40.50001630783081
 30
7.978077480196965
 10
0.0000054192809102
 20
-40.50001630783081
 30
7.978077480196944
 10
281.2000108385618
 20
-40.50001630783081
 30
7.978077480196923
  0
LINE
  5
171
330
ED
100
AcDbEntity
  8
FP_OB60S$Fisher _ Paykel-2
100
AcDbLine
 10
281.6169789885879
 20
-28.70109770460513
 30
7.561109330169473
 11
-281.6169681500276
 21
-28.70109770460505
 31
7.561109330169341
  0
ARC
  5
172
330
ED
100
AcDbEntity
  8
FP_OB60S$Fisher _ Paykel-2
100
AcDbCircle
 10
-39.29359740877265
 20
-0.0403061835170633
 30
282.4999999999992
 40
13.03773629870245
210
1.0
220
0.0
230
0.0
100
AcDbArc
 50
329.1705448285895
 51
31.01776071188223
  0
ARC
  5
173
330
ED
100
AcDbEntity
  8
FP_OB60S$Fisher _ Paykel-2
100
AcDbCircle
 10
39.29359740877265
 20
-0.0403061835170479
 30
282.4999999999998
 40
13.03773629870242
210
-1.0
220
0.0
230
0.0
100
AcDbArc
 50
148.9822948666718
 51
210.8293997021718
  0
LINE
  5
174
330
ED
100
AcDbEntity
  8
FP_OB60S$Fisher _ Paykel-2
100
AcDbLine
 10
-281.85
 20
-40.5000163078308
 30
7.328077480196963
 11
-281.85
 21
-28.53769251988415
 31
7.328077480196963
  0
LINE
  5
175
330
ED
100
AcDbEntity
  8
FP_OB60S$Fisher _ Paykel-2
100
AcDbLine
 10
-282.4999999999999
 20
-34.31008400985018
 30
6.678077480196976
 11
-281.1999999999999
 21
-34.31008400985018
 31
7.978077480196971
  0
ARC
  5
176
330
ED
100
AcDbEntity
  8
FP_OB60S$Fisher _ Paykel-2
100
AcDbCircle
 10
-40.5000163078308
 20
6.478077480196953
 30
-281.8499999999999
 40
0.8500000000000548
210
1.0
220
0.0
230
0.0
100
AcDbArc
 50
90.00000000000192
 51
180.0000000000004
  0
LINE
  5
177
330
ED
100
AcDbEntity
  8
FP_OB60S$Fisher _ Paykel-2
100
AcDbLine
 10
-282.4999999999999
 20
-40.66181970670582
 30
6.595634530655457
 11
-281.1999999999999
 21
-41.71354179939328
 31
7.359755358635645
  0
LINE
  5
178
330
ED
100
AcDbEntity
  8
FP_OB60S$Fisher _ Paykel-2
100
AcDbLine
 10
-281.85
 20
-41.3500163078308
 30
-6.521931543946238
 11
-281.85
 21
-41.3500163078308
 31
6.478077480196953
  0
LINE
  5
179
330
ED
100
AcDbEntity
  8
FP_OB60S$Fisher _ Paykel-2
100
AcDbLine
 10
-282.4999999999999
 20
-40.70001630783081
 30
-0.0219270318746432
 11
-281.2
 21
-42.0000163078308
 31
-0.0219270318746432
  0
ARC
  5
17A
330
ED
100
AcDbEntity
  8
FP_OB60S$Fisher _ Paykel-2
100
AcDbCircle
 10
-40.50001630783081
 20
-6.521931543946234
 30
-281.8499999999999
 40
0.8500000000000182
210
1.0
220
0.0
230
0.0
100
AcDbArc
 50
180.0000000000013
 51
269.999999999999
  0
LINE
  5
17B
330
ED
100
AcDbEntity
  8
FP_OB60S$Fisher _ Paykel-2
100
AcDbLine
 10
-282.4999999999998
 20
-40.61757335828932
 30
-6.683734942821241
 11
-281.2
 21
-41.38169418626951
 31
-7.7354570355087
  0
LINE
  5
17C
330
ED
100
AcDbEntity
  8
FP_OB60S$Fisher _ Paykel-2
100
AcDbLine
 10
-281.85
 20
-28.51260314252737
 30
-7.371931543946268
 11
-281.85
 21
-40.50001630783083
 31
-7.371931543946235
  0
LINE
  5
17D
330
ED
100
AcDbEntity
  8
FP_OB60S$Fisher _ Paykel-2
100
AcDbLine
 10
-282.4999999999999
 20
-34.29907405078559
 30
-6.721931543946272
 11
-281.1999999999999
 21
-34.2990740507856
 31
-8.021931543946241
  0
LINE
  5
17E
330
ED
100
AcDbEntity
  8
FP_OB60S$Fisher _ Paykel-2
100
AcDbLine
 10
281.8500054192803
 20
-40.50001630783083
 30
-7.371936963226585
 11
281.8500054192803
 21
-28.51260682791609
 31
-7.371936963226619
  0
LINE
  5
17F
330
ED
100
AcDbEntity
  8
FP_OB60S$Fisher _ Paykel-2
100
AcDbLine
 10
282.4999999999999
 20
-34.2990772850986
 30
-6.72194238250692
 11
281.2000108385607
 21
-34.29907728509861
 31
-8.02193154394622
  0
ARC
  5
180
330
ED
100
AcDbEntity
  8
FP_OB60S$Fisher _ Paykel-2
100
AcDbCircle
 10
-40.5000163078308
 20
-6.521931543946238
 30
281.8500054192803
 40
0.8500054192803415
210
1.0
220
0.0
230
0.0
100
AcDbArc
 50
180.0000000000007
 51
269.9999999999981
  0
LINE
  5
181
330
ED
100
AcDbEntity
  8
FP_OB60S$Fisher _ Paykel-2
100
AcDbLine
 10
282.5
 20
-40.66182847528557
 30
-6.639494965150834
 11
281.2000108385606
 21
-41.71354179939321
 31
-7.403609422384931
  0
LINE
  5
182
330
ED
100
AcDbEntity
  8
FP_OB60S$Fisher _ Paykel-2
100
AcDbLine
 10
281.8500054192803
 20
-41.35002172711115
 30
6.478077480196953
 11
281.8500054192803
 21
-41.35002172711115
 31
-6.521931543946238
  0
LINE
  5
183
330
ED
100
AcDbEntity
  8
FP_OB60S$Fisher _ Paykel-2
100
AcDbLine
 10
282.4999999999999
 20
-40.70002714639149
 30
-0.0219270318746423
 11
281.2000108385606
 21
-42.00001630783081
 31
-0.0219270318746423
  0
ARC
  5
184
330
ED
100
AcDbEntity
  8
FP_OB60S$Fisher _ Paykel-2
100
AcDbCircle
 10
-40.50001630783081
 20
6.478077480196953
 30
281.8500054192803
 40
0.850005419280355
210
1.0
220
0.0
230
0.0
100
AcDbArc
 50
90.00000000000097
 51
179.9999999999997
  0
LINE
  5
185
330
ED
100
AcDbEntity
  8
FP_OB60S$Fisher _ Paykel-2
100
AcDbLine
 10
282.4999999999999
 20
-40.61757972903542
 30
6.639889647651716
 11
281.2000108385607
 21
-41.38169418626953
 31
7.691602971759329
  0
LINE
  5
186
330
ED
100
AcDbEntity
  8
FP_OB60S$Fisher _ Paykel-2
100
AcDbLine
 10
281.8500054192803
 20
-28.53769623238983
 30
7.328082899477288
 11
281.8500054192803
 21
-40.50001630783081
 31
7.328082899477288
  0
LINE
  5
187
330
ED
100
AcDbEntity
  8
FP_OB60S$Fisher _ Paykel-2
100
AcDbLine
 10
282.5
 20
-34.31008726836549
 30
6.678088318757617
 11
281.2000108385607
 21
-34.31008726836549
 31
7.978077480196913
  0
ARC
  5
188
330
ED
100
AcDbEntity
  8
FP_OB60S$Fisher _ Paykel-2
100
AcDbCircle
 10
-29.48727279025681
 20
-7.021931543946265
 30
0.0000054192787502
 40
1.0
210
1.0
220
0.0
230
0.0
100
AcDbArc
 50
269.9999999999998
 51
324.5509863777551
  0
LINE
  5
189
330
ED
100
AcDbEntity
  8
FP_OB60S$Fisher _ Paykel-2
100
AcDbLine
 10
281.2000108385607
 20
-34.99364454904384
 30
-8.021931543946252
 11
-281.2
 21
-34.99364454904384
 31
-8.021931543946252
  0
LINE
  5
18A
330
ED
100
AcDbEntity
  8
FP_OB60S$Fisher _ Paykel-2
100
AcDbLine
 10
0.0000054192803987
 20
-40.50001630783084
 30
-8.021931543946234
 11
0.0000054192803987
 21
-29.48727279025684
 31
-8.021931543946266
  0
ARC
  5
18B
330
ED
100
AcDbEntity
  8
FP_OB60S$Fisher _ Paykel-2
100
AcDbCircle
 10
-40.50001630783081
 20
-6.521931543946235
 30
0.0000054192933021
 40
1.5
210
1.0
220
0.0
230
0.0
100
AcDbArc
 50
179.9999999999999
 51
270.0
  0
LINE
  5
18C
330
ED
100
AcDbEntity
  8
FP_OB60S$Fisher _ Paykel-2
100
AcDbLine
 10
281.2000108385606
 20
-42.00001630783081
 30
-0.0219270318746423
 11
-281.2
 21
-42.00001630783081
 31
-0.0219270318746423
  0
LINE
  5
18D
330
ED
100
AcDbEntity
  8
FP_OB60S$Fisher _ Paykel-2
100
AcDbLine
 10
0.0000054192803418
 20
-42.00001630783081
 30
6.478077480196953
 11
0.0000054192803418
 21
-42.00001630783081
 31
-6.521931543946238
  0
ARC
  5
18E
330
ED
100
AcDbEntity
  8
FP_OB60S$Fisher _ Paykel-2
100
AcDbCircle
 10
-40.50001630783081
 20
6.478077480196956
 30
0.0000054192787502
 40
1.5
210
1.0
220
0.0
230
0.0
100
AcDbArc
 50
90.0
 51
179.9999999999999
  0
LINE
  5
18F
330
ED
100
AcDbEntity
  8
FP_OB60S$Fisher _ Paykel-2
100
AcDbLine
 10
281.2000108385607
 20
-35.00678165524781
 30
7.978077480196953
 11
-281.1999999999999
 21
-35.00678165524781
 31
7.978077480196953
  0
LINE
  5
190
330
ED
100
AcDbEntity
  8
FP_OB60S$Fisher _ Paykel-2
100
AcDbLine
 10
0.0000054192804555
 20
-29.5135470026648
 30
7.978077480196953
 11
0.0000054192804555
 21
-40.50001630783081
 31
7.978077480196953
  0
ARC
  5
191
330
ED
100
AcDbEntity
  8
FP_OB60S$Fisher _ Paykel-2
100
AcDbCircle
 10
-29.5135470026648
 20
6.978077480196954
 30
0.0000054192787502
 40
1.0
210
1.0
220
0.0
230
0.0
100
AcDbArc
 50
35.66407058555369
 51
90.0
  0
ARC
  5
192
330
ED
100
AcDbEntity
  8
FP_OB60S$Fisher _ Paykel-2
100
AcDbCircle
 10
-39.29359740877263
 20
-0.0403061835170365
 30
0.0
 40
13.03773629870241
210
1.0
220
0.0
230
0.0
100
AcDbArc
 50
324.550986377763
 51
35.66407058555906
  0
LINE
  5
193
330
ED
100
AcDbEntity
  8
FP_OB60S$Fisher _ Paykel-2
100
AcDbLine
 10
-282.4999999999999
 20
-26.25586111007022
 30
-0.0403061835170576
 11
282.4999999999998
 21
-26.25586111007022
 31
-0.0403061835170576
  0
LINE
  5
194
330
ED
100
AcDbEntity
  8
FP_OB60S$Fisher _ Paykel-2
100
AcDbLine
 10
-282.4999999999999
 20
-32.39777325261206
 30
6.678077480197016
 11
-282.4999999999999
 21
-32.39777325261206
 31
-6.721931543946306
  0
LINE
  5
195
330
ED
100
AcDbEntity
  8
FP_OB60S$Fisher _ Paykel-2
100
AcDbLine
 10
-282.4999999999999
 20
-26.25587406451935
 30
-0.021927031874639
 11
-282.4999999999999
 21
-40.7000163078308
 31
-0.021927031874639
  0
LINE
  5
196
330
ED
100
AcDbEntity
  8
FP_OB60S$Fisher _ Paykel-2
100
AcDbLine
 10
282.4999999999999
 20
-32.39777426050355
 30
-6.721942382506907
 11
282.4999999999999
 21
-32.39777426050355
 31
6.678088318757579
  0
LINE
  5
197
330
ED
100
AcDbEntity
  8
FP_OB60S$Fisher _ Paykel-2
100
AcDbLine
 10
282.4999999999999
 20
-26.25587406451933
 30
-0.0219270318746332
 11
282.4999999999999
 21
-40.7000271463915
 31
-0.0219270318746332
  0
ENDBLK
  5
199
330
ED
100
AcDbEntity
  8
0
100
AcDbBlockEnd
  0
BLOCK
  5
29D
330
256
100
AcDbEntity
  8
0
100
AcDbBlockBegin
  2
FamilyGeomCombination_81130-View 1
 70
     0
 10
0.0
 20
0.0
 30
0.0
  3
FamilyGeomCombination_81130-View 1
  1

  0
SPLINE
  5
257
330
256
100
AcDbEntity
  8
FP_OB60S$Fisher _ Paykel-1
100
AcDbSpline
210
0.0
220
0.0
230
1.0
 70
    24
 71
     2
 72
     6
 73
     3
 74
     0
 42
0.0000000001
 43
0.0000000001
 40
-0.0565948341704096
 40
-0.0565948341704096
 40
-0.0565948341704096
 40
0.0
 40
0.0
 40
0.0
 10
278.0
 20
293.9583107471477
 30
575.0000000000005
 10
278.0
 20
300.8395502569489
 30
569.7999925613402
 10
278.0
 20
307.7207897667502
 30
564.59998512268
  0
SPLINE
  5
258
330
256
100
AcDbEntity
  8
FP_OB60S$Fisher _ Paykel-1
100
AcDbSpline
210
0.0
220
0.0
230
1.0
 70
    24
 71
     2
 72
     6
 73
     3
 74
     0
 42
0.0000000001
 43
0.0000000001
 40
-1.824146981627297
 40
-1.824146981627297
 40
-1.824146981627297
 40
0.0
 40
0.0
 40
0.0
 10
278.0
 20
307.7207897667502
 30
564.59998512268
 10
0.0
 20
307.7207897667502
 30
564.59998512268
 10
-278.0
 20
307.7207897667502
 30
564.59998512268
  0
SPLINE
  5
259
330
256
100
AcDbEntity
  8
FP_OB60S$Fisher _ Paykel-1
100
AcDbSpline
210
0.0
220
0.0
230
1.0
 70
    24
 71
     2
 72
     6
 73
     3
 74
     0
 42
0.0000000001
 43
0.0000000001
 40
-0.0565948341704096
 40
-0.0565948341704096
 40
-0.0565948341704096
 40
0.0
 40
0.0
 40
0.0
 10
-278.0
 20
307.7207897667502
 30
564.59998512268
 10
-278.0
 20
300.8395502569489
 30
569.7999925613402
 10
-278.0
 20
293.9583107471477
 30
575.0000000000005
  0
SPLINE
  5
25A
330
256
100
AcDbEntity
  8
FP_OB60S$Fisher _ Paykel-1
100
AcDbSpline
210
0.0
220
0.0
230
1.0
 70
    24
 71
     2
 72
     6
 73
     3
 74
     0
 42
0.0000000001
 43
0.0000000001
 40
-1.824146981627297
 40
-1.824146981627297
 40
-1.824146981627297
 40
0.0
 40
0.0
 40
0.0
 10
-278.0
 20
293.9583107471477
 30
575.0000000000005
 10
0.0
 20
293.9583107471477
 30
575.0000000000005
 10
278.0
 20
293.9583107471477
 30
575.0000000000005
  0
SPLINE
  5
25B
330
256
100
AcDbEntity
  8
FP_OB60S$Fisher _ Paykel-1
100
AcDbSpline
210
0.0
220
0.0
230
1.0
 70
    24
 71
     2
 72
     6
 73
     3
 74
     0
 42
0.0000000001
 43
0.0000000001
 40
-1.503477540150692
 40
-1.503477540150692
 40
-1.503477540150692
 40
0.0
 40
0.0
 40
0.0
 10
-229.1299725770937
 20
494.999981975556
 30
459.7299691200251
 10
0.0000045418717036
 20
494.999981975556
 30
459.7299691200251
 10
229.1299816608371
 20
494.999981975556
 30
459.7299691200251
  0
SPLINE
  5
25C
330
256
100
AcDbEntity
  8
FP_OB60S$Fisher _ Paykel-1
100
AcDbSpline
210
0.0
220
0.0
230
1.0
 70
    24
 71
     2
 72
     6
 73
     3
 74
     0
 42
0.0000000001
 43
0.0000000001
 40
-0.1704776671340404
 40
-0.1704776671340404
 40
-0.1704776671340404
 40
-0.0000001002567311
 40
-0.0000001002567311
 40
-0.0000001002567311
 10
229.1299816608371
 20
494.999981975556
 30
459.7299691200251
 10
214.1299706458116
 20
509.9999929905408
 30
444.7299581049994
 10
199.1299596307861
 20
525.0000040055256
 30
429.7299470899737
  0
SPLINE
  5
25D
330
256
100
AcDbEntity
  8
FP_OB60S$Fisher _ Paykel-1
100
AcDbSpline
210
0.0
220
0.0
230
1.0
 70
    24
 71
     2
 72
     6
 73
     3
 74
     0
 42
0.0000000001
 43
0.0000000001
 40
78.87004036923159
 40
78.87004036923159
 40
78.87004036923159
 40
163.3834591633565
 40
163.3834591633565
 40
163.3834591633565
 10
199.1299596307861
 20
525.0000040055256
 30
429.7299470899737
 10
156.873250233744
 20
525.0000040056334
 30
429.7299470897709
 10
114.6165408367021
 20
525.0000040057413
 30
429.7299470895681
  0
SPLINE
  5
25E
330
256
100
AcDbEntity
  8
FP_OB60S$Fisher _ Paykel-1
100
AcDbSpline
210
0.0
220
0.0
230
1.0
 70
    24
 71
     2
 72
     6
 73
     3
 74
     0
 42
0.0000000001
 43
0.0000000001
 40
-0.1136516050289839
 40
-0.1136516050289839
 40
-0.1136516050289839
 40
0.0000000000000006
 40
0.0000000000000006
 40
0.0000000000000006
 10
114.6165408367021
 20
525.0000040057413
 30
429.7299470895681
 10
104.6165428397163
 20
535.0000020028629
 30
419.7299490925822
 10
94.61654484273045
 20
544.9999999999843
 30
409.7299510955963
  0
SPLINE
  5
25F
330
256
100
AcDbEntity
  8
FP_OB60S$Fisher _ Paykel-1
100
AcDbSpline
210
0.0
220
0.0
230
1.0
 70
    24
 71
     2
 72
     6
 73
     3
 74
     0
 42
0.0000000001
 43
0.0000000001
 40
-0.8981184363366009
 40
-0.8981184363366009
 40
-0.8981184363366009
 40
0.0000000000000005
 40
0.0000000000000005
 40
0.0000000000000005
 10
94.61654484273045
 20
544.9999999999843
 30
409.7299510955963
 10
-42.25670485496757
 20
544.9999999999843
 30
409.7299510955963
 10
-179.1299545526656
 20
544.9999999999843
 30
409.7299510955964
  0
SPLINE
  5
260
330
256
100
AcDbEntity
  8
FP_OB60S$Fisher _ Paykel-1
100
AcDbSpline
210
0.0
220
0.0
230
1.0
 70
    24
 71
     2
 72
     6
 73
     3
 74
     0
 42
0.0000000001
 43
0.0000000001
 40
-0.2841291719083653
 40
-0.2841291719083653
 40
-0.2841291719083653
 40
-0.0000000000000004
 40
-0.0000000000000004
 40
-0.0000000000000004
 10
-179.1299545526656
 20
544.9999999999843
 30
409.7299510955964
 10
-204.1299635648797
 20
519.9999909877702
 30
434.7299601078107
 10
-229.1299725770937
 20
494.999981975556
 30
459.7299691200251
  0
SPLINE
  5
261
330
256
100
AcDbEntity
  8
FP_OB60S$Fisher _ Paykel-1
100
AcDbSpline
210
0.0
220
0.0
230
1.0
 70
    24
 71
     2
 72
     6
 73
     3
 74
     0
 42
0.0000000001
 43
0.0000000001
 40
-0.8981184363366006
 40
-0.8981184363366006
 40
-0.8981184363366006
 40
0.0000000000000002
 40
0.0000000000000002
 40
0.0000000000000002
 10
94.61654484273039
 20
544.9999999999844
 30
213.9898447513412
 10
-42.25670485496756
 20
544.9999999999843
 30
213.9898447513411
 10
-179.1299545526655
 20
544.9999999999843
 30
213.9898447513411
  0
SPLINE
  5
262
330
256
100
AcDbEntity
  8
FP_OB60S$Fisher _ Paykel-1
100
AcDbSpline
210
0.0
220
0.0
230
1.0
 70
    24
 71
     2
 72
     6
 73
     3
 74
     0
 42
0.0000000001
 43
0.0000000001
 40
-0.6421919499483437
 40
-0.6421919499483437
 40
-0.6421919499483437
 40
0.0000000000000004
 40
0.0000000000000004
 40
0.0000000000000004
 10
-179.1299545526655
 20
544.9999999999843
 30
213.9898447513411
 10
-179.1299545526655
 20
544.9999999999843
 30
311.8598979234687
 10
-179.1299545526656
 20
544.9999999999843
 30
409.7299510955964
  0
SPLINE
  5
263
330
256
100
AcDbEntity
  8
FP_OB60S$Fisher _ Paykel-1
100
AcDbSpline
210
0.0
220
0.0
230
1.0
 70
    24
 71
     2
 72
     6
 73
     3
 74
     0
 42
0.0000000001
 43
0.0000000001
 40
-0.6421919499483437
 40
-0.6421919499483437
 40
-0.6421919499483437
 40
-0.0000000000000003
 40
-0.0000000000000003
 40
-0.0000000000000003
 10
94.61654484273045
 20
544.9999999999843
 30
409.7299510955963
 10
94.61654484273042
 20
544.9999999999843
 30
311.8598979234687
 10
94.61654484273039
 20
544.9999999999844
 30
213.9898447513412
  0
SPLINE
  5
264
330
256
100
AcDbEntity
  8
FP_OB60S$Fisher _ Paykel-1
100
AcDbSpline
210
0.0
220
0.0
230
1.0
 70
    24
 71
     2
 72
     6
 73
     3
 74
     0
 42
0.0000000001
 43
0.0000000001
 40
-1.029352005854658
 40
-1.029352005854658
 40
-1.029352005854658
 40
-0.0000000000000009
 40
-0.0000000000000009
 40
-0.0000000000000009
 10
114.6165408372824
 20
525.0000040054324
 30
193.9898487567891
 10
-42.25670485496735
 20
525.0000040054324
 30
193.9898487567892
 10
-199.1299505472171
 20
525.0000040054325
 30
193.9898487567893
  0
SPLINE
  5
265
330
256
100
AcDbEntity
  8
FP_OB60S$Fisher _ Paykel-1
100
AcDbSpline
210
0.0
220
0.0
230
1.0
 70
    24
 71
     2
 72
     6
 73
     3
 74
     0
 42
0.0000000001
 43
0.0000000001
 40
-0.113651605031949
 40
-0.113651605031949
 40
-0.113651605031949
 40
-0.0000000000000015
 40
-0.0000000000000015
 40
-0.0000000000000015
 10
-199.1299505472171
 20
525.0000040054325
 30
193.9898487567893
 10
-189.1299525499413
 20
535.0000020027085
 30
203.9898467540652
 10
-179.1299545526655
 20
544.9999999999843
 30
213.9898447513411
  0
SPLINE
  5
266
330
256
100
AcDbEntity
  8
FP_OB60S$Fisher _ Paykel-1
100
AcDbSpline
210
0.0
220
0.0
230
1.0
 70
    24
 71
     2
 72
     6
 73
     3
 74
     0
 42
0.0000000001
 43
0.0000000001
 40
-0.1136516050319488
 40
-0.1136516050319488
 40
-0.1136516050319488
 40
0.0000000000000006
 40
0.0000000000000006
 40
0.0000000000000006
 10
94.61654484273039
 20
544.9999999999844
 30
213.9898447513412
 10
104.6165428400064
 20
535.0000020027085
 30
203.9898467540652
 10
114.6165408372824
 20
525.0000040054324
 30
193.9898487567891
  0
SPLINE
  5
267
330
256
100
AcDbEntity
  8
FP_OB60S$Fisher _ Paykel-1
100
AcDbSpline
210
0.0
220
0.0
230
1.0
 70
    24
 71
     2
 72
     6
 73
     3
 74
     0
 42
0.0000000001
 43
0.0000000001
 40
-0.6364496350288358
 40
-0.6364496350288358
 40
-0.6364496350288358
 40
0.0000000000000007
 40
0.0000000000000007
 40
0.0000000000000007
 10
-199.1299505472176
 20
525.0000040054322
 30
0.0
 10
-199.1299505472173
 20
525.0000040054324
 30
96.99492437839467
 10
-199.1299505472171
 20
525.0000040054325
 30
193.9898487567893
  0
SPLINE
  5
268
330
256
100
AcDbEntity
  8
FP_OB60S$Fisher _ Paykel-1
100
AcDbSpline
210
0.0
220
0.0
230
1.0
 70
    24
 71
     2
 72
     6
 73
     3
 74
     0
 42
0.0000000001
 43
0.0000000001
 40
-88.31014380455045
 40
-88.31014380455045
 40
-88.31014380455045
 40
147.42995452817
 40
147.42995452817
 40
147.42995452817
 10
114.6165408372824
 20
525.0000040054324
 30
193.9898487567891
 10
114.6165408369922
 20
525.0000040055868
 30
311.8598979231786
 10
114.6165408367021
 20
525.0000040057413
 30
429.7299470895681
  0
SPLINE
  5
269
330
256
100
AcDbEntity
  8
FP_OB60S$Fisher _ Paykel-1
100
AcDbSpline
210
0.0
220
0.0
230
1.0
 70
    24
 71
     2
 72
     6
 73
     3
 74
     0
 42
0.0000000001
 43
0.0000000001
 40
-147.4299545286165
 40
-147.4299545286165
 40
-147.4299545286165
 40
282.2999925613396
 40
282.2999925613396
 40
282.2999925613396
 10
199.1299596307861
 20
525.0000040055256
 30
429.7299470899737
 10
199.1299596308735
 20
525.0000040054789
 30
214.8649735449868
 10
199.1299596309611
 20
525.0000040054322
 30
0.0
  0
SPLINE
  5
26A
330
256
100
AcDbEntity
  8
FP_OB60S$Fisher _ Paykel-1
100
AcDbSpline
210
0.0
220
0.0
230
1.0
 70
    24
 71
     2
 72
     6
 73
     3
 74
     0
 42
0.0000000001
 43
0.0000000001
 40
-1.306627001896912
 40
-1.306627001896912
 40
-1.306627001896912
 40
-0.0000000000000002
 40
-0.0000000000000002
 40
-0.0000000000000002
 10
199.1299596309611
 20
525.0000040054322
 30
0.0
 10
0.0000045418717463
 20
525.0000040054322
 30
0.0
 10
-199.1299505472176
 20
525.0000040054322
 30
0.0
  0
SPLINE
  5
26B
330
256
100
AcDbEntity
  8
FP_OB60S$Fisher _ Paykel-1
100
AcDbSpline
210
0.0
220
0.0
230
1.0
 70
    24
 71
     2
 72
     6
 73
     3
 74
     0
 42
0.0000000001
 43
0.0000000001
 40
52.43500800132722
 40
52.43500800132722
 40
52.43500800132722
 40
512.1649771213523
 40
512.1649771213523
 40
512.1649771213523
 10
229.1299816608371
 20
494.999981975556
 30
459.7299691200251
 10
229.1299816607899
 20
494.999981975575
 30
229.8649845600125
 10
229.1299816607426
 20
494.999981975594
 30
-0.0000000000000053
  0
SPLINE
  5
26C
330
256
100
AcDbEntity
  8
FP_OB60S$Fisher _ Paykel-1
100
AcDbSpline
210
0.0
220
0.0
230
1.0
 70
    24
 71
     2
 72
     6
 73
     3
 74
     0
 42
0.0000000001
 43
0.0000000001
 40
-0.1391943504791282
 40
-0.1391943504791282
 40
-0.1391943504791282
 40
0.0
 40
0.0
 40
0.0
 10
229.1299816607426
 20
494.999981975594
 30
-0.0000000000000053
 10
214.1299706458518
 20
509.9999929905131
 30
-0.0000000000000027
 10
199.1299596309611
 20
525.0000040054322
 30
0.0
  0
SPLINE
  5
26D
330
256
100
AcDbEntity
  8
FP_OB60S$Fisher _ Paykel-1
100
AcDbSpline
210
0.0
220
0.0
230
1.0
 70
    24
 71
     2
 72
     6
 73
     3
 74
     0
 42
0.0000000001
 43
0.0000000001
 40
-512.1649771213532
 40
-512.1649771213532
 40
-512.1649771213532
 40
-52.43500800132813
 40
-52.43500800132813
 40
-52.43500800132813
 10
-229.1299725769991
 20
494.999981975594
 30
-0.0000000000000053
 10
-229.1299725770464
 20
494.999981975575
 30
229.8649845600125
 10
-229.1299725770937
 20
494.999981975556
 30
459.7299691200251
  0
SPLINE
  5
26E
330
256
100
AcDbEntity
  8
FP_OB60S$Fisher _ Paykel-1
100
AcDbSpline
210
0.0
220
0.0
230
1.0
 70
    24
 71
     2
 72
     6
 73
     3
 74
     0
 42
0.0000000001
 43
0.0000000001
 40
-0.1391942686194553
 40
-0.1391942686194553
 40
-0.1391942686194553
 40
0.000000081859673
 40
0.000000081859673
 40
0.000000081859673
 10
-199.1299505472176
 20
525.0000040054322
 30
0.0
 10
-214.1299615621083
 20
509.9999929905131
 30
-0.0000000000000027
 10
-229.1299725769991
 20
494.999981975594
 30
-0.0000000000000053
  0
SPLINE
  5
26F
330
256
100
AcDbEntity
  8
FP_OB60S$Fisher _ Paykel-1
100
AcDbSpline
210
0.0
220
0.0
230
1.0
 70
    24
 71
     2
 72
     6
 73
     3
 74
     0
 42
0.0000000001
 43
0.0000000001
 40
-1.824146981627297
 40
-1.824146981627297
 40
-1.824146981627297
 40
0.0
 40
0.0
 40
0.0
 10
278.0
 20
0.0
 30
0.0
 10
0.0
 20
0.0
 30
0.0
 10
-278.0
 20
0.0
 30
0.0
  0
SPLINE
  5
270
330
256
100
AcDbEntity
  8
FP_OB60S$Fisher _ Paykel-1
100
AcDbSpline
210
0.0
220
0.0
230
1.0
 70
    24
 71
     2
 72
     6
 73
     3
 74
     0
 42
0.0000000001
 43
0.0000000001
 40
-1.624015746779953
 40
-1.624015746779953
 40
-1.624015746779953
 40
-0.0000000578835626
 40
-0.0000000578835626
 40
-0.0000000578835626
 10
-278.0
 20
0.0
 30
0.0
 10
-278.0
 20
247.4999909877989
 30
-0.0000000000000027
 10
-278.0
 20
494.9999819755978
 30
-0.0000000000000053
  0
SPLINE
  5
271
330
256
100
AcDbEntity
  8
FP_OB60S$Fisher _ Paykel-1
100
AcDbSpline
210
0.0
220
0.0
230
1.0
 70
    24
 71
     2
 72
     6
 73
     3
 74
     0
 42
0.0000000001
 43
0.0000000001
 40
-0.1603347935232277
 40
-0.1603347935232277
 40
-0.1603347935232277
 40
-0.000000057883427
 40
-0.000000057883427
 40
-0.000000057883427
 10
-278.0
 20
494.9999819755978
 30
-0.0000000000000053
 10
-253.5649862884996
 20
494.9999819755959
 30
-0.0000000000000053
 10
-229.1299725769991
 20
494.999981975594
 30
-0.0000000000000053
  0
SPLINE
  5
272
330
256
100
AcDbEntity
  8
FP_OB60S$Fisher _ Paykel-1
100
AcDbSpline
210
0.0
220
0.0
230
1.0
 70
    24
 71
     2
 72
     6
 73
     3
 74
     0
 42
0.0000000001
 43
0.0000000001
 40
-0.1603347058374929
 40
-0.1603347058374929
 40
-0.1603347058374929
 40
0.0
 40
0.0
 40
0.0
 10
229.1299816607426
 20
494.999981975594
 30
-0.0000000000000053
 10
253.5649908303713
 20
494.9999819755959
 30
-0.0000000000000053
 10
278.0
 20
494.9999819755978
 30
-0.0000000000000053
  0
SPLINE
  5
273
330
256
100
AcDbEntity
  8
FP_OB60S$Fisher _ Paykel-1
100
AcDbSpline
210
0.0
220
0.0
230
1.0
 70
    24
 71
     2
 72
     6
 73
     3
 74
     0
 42
0.0000000001
 43
0.0000000001
 40
-1.62401568889639
 40
-1.62401568889639
 40
-1.62401568889639
 40
0.0
 40
0.0
 40
0.0
 10
278.0
 20
494.9999819755978
 30
-0.0000000000000053
 10
278.0
 20
247.4999909877989
 30
-0.0000000000000027
 10
278.0
 20
0.0
 30
0.0
  0
SPLINE
  5
274
330
256
100
AcDbEntity
  8
FP_OB60S$Fisher _ Paykel-1
100
AcDbSpline
210
0.0
220
0.0
230
1.0
 70
    24
 71
     2
 72
     6
 73
     3
 74
     0
 42
0.0000000001
 43
0.0000000001
 40
-1.886482939632547
 40
-1.886482939632547
 40
-1.886482939632547
 40
0.0
 40
0.0
 40
0.0
 10
278.0
 20
0.0
 30
0.0
 10
278.0
 20
0.0
 30
287.5000000000002
 10
278.0
 20
0.0
 30
575.0000000000005
  0
SPLINE
  5
275
330
256
100
AcDbEntity
  8
FP_OB60S$Fisher _ Paykel-1
100
AcDbSpline
210
0.0
220
0.0
230
1.0
 70
    24
 71
     2
 72
     6
 73
     3
 74
     0
 42
0.0000000001
 43
0.0000000001
 40
-1.824146981627297
 40
-1.824146981627297
 40
-1.824146981627297
 40
0.0
 40
0.0
 40
0.0
 10
278.0
 20
0.0
 30
575.0000000000005
 10
0.0
 20
0.0
 30
575.0000000000005
 10
-278.0
 20
0.0
 30
575.0000000000005
  0
SPLINE
  5
276
330
256
100
AcDbEntity
  8
FP_OB60S$Fisher _ Paykel-1
100
AcDbSpline
210
0.0
220
0.0
230
1.0
 70
    24
 71
     2
 72
     6
 73
     3
 74
     0
 42
0.0000000001
 43
0.0000000001
 40
-1.886482939632547
 40
-1.886482939632547
 40
-1.886482939632547
 40
0.0
 40
0.0
 40
0.0
 10
-278.0
 20
0.0
 30
575.0000000000005
 10
-278.0
 20
0.0
 30
287.5000000000002
 10
-278.0
 20
0.0
 30
0.0
  0
SPLINE
  5
277
330
256
100
AcDbEntity
  8
FP_OB60S$Fisher _ Paykel-1
100
AcDbSpline
210
0.0
220
0.0
230
1.0
 70
    24
 71
     2
 72
     6
 73
     3
 74
     0
 42
0.0000000001
 43
0.0000000001
 40
-0.9644301533699073
 40
-0.9644301533699073
 40
-0.9644301533699073
 40
0.0
 40
0.0
 40
0.0
 10
278.0
 20
0.0
 30
575.0000000000005
 10
278.0
 20
146.9791553735739
 30
575.0000000000005
 10
278.0
 20
293.9583107471477
 30
575.0000000000005
  0
SPLINE
  5
278
330
256
100
AcDbEntity
  8
FP_OB60S$Fisher _ Paykel-1
100
AcDbSpline
210
0.0
220
0.0
230
1.0
 70
    24
 71
     2
 72
     6
 73
     3
 74
     0
 42
0.0000000001
 43
0.0000000001
 40
-0.9644301533699073
 40
-0.9644301533699073
 40
-0.9644301533699073
 40
0.0
 40
0.0
 40
0.0
 10
-278.0
 20
293.9583107471477
 30
575.0000000000005
 10
-278.0
 20
146.9791553735739
 30
575.0000000000005
 10
-278.0
 20
0.0
 30
575.0000000000005
  0
SPLINE
  5
279
330
256
100
AcDbEntity
  8
FP_OB60S$Fisher _ Paykel-1
100
AcDbSpline
210
0.0
220
0.0
230
1.0
 70
    24
 71
     2
 72
     6
 73
     3
 74
     0
 42
0.0000000001
 43
0.0000000001
 40
-0.6144330453044824
 40
-0.6144330453044824
 40
-0.6144330453044824
 40
0.0
 40
0.0
 40
0.0
 10
278.0
 20
307.7207897667502
 30
564.59998512268
 10
278.0
 20
401.3603858711533
 30
564.5999851226798
 10
278.0
 20
494.9999819755564
 30
564.5999851226794
  0
SPLINE
  5
27A
330
256
100
AcDbEntity
  8
FP_OB60S$Fisher _ Paykel-1
100
AcDbSpline
210
0.0
220
0.0
230
1.0
 70
    24
 71
     2
 72
     6
 73
     3
 74
     0
 42
0.0000000001
 43
0.0000000001
 40
-1.824146981627297
 40
-1.824146981627297
 40
-1.824146981627297
 40
0.0
 40
0.0
 40
0.0
 10
278.0
 20
494.9999819755564
 30
564.5999851226794
 10
0.0
 20
494.9999819755564
 30
564.5999851226794
 10
-278.0
 20
494.9999819755564
 30
564.5999851226794
  0
SPLINE
  5
27B
330
256
100
AcDbEntity
  8
FP_OB60S$Fisher _ Paykel-1
100
AcDbSpline
210
0.0
220
0.0
230
1.0
 70
    24
 71
     2
 72
     6
 73
     3
 74
     0
 42
0.0000000001
 43
0.0000000001
 40
-0.6144330453044824
 40
-0.6144330453044824
 40
-0.6144330453044824
 40
0.0
 40
0.0
 40
0.0
 10
-278.0
 20
494.9999819755564
 30
564.5999851226794
 10
-278.0
 20
401.3603858711533
 30
564.5999851226798
 10
-278.0
 20
307.7207897667502
 30
564.59998512268
  0
SPLINE
  5
27C
330
256
100
AcDbEntity
  8
FP_OB60S$Fisher _ Paykel-1
100
AcDbSpline
210
0.0
220
0.0
230
1.0
 70
    24
 71
     2
 72
     6
 73
     3
 74
     0
 42
0.0000000001
 43
0.0000000001
 40
-334.7350005626673
 40
-334.7350005626673
 40
-334.7350005626673
 40
229.8649845600121
 40
229.8649845600121
 40
229.8649845600121
 10
-278.0
 20
494.9999819755564
 30
564.5999851226794
 10
-278.0
 20
494.9999819755771
 30
282.2999925613397
 10
-278.0
 20
494.9999819755978
 30
-0.0000000000000053
  0
SPLINE
  5
27D
330
256
100
AcDbEntity
  8
FP_OB60S$Fisher _ Paykel-1
100
AcDbSpline
210
0.0
220
0.0
230
1.0
 70
    24
 71
     2
 72
     6
 73
     3
 74
     0
 42
0.0000000001
 43
0.0000000001
 40
-229.8649845600121
 40
-229.8649845600121
 40
-229.8649845600121
 40
334.7350005626673
 40
334.7350005626673
 40
334.7350005626673
 10
278.0
 20
494.9999819755978
 30
-0.0000000000000053
 10
278.0
 20
494.9999819755771
 30
282.2999925613397
 10
278.0
 20
494.9999819755564
 30
564.5999851226794
  0
LINE
  5
27E
330
256
100
AcDbEntity
  8
FP_OB60S$Fisher _ Paykel-1
100
AcDbLine
 10
278.0
 20
300.8395502569489
 30
569.7999925613402
 11
-278.0
 21
300.8395502569489
 31
569.7999925613402
  0
LINE
  5
27F
330
256
100
AcDbEntity
  8
FP_OB60S$Fisher _ Paykel-1
100
AcDbLine
 10
0.0
 20
307.7207897667502
 30
564.5999851226801
 11
0.0
 21
293.9583107471478
 31
575.0000000000005
  0
LINE
  5
280
330
256
100
AcDbEntity
  8
FP_OB60S$Fisher _ Paykel-1
100
AcDbLine
 10
204.129972648579
 20
519.9999909877702
 30
434.7299601078107
 11
-204.1299635648797
 21
519.9999909877702
 31
434.7299601078107
  0
LINE
  5
281
330
256
100
AcDbEntity
  8
FP_OB60S$Fisher _ Paykel-1
100
AcDbLine
 10
0.0000045418717036
 20
544.9999999999844
 30
409.7299510955963
 11
0.0000045418717036
 21
494.999981975556
 31
459.7299691200251
  0
LINE
  5
282
330
256
100
AcDbEntity
  8
FP_OB60S$Fisher _ Paykel-1
100
AcDbLine
 10
94.6165448427304
 20
544.9999999999844
 30
311.8598979234687
 11
-179.1299545526656
 21
544.9999999999844
 31
311.8598979234687
  0
LINE
  5
283
330
256
100
AcDbEntity
  8
FP_OB60S$Fisher _ Paykel-1
100
AcDbLine
 10
-42.25670485496755
 20
544.9999999999844
 30
213.9898447513412
 11
-42.25670485496755
 21
544.9999999999844
 31
409.7299510955963
  0
LINE
  5
284
330
256
100
AcDbEntity
  8
FP_OB60S$Fisher _ Paykel-1
100
AcDbLine
 10
104.6165428400064
 20
535.0000020027085
 30
203.9898467540652
 11
-189.1299525499414
 21
535.0000020027085
 31
203.9898467540652
  0
LINE
  5
285
330
256
100
AcDbEntity
  8
FP_OB60S$Fisher _ Paykel-1
100
AcDbLine
 10
-42.25670485496732
 20
525.0000040054324
 30
193.9898487567893
 11
-42.25670485496732
 21
544.9999999999844
 31
213.9898447513412
  0
LINE
  5
286
330
256
100
AcDbEntity
  8
FP_OB60S$Fisher _ Paykel-1
100
AcDbLine
 10
199.1299596308648
 20
525.0000040054325
 30
214.8649735449781
 11
114.6165408372259
 21
525.0000040054325
 31
214.8649735449781
  0
LINE
  5
287
330
256
100
AcDbEntity
  8
FP_OB60S$Fisher _ Paykel-1
100
AcDbLine
 10
0.0000045418717036
 20
525.0000040054322
 30
0.0
 11
0.0000045418717036
 21
525.0000040054324
 31
193.9898487567892
  0
LINE
  5
288
330
256
100
AcDbEntity
  8
FP_OB60S$Fisher _ Paykel-1
100
AcDbLine
 10
214.1299706458292
 20
509.999992990564
 30
444.7299581049906
 11
214.1299706458292
 21
509.999992990564
 31
-0.0000000000000247
  0
LINE
  5
289
330
256
100
AcDbEntity
  8
FP_OB60S$Fisher _ Paykel-1
100
AcDbLine
 10
199.1299596308863
 20
525.0000040055071
 30
229.8649845600125
 11
229.1299816608004
 21
494.9999819755928
 31
229.8649845600125
  0
LINE
  5
28A
330
256
100
AcDbEntity
  8
FP_OB60S$Fisher _ Paykel-1
100
AcDbLine
 10
104.6165428400064
 20
535.0000020027085
 30
419.7299490927845
 11
104.6165428400064
 21
535.0000020027085
 31
203.9898467540652
  0
LINE
  5
28B
330
256
100
AcDbEntity
  8
FP_OB60S$Fisher _ Paykel-1
100
AcDbLine
 10
94.61654484273046
 20
544.9999999999844
 30
311.8598979231493
 11
114.6165408370508
 21
525.0000040056639
 31
311.8598979231493
  0
LINE
  5
28C
330
256
100
AcDbEntity
  8
FP_OB60S$Fisher _ Paykel-1
100
AcDbLine
 10
-204.1299635648796
 20
519.9999909877702
 30
434.7299601078107
 11
-204.1299635648796
 21
519.9999909877702
 31
-0.0000000000000247
  0
LINE
  5
28D
330
256
100
AcDbEntity
  8
FP_OB60S$Fisher _ Paykel-1
100
AcDbLine
 10
-229.1299725770569
 20
494.9999819755928
 30
229.8649845600125
 11
-179.1299545526655
 21
544.9999999999843
 31
229.8649845600125
  0
LINE
  5
28E
330
256
100
AcDbEntity
  8
FP_OB60S$Fisher _ Paykel-1
100
AcDbLine
 10
278.0
 20
262.5000020027161
 30
0.0
 11
-278.0
 21
262.5000020027161
 31
0.0
  0
LINE
  5
28F
330
256
100
AcDbEntity
  8
FP_OB60S$Fisher _ Paykel-1
100
AcDbLine
 10
0.0
 20
0.0
 30
0.0
 11
0.0
 21
525.0000040054322
 31
0.0
  0
LINE
  5
290
330
256
100
AcDbEntity
  8
FP_OB60S$Fisher _ Paykel-1
100
AcDbLine
 10
278.0
 20
0.0
 30
287.5000000000002
 11
-278.0
 21
0.0
 31
287.5000000000002
  0
LINE
  5
291
330
256
100
AcDbEntity
  8
FP_OB60S$Fisher _ Paykel-1
100
AcDbLine
 10
0.0
 20
0.0
 30
575.0000000000005
 11
0.0
 21
0.0
 31
0.0000000000000167
  0
LINE
  5
292
330
256
100
AcDbEntity
  8
FP_OB60S$Fisher _ Paykel-1
100
AcDbLine
 10
278.0
 20
146.9791553735739
 30
575.0000000000005
 11
-278.0
 21
146.9791553735739
 31
575.0000000000005
  0
LINE
  5
293
330
256
100
AcDbEntity
  8
FP_OB60S$Fisher _ Paykel-1
100
AcDbLine
 10
0.0
 20
293.9583107471478
 30
575.0000000000005
 11
0.0
 21
0.0000000000000018
 31
575.0000000000005
  0
LINE
  5
294
330
256
100
AcDbEntity
  8
FP_OB60S$Fisher _ Paykel-1
100
AcDbLine
 10
278.0
 20
401.3603858711533
 30
564.5999851226798
 11
-278.0
 21
401.3603858711533
 31
564.5999851226798
  0
LINE
  5
295
330
256
100
AcDbEntity
  8
FP_OB60S$Fisher _ Paykel-1
100
AcDbLine
 10
0.0
 20
494.9999819755564
 30
564.5999851226794
 11
0.0
 21
307.7207897667502
 31
564.59998512268
  0
LINE
  5
296
330
256
100
AcDbEntity
  8
FP_OB60S$Fisher _ Paykel-1
100
AcDbLine
 10
278.0
 20
494.9999819755553
 30
282.2999925613397
 11
229.1299816607966
 21
494.9999819755553
 31
282.2999925613397
  0
LINE
  5
297
330
256
100
AcDbEntity
  8
FP_OB60S$Fisher _ Paykel-1
100
AcDbLine
 10
-229.1299725770532
 20
494.9999819755553
 30
282.2999925613397
 11
-277.9999999999999
 21
494.9999819755553
 31
282.2999925613397
  0
LINE
  5
298
330
256
100
AcDbEntity
  8
FP_OB60S$Fisher _ Paykel-1
100
AcDbLine
 10
0.0
 20
494.9999819755559
 30
459.7299691200251
 11
0.0
 21
494.9999819755564
 31
564.5999851226794
  0
LINE
  5
299
330
256
100
AcDbEntity
  8
FP_OB60S$Fisher _ Paykel-1
100
AcDbLine
 10
-278.0
 20
247.4999909878102
 30
575.0000000000003
 11
-278.0
 21
247.4999909878094
 31
-0.0000000000000186
  0
LINE
  5
29A
330
256
100
AcDbEntity
  8
FP_OB60S$Fisher _ Paykel-1
100
AcDbLine
 10
-278.0
 20
494.9999819755875
 30
287.4999999999999
 11
-278.0
 21
0.0000000000000133
 31
287.5000000000006
  0
LINE
  5
29B
330
256
100
AcDbEntity
  8
FP_OB60S$Fisher _ Paykel-1
100
AcDbLine
 10
278.0
 20
247.4999909878095
 30
0.0
 11
278.0
 21
247.4999909878102
 31
575.0000000000003
  0
LINE
  5
29C
330
256
100
AcDbEntity
  8
FP_OB60S$Fisher _ Paykel-1
100
AcDbLine
 10
278.0
 20
494.9999819755875
 30
287.4999999999999
 11
278.0
 21
0.0000000000000133
 31
287.5000000000006
  0
ENDBLK
  5
29E
330
256
100
AcDbEntity
  8
0
100
AcDbBlockEnd
  0
ENDSEC
  0
SECTION
  2
ENTITIES
  0
INSERT
  5
C5
330
1F
100
AcDbEntity
  8
FP_OB60S$Fisher _ Paykel-2
100
AcDbBlockReference
  2
F_P Dial OB - F_P Dial OB Black-116342-View 1
 10
154.8606014584693
 20
-20.0
 30
552.5374755859373
  0
SPLINE
  5
C7
330
1F
100
AcDbEntity
  8
FP_OB60S$Fisher _ Paykel-4
100
AcDbSpline
210
0.0
220
0.0
230
1.0
 70
    24
 71
     2
 72
     6
 73
     3
 74
     0
 42
0.0000000001
 43
0.0000000001
 40
-0.1738845109939574
 40
-0.1738845109939574
 40
-0.1738845109939574
 40
0.0
 40
0.0
 40
0.0
 10
-134.9999643325806
 20
494.9999819755561
 30
535.9999866485587
 10
-134.9999643325806
 20
494.9999819755561
 30
509.4999871730795
 10
-134.9999643325806
 20
494.9999819755561
 30
482.9999876976004
  0
SPLINE
  5
C8
330
1F
100
AcDbEntity
  8
FP_OB60S$Fisher _ Paykel-4
100
AcDbSpline
210
0.0
220
0.0
230
1.0
 70
    24
 71
     2
 72
     6
 73
     3
 74
     0
 42
0.0000000001
 43
0.0000000001
 40
-0.0623359680175863
 40
-0.0623359680175863
 40
-0.0623359680175863
 40
0.0
 40
0.0
 40
0.0
 10
-134.9999643325806
 20
494.9999819755561
 30
482.9999876976004
 10
-134.9999643325806
 20
504.4999835014362
 30
482.9999876976004
 10
-134.9999643325806
 20
513.9999850273164
 30
482.9999876976004
  0
SPLINE
  5
C9
330
1F
100
AcDbEntity
  8
FP_OB60S$Fisher _ Paykel-4
100
AcDbSpline
210
0.0
220
0.0
230
1.0
 70
    24
 71
     2
 72
     6
 73
     3
 74
     0
 42
0.0000000001
 43
0.0000000001
 40
-0.1738845109939574
 40
-0.1738845109939574
 40
-0.1738845109939574
 40
0.0
 40
0.0
 40
0.0
 10
-134.9999643325806
 20
513.9999850273164
 30
482.9999876976004
 10
-134.9999643325806
 20
513.9999850273164
 30
509.4999871730795
 10
-134.9999643325806
 20
513.9999850273164
 30
535.9999866485587
  0
SPLINE
  5
CA
330
1F
100
AcDbEntity
  8
FP_OB60S$Fisher _ Paykel-4
100
AcDbSpline
210
0.0
220
0.0
230
1.0
 70
    24
 71
     2
 72
     6
 73
     3
 74
     0
 42
0.0000000001
 43
0.0000000001
 40
-0.0623359680175863
 40
-0.0623359680175863
 40
-0.0623359680175863
 40
0.0
 40
0.0
 40
0.0
 10
-134.9999643325806
 20
513.9999850273164
 30
535.9999866485587
 10
-134.9999643325806
 20
504.4999835014362
 30
535.9999866485587
 10
-134.9999643325806
 20
494.9999819755561
 30
535.9999866485587
  0
SPLINE
  5
CB
330
1F
100
AcDbEntity
  8
FP_OB60S$Fisher _ Paykel-4
100
AcDbSpline
210
0.0
220
0.0
230
1.0
 70
    24
 71
     2
 72
     6
 73
     3
 74
     0
 42
0.0000000001
 43
0.0000000001
 40
-0.2723097801208496
 40
-0.2723097801208496
 40
-0.2723097801208496
 40
0.0
 40
0.0
 40
0.0
 10
-134.9999643325806
 20
494.9999819755561
 30
482.9999876976004
 10
-176.4999748229981
 20
494.9999819755561
 30
482.9999876976004
 10
-217.9999853134156
 20
494.9999819755561
 30
482.9999876976004
  0
SPLINE
  5
CC
330
1F
100
AcDbEntity
  8
FP_OB60S$Fisher _ Paykel-4
100
AcDbSpline
210
0.0
220
0.0
230
1.0
 70
    24
 71
     2
 72
     6
 73
     3
 74
     0
 42
0.0000000001
 43
0.0000000001
 40
-0.0623359680175863
 40
-0.0623359680175863
 40
-0.0623359680175863
 40
0.0
 40
0.0
 40
0.0
 10
-217.9999853134156
 20
494.9999819755561
 30
482.9999876976004
 10
-217.9999853134156
 20
504.4999835014362
 30
482.9999876976004
 10
-217.9999853134156
 20
513.9999850273164
 30
482.9999876976004
  0
SPLINE
  5
CD
330
1F
100
AcDbEntity
  8
FP_OB60S$Fisher _ Paykel-4
100
AcDbSpline
210
0.0
220
0.0
230
1.0
 70
    24
 71
     2
 72
     6
 73
     3
 74
     0
 42
0.0000000001
 43
0.0000000001
 40
-0.2723097801208496
 40
-0.2723097801208496
 40
-0.2723097801208496
 40
0.0
 40
0.0
 40
0.0
 10
-217.9999853134156
 20
513.9999850273164
 30
482.9999876976004
 10
-176.4999748229981
 20
513.9999850273164
 30
482.9999876976004
 10
-134.9999643325806
 20
513.9999850273164
 30
482.9999876976004
  0
SPLINE
  5
CE
330
1F
100
AcDbEntity
  8
FP_OB60S$Fisher _ Paykel-4
100
AcDbSpline
210
0.0
220
0.0
230
1.0
 70
    24
 71
     2
 72
     6
 73
     3
 74
     0
 42
0.0000000001
 43
0.0000000001
 40
-0.1738845109939574
 40
-0.1738845109939574
 40
-0.1738845109939574
 40
0.0
 40
0.0
 40
0.0
 10
-217.9999853134156
 20
494.9999819755561
 30
482.9999876976004
 10
-217.9999853134156
 20
494.9999819755561
 30
509.4999871730795
 10
-217.9999853134156
 20
494.9999819755561
 30
535.9999866485587
  0
SPLINE
  5
CF
330
1F
100
AcDbEntity
  8
FP_OB60S$Fisher _ Paykel-4
100
AcDbSpline
210
0.0
220
0.0
230
1.0
 70
    24
 71
     2
 72
     6
 73
     3
 74
     0
 42
0.0000000001
 43
0.0000000001
 40
-0.0623359680175863
 40
-0.0623359680175863
 40
-0.0623359680175863
 40
0.0
 40
0.0
 40
0.0
 10
-217.9999853134156
 20
494.9999819755561
 30
535.9999866485587
 10
-217.9999853134156
 20
504.4999835014362
 30
535.9999866485587
 10
-217.9999853134156
 20
513.9999850273164
 30
535.9999866485587
  0
SPLINE
  5
D0
330
1F
100
AcDbEntity
  8
FP_OB60S$Fisher _ Paykel-4
100
AcDbSpline
210
0.0
220
0.0
230
1.0
 70
    24
 71
     2
 72
     6
 73
     3
 74
     0
 42
0.0000000001
 43
0.0000000001
 40
-0.1738845109939574
 40
-0.1738845109939574
 40
-0.1738845109939574
 40
0.0
 40
0.0
 40
0.0
 10
-217.9999853134156
 20
513.9999850273164
 30
535.9999866485587
 10
-217.9999853134156
 20
513.9999850273164
 30
509.4999871730795
 10
-217.9999853134156
 20
513.9999850273164
 30
482.9999876976004
  0
SPLINE
  5
D1
330
1F
100
AcDbEntity
  8
FP_OB60S$Fisher _ Paykel-4
100
AcDbSpline
210
0.0
220
0.0
230
1.0
 70
    24
 71
     2
 72
     6
 73
     3
 74
     0
 42
0.0000000001
 43
0.0000000001
 40
-0.2723097801208496
 40
-0.2723097801208496
 40
-0.2723097801208496
 40
0.0
 40
0.0
 40
0.0
 10
-217.9999853134156
 20
494.9999819755561
 30
535.9999866485587
 10
-176.4999748229981
 20
494.9999819755561
 30
535.9999866485587
 10
-134.9999643325806
 20
494.9999819755561
 30
535.9999866485587
  0
SPLINE
  5
D2
330
1F
100
AcDbEntity
  8
FP_OB60S$Fisher _ Paykel-4
100
AcDbSpline
210
0.0
220
0.0
230
1.0
 70
    24
 71
     2
 72
     6
 73
     3
 74
     0
 42
0.0000000001
 43
0.0000000001
 40
-0.2723097801208496
 40
-0.2723097801208496
 40
-0.2723097801208496
 40
0.0
 40
0.0
 40
0.0
 10
-134.9999643325806
 20
513.9999850273164
 30
535.9999866485587
 10
-176.4999748229981
 20
513.9999850273164
 30
535.9999866485587
 10
-217.9999853134156
 20
513.9999850273164
 30
535.9999866485587
  0
LINE
  5
D3
330
1F
100
AcDbEntity
  8
FP_OB60S$Fisher _ Paykel-4
100
AcDbLine
 10
-134.9999643325806
 20
494.9999819755562
 30
509.4999871730795
 11
-134.9999643325806
 21
513.9999850273164
 31
509.4999871730795
  0
LINE
  5
D4
330
1F
100
AcDbEntity
  8
FP_OB60S$Fisher _ Paykel-4
100
AcDbLine
 10
-134.9999643325806
 20
504.4999835014363
 30
482.9999876976004
 11
-134.9999643325806
 21
504.4999835014363
 31
535.9999866485587
  0
LINE
  5
D5
330
1F
100
AcDbEntity
  8
FP_OB60S$Fisher _ Paykel-4
100
AcDbLine
 10
-176.4999748229981
 20
494.9999819755562
 30
482.9999876976004
 11
-176.4999748229981
 21
513.9999850273164
 31
482.9999876976004
  0
LINE
  5
D6
330
1F
100
AcDbEntity
  8
FP_OB60S$Fisher _ Paykel-4
100
AcDbLine
 10
-217.9999853134156
 20
504.4999835014363
 30
482.9999876976004
 11
-134.9999643325806
 21
504.4999835014363
 31
482.9999876976004
  0
LINE
  5
D7
330
1F
100
AcDbEntity
  8
FP_OB60S$Fisher _ Paykel-4
100
AcDbLine
 10
-217.9999853134156
 20
494.9999819755562
 30
509.4999871730795
 11
-217.9999853134156
 21
513.9999850273164
 31
509.4999871730795
  0
LINE
  5
D8
330
1F
100
AcDbEntity
  8
FP_OB60S$Fisher _ Paykel-4
100
AcDbLine
 10
-217.9999853134156
 20
504.4999835014363
 30
535.9999866485587
 11
-217.9999853134156
 21
504.4999835014363
 31
482.9999876976004
  0
LINE
  5
D9
330
1F
100
AcDbEntity
  8
FP_OB60S$Fisher _ Paykel-4
100
AcDbLine
 10
-176.4999748229981
 20
494.9999819755562
 30
535.9999866485587
 11
-176.4999748229981
 21
513.9999850273164
 31
535.9999866485587
  0
LINE
  5
DA
330
1F
100
AcDbEntity
  8
FP_OB60S$Fisher _ Paykel-4
100
AcDbLine
 10
-134.9999643325806
 20
504.4999835014363
 30
535.9999866485587
 11
-217.9999853134155
 21
504.4999835014363
 31
535.9999866485587
  0
LINE
  5
DB
330
1F
100
AcDbEntity
  8
FP_OB60S$Fisher _ Paykel-4
100
AcDbLine
 10
-217.9999853134156
 20
513.9999850273165
 30
509.4999871730795
 11
-134.9999643325806
 21
513.9999850273165
 31
509.4999871730795
  0
LINE
  5
DC
330
1F
100
AcDbEntity
  8
FP_OB60S$Fisher _ Paykel-4
100
AcDbLine
 10
-176.4999748229981
 20
513.9999850273165
 30
535.9999866485587
 11
-176.4999748229981
 21
513.9999850273165
 31
482.9999876976004
  0
LINE
  5
DD
330
1F
100
AcDbEntity
  8
FP_OB60S$Fisher _ Paykel-4
100
AcDbLine
 10
-134.9999643325806
 20
494.9999819755562
 30
509.4999871730795
 11
-217.9999853134155
 21
494.9999819755562
 31
509.4999871730795
  0
LINE
  5
DE
330
1F
100
AcDbEntity
  8
FP_OB60S$Fisher _ Paykel-4
100
AcDbLine
 10
-176.4999748229981
 20
494.9999819755562
 30
535.9999866485587
 11
-176.4999748229981
 21
494.9999819755562
 31
482.9999876976004
  0
ARC
  5
DF
330
1F
100
AcDbEntity
  8
FP_OB60S$Fisher _ Paykel-4
100
AcDbCircle
 10
-504.5000016689332
 20
498.0000168800346
 30
217.9999853134157
 40
4.003695871089747
210
-1.0
220
0.0
230
0.0
100
AcDbArc
 50
359.9999999999992
 51
180.0
  0
LINE
  5
E0
330
1F
100
AcDbEntity
  8
FP_OB60S$Fisher _ Paykel-4
100
AcDbLine
 10
-217.9999853134157
 20
508.503697540023
 30
498.0000168800345
 11
-267.9999856948853
 21
508.503697540023
 31
498.0000168800345
  0
ARC
  5
E1
330
1F
100
AcDbEntity
  8
FP_OB60S$Fisher _ Paykel-4
100
AcDbCircle
 10
504.5000016689332
 20
498.0000168800346
 30
-267.9999856948853
 40
4.00369587108986
210
1.0
220
0.0
230
0.0
100
AcDbArc
 50
359.9999999999992
 51
180.0
  0
LINE
  5
E2
330
1F
100
AcDbEntity
  8
FP_OB60S$Fisher _ Paykel-4
100
AcDbLine
 10
-267.9999856948853
 20
500.4963057978434
 30
498.0000168800345
 11
-217.9999853134157
 21
500.4963057978434
 31
498.0000168800345
  0
ARC
  5
E3
330
1F
100
AcDbEntity
  8
FP_OB60S$Fisher _ Paykel-4
100
AcDbCircle
 10
-504.5000016689332
 20
498.0000168800345
 30
217.9999853134157
 40
4.003695871089803
210
-1.0
220
0.0
230
0.0
100
AcDbArc
 50
180.0
 51
0.0
  0
ARC
  5
E4
330
1F
100
AcDbEntity
  8
FP_OB60S$Fisher _ Paykel-4
100
AcDbCircle
 10
-504.5000016689332
 20
498.0000168800345
 30
267.9999856948853
 40
4.003695871089803
210
-1.0
220
0.0
230
0.0
100
AcDbArc
 50
180.0
 51
0.0
  0
ARC
  5
E5
330
1F
100
AcDbEntity
  8
FP_OB60S$Fisher _ Paykel-4
100
AcDbCircle
 10
504.5000016689332
 20
498.0000168800346
 30
-242.9999855041506
 40
4.003695871089803
210
1.0
220
0.0
230
0.0
100
AcDbArc
 50
0.0
 51
180.0
  0
LINE
  5
E6
330
1F
100
AcDbEntity
  8
FP_OB60S$Fisher _ Paykel-4
100
AcDbLine
 10
-267.9999856948853
 20
504.5000016689332
 30
502.0037127511244
 11
-217.9999853134156
 21
504.5000016689332
 31
502.0037127511244
  0
ARC
  5
E7
330
1F
100
AcDbEntity
  8
FP_OB60S$Fisher _ Paykel-4
100
AcDbCircle
 10
504.5000016689332
 20
498.0000168800345
 30
-242.9999855041506
 40
4.003695871089803
210
1.0
220
0.0
230
0.0
100
AcDbArc
 50
180.0
 51
0.0
  0
LINE
  5
E8
330
1F
100
AcDbEntity
  8
FP_OB60S$Fisher _ Paykel-4
100
AcDbLine
 10
-267.9999856948853
 20
504.5000016689332
 30
493.9963210089447
 11
-217.9999853134156
 21
504.5000016689332
 31
493.9963210089447
  0
LINE
  5
E9
330
1F
100
AcDbEntity
  8
FP_OB60S$Fisher _ Paykel-4
100
AcDbLine
 10
-267.9999856948853
 20
504.5000016689332
 30
502.0037127511243
 11
-267.9999856948853
 21
504.5000016689332
 31
493.9963210089447
  0
LINE
  5
EA
330
1F
100
AcDbEntity
  8
FP_OB60S$Fisher _ Paykel-4
100
AcDbLine
 10
-267.9999856948853
 20
508.503697540023
 30
498.0000168800345
 11
-267.9999856948853
 21
500.4963057978434
 31
498.0000168800345
  0
LINE
  5
EB
330
1F
100
AcDbEntity
  8
FP_OB60S$Fisher _ Paykel-4
100
AcDbLine
 10
-217.9999853134156
 20
504.5000016689332
 30
493.9963210089447
 11
-217.9999853134156
 21
504.5000016689332
 31
502.0037127511243
  0
LINE
  5
EC
330
1F
100
AcDbEntity
  8
FP_OB60S$Fisher _ Paykel-4
100
AcDbLine
 10
-217.9999853134156
 20
508.503697540023
 30
498.0000168800345
 11
-217.9999853134156
 21
500.4963057978434
 31
498.0000168800345
  0
INSERT
  5
19A
330
1F
100
AcDbEntity
  8
FP_OB60S$Fisher _ Paykel-2
100
AcDbBlockReference
  2
F_P Handle Contemporary Square OB60-24 - Aluminium Dark-114234-View 1
 10
0.0
 20
-19.99999999999911
 30
464.2572173995388
  0
SPLINE
  5
19B
330
1F
100
AcDbEntity
  8
FP_OB60S$Fisher _ Paykel-2
100
AcDbSpline
210
0.0
220
0.0
230
1.0
 70
    24
 71
     2
 72
     6
 73
     3
 74
     0
 42
0.0000000001
 43
0.0000000001
 40
-0.0086178556659656
 40
-0.0086178556659656
 40
-0.0086178556659656
 40
0.0
 40
0.0
 40
0.0
 10
297.9999999999974
 20
-21.69999949335966
 30
515.5253435342013
 10
297.9999999999974
 20
-20.84999974667984
 30
516.5265518449364
 10
297.9999999999974
 20
-20.00000000000002
 30
517.5277601556716
  0
SPLINE
  5
19C
330
1F
100
AcDbEntity
  8
FP_OB60S$Fisher _ Paykel-2
100
AcDbSpline
210
0.0
220
0.0
230
1.0
 70
    24
 71
     2
 72
     6
 73
     3
 74
     0
 42
0.0000000001
 43
0.0000000001
 40
-1.955380568197692
 40
-1.955380568197692
 40
-1.955380568197692
 40
0.0
 40
0.0
 40
0.0
 10
297.9999999999974
 20
-20.00000000000002
 30
517.5277601556716
 10
0.0000014066691847
 20
-20.00000000000002
 30
517.5277601556716
 10
-297.999997186659
 20
-20.00000000000002
 30
517.5277601556716
  0
SPLINE
  5
19D
330
1F
100
AcDbEntity
  8
FP_OB60S$Fisher _ Paykel-2
100
AcDbSpline
210
0.0
220
0.0
230
1.0
 70
    24
 71
     2
 72
     6
 73
     3
 74
     0
 42
0.0000000001
 43
0.0000000001
 40
-0.0086178556659656
 40
-0.0086178556659656
 40
-0.0086178556659656
 40
0.0
 40
0.0
 40
0.0
 10
-297.999997186659
 20
-20.00000000000002
 30
517.5277601556716
 10
-297.999997186659
 20
-20.84999974667984
 30
516.5265518449364
 10
-297.999997186659
 20
-21.69999949335966
 30
515.5253435342013
  0
SPLINE
  5
19E
330
1F
100
AcDbEntity
  8
FP_OB60S$Fisher _ Paykel-2
100
AcDbSpline
210
0.0
220
0.0
230
1.0
 70
    24
 71
     2
 72
     6
 73
     3
 74
     0
 42
0.0000000001
 43
0.0000000001
 40
-1.955380568197692
 40
-1.955380568197692
 40
-1.955380568197692
 40
0.0
 40
0.0
 40
0.0
 10
-297.999997186659
 20
-21.69999949335966
 30
515.5253435342013
 10
0.0000014066691847
 20
-21.69999949335966
 30
515.5253435342013
 10
297.9999999999974
 20
-21.69999949335966
 30
515.5253435342013
  0
SPLINE
  5
19F
330
1F
100
AcDbEntity
  8
FP_OB60S$Fisher _ Paykel-2
100
AcDbSpline
210
0.0
220
0.0
230
1.0
 70
    24
 71
     2
 72
     6
 73
     3
 74
     0
 42
0.0000000001
 43
0.0000000001
 40
-0.0640673991982814
 40
-0.0640673991982814
 40
-0.0640673991982814
 40
0.0
 40
0.0
 40
0.0
 10
297.9999999999974
 20
-20.00000000000002
 30
517.5277601556716
 10
297.9999999999974
 20
-20.00000000000001
 30
507.7638885178535
 10
297.9999999999974
 20
-20.00000000000001
 30
498.0000168800355
  0
SPLINE
  5
1A0
330
1F
100
AcDbEntity
  8
FP_OB60S$Fisher _ Paykel-2
100
AcDbSpline
210
0.0
220
0.0
230
1.0
 70
    24
 71
     2
 72
     6
 73
     3
 74
     0
 42
0.0000000001
 43
0.0000000001
 40
-1.955380568197692
 40
-1.955380568197692
 40
-1.955380568197692
 40
0.0
 40
0.0
 40
0.0
 10
297.9999999999974
 20
-20.00000000000001
 30
498.0000168800355
 10
0.0000014066691847
 20
-20.00000000000001
 30
498.0000168800355
 10
-297.999997186659
 20
-20.00000000000001
 30
498.0000168800355
  0
SPLINE
  5
1A1
330
1F
100
AcDbEntity
  8
FP_OB60S$Fisher _ Paykel-2
100
AcDbSpline
210
0.0
220
0.0
230
1.0
 70
    24
 71
     2
 72
     6
 73
     3
 74
     0
 42
0.0000000001
 43
0.0000000001
 40
-0.0640673991982814
 40
-0.0640673991982814
 40
-0.0640673991982814
 40
0.0
 40
0.0
 40
0.0
 10
-297.999997186659
 20
-20.00000000000001
 30
498.0000168800355
 10
-297.999997186659
 20
-20.00000000000001
 30
507.7638885178535
 10
-297.999997186659
 20
-20.00000000000002
 30
517.5277601556716
  0
SPLINE
  5
1A2
330
1F
100
AcDbEntity
  8
FP_OB60S$Fisher _ Paykel-2
100
AcDbSpline
210
0.0
220
0.0
230
1.0
 70
    24
 71
     2
 72
     6
 73
     3
 74
     0
 42
0.0000000001
 43
0.0000000001
 40
-0.0055774261593164
 40
-0.0055774261593164
 40
-0.0055774261593164
 40
0.0
 40
0.0
 40
0.0
 10
297.9999999999974
 20
-20.00000000000001
 30
498.0000168800355
 10
297.9999999999974
 20
-20.84999974667983
 30
498.0000168800355
 10
297.9999999999974
 20
-21.69999949335966
 30
498.0000168800355
  0
SPLINE
  5
1A3
330
1F
100
AcDbEntity
  8
FP_OB60S$Fisher _ Paykel-2
100
AcDbSpline
210
0.0
220
0.0
230
1.0
 70
    24
 71
     2
 72
     6
 73
     3
 74
     0
 42
0.0000000001
 43
0.0000000001
 40
-1.955380568197692
 40
-1.955380568197692
 40
-1.955380568197692
 40
0.0
 40
0.0
 40
0.0
 10
297.9999999999974
 20
-21.69999949335966
 30
498.0000168800355
 10
0.0000014066691847
 20
-21.69999949335966
 30
498.0000168800355
 10
-297.999997186659
 20
-21.69999949335966
 30
498.0000168800355
  0
SPLINE
  5
1A4
330
1F
100
AcDbEntity
  8
FP_OB60S$Fisher _ Paykel-2
100
AcDbSpline
210
0.0
220
0.0
230
1.0
 70
    24
 71
     2
 72
     6
 73
     3
 74
     0
 42
0.0000000001
 43
0.0000000001
 40
-0.0055774261593164
 40
-0.0055774261593164
 40
-0.0055774261593164
 40
0.0
 40
0.0
 40
0.0
 10
-297.999997186659
 20
-21.69999949335966
 30
498.0000168800355
 10
-297.999997186659
 20
-20.84999974667983
 30
498.0000168800355
 10
-297.999997186659
 20
-20.00000000000001
 30
498.0000168800355
  0
SPLINE
  5
1A5
330
1F
100
AcDbEntity
  8
FP_OB60S$Fisher _ Paykel-2
100
AcDbSpline
210
0.0
220
0.0
230
1.0
 70
    24
 71
     2
 72
     6
 73
     3
 74
     0
 42
0.0000000001
 43
0.0000000001
 40
-0.057497790860124
 40
-0.057497790860124
 40
-0.057497790860124
 40
0.0
 40
0.0
 40
0.0
 10
297.9999999999974
 20
-21.69999949335966
 30
498.0000168800355
 10
297.9999999999974
 20
-21.69999949335966
 30
506.7626802071184
 10
297.9999999999974
 20
-21.69999949335966
 30
515.5253435342013
  0
SPLINE
  5
1A6
330
1F
100
AcDbEntity
  8
FP_OB60S$Fisher _ Paykel-2
100
AcDbSpline
210
0.0
220
0.0
230
1.0
 70
    24
 71
     2
 72
     6
 73
     3
 74
     0
 42
0.0000000001
 43
0.0000000001
 40
-0.057497790860124
 40
-0.057497790860124
 40
-0.057497790860124
 40
0.0
 40
0.0
 40
0.0
 10
-297.999997186659
 20
-21.69999949335966
 30
515.5253435342013
 10
-297.999997186659
 20
-21.69999949335966
 30
506.7626802071184
 10
-297.999997186659
 20
-21.69999949335966
 30
498.0000168800355
  0
LINE
  5
1A7
330
1F
100
AcDbEntity
  8
FP_OB60S$Fisher _ Paykel-2
100
AcDbLine
 10
297.9999999999974
 20
-20.84999974667983
 30
516.5265518449364
 11
-297.9999971866591
 21
-20.84999974667983
 31
516.5265518449364
  0
LINE
  5
1A8
330
1F
100
AcDbEntity
  8
FP_OB60S$Fisher _ Paykel-2
100
AcDbLine
 10
0.0000014066691847
 20
-20.00000000000001
 30
517.5277601556717
 11
0.0000014066691847
 21
-21.69999949335966
 31
515.5253435342014
  0
LINE
  5
1A9
330
1F
100
AcDbEntity
  8
FP_OB60S$Fisher _ Paykel-2
100
AcDbLine
 10
297.9999999999974
 20
-20.00000000000001
 30
507.7638885178536
 11
-297.9999971866591
 21
-20.00000000000001
 31
507.7638885178536
  0
LINE
  5
1AA
330
1F
100
AcDbEntity
  8
FP_OB60S$Fisher _ Paykel-2
100
AcDbLine
 10
0.0000014066691847
 20
-20.00000000000001
 30
498.0000168800355
 11
0.0000014066691847
 21
-20.00000000000001
 31
517.5277601556717
  0
LINE
  5
1AB
330
1F
100
AcDbEntity
  8
FP_OB60S$Fisher _ Paykel-2
100
AcDbLine
 10
297.9999999999974
 20
-20.84999974667983
 30
498.0000168800355
 11
-297.9999971866591
 21
-20.84999974667983
 31
498.0000168800355
  0
LINE
  5
1AC
330
1F
100
AcDbEntity
  8
FP_OB60S$Fisher _ Paykel-2
100
AcDbLine
 10
0.0000014066691847
 20
-21.69999949335966
 30
498.0000168800355
 11
0.0000014066691847
 21
-20.00000000000001
 31
498.0000168800355
  0
LINE
  5
1AD
330
1F
100
AcDbEntity
  8
FP_OB60S$Fisher _ Paykel-2
100
AcDbLine
 10
297.9999999999974
 20
-21.69999949335966
 30
506.7626802071184
 11
-297.9999971866591
 21
-21.69999949335966
 31
506.7626802071184
  0
LINE
  5
1AE
330
1F
100
AcDbEntity
  8
FP_OB60S$Fisher _ Paykel-2
100
AcDbLine
 10
0.0000014066691847
 20
-21.69999949335966
 30
515.5253435342013
 11
0.0000014066691847
 21
-21.69999949335966
 31
498.0000168800355
  0
LINE
  5
1AF
330
1F
100
AcDbEntity
  8
FP_OB60S$Fisher _ Paykel-2
100
AcDbLine
 10
-297.9999971866591
 20
-20.00000000000001
 30
507.7638885178536
 11
-297.9999971866591
 21
-21.69999949335966
 31
507.7638885178536
  0
LINE
  5
1B0
330
1F
100
AcDbEntity
  8
FP_OB60S$Fisher _ Paykel-2
100
AcDbLine
 10
-297.9999971866591
 20
-20.84999974667983
 30
498.0000168800355
 11
-297.9999971866591
 21
-20.84999974667983
 31
516.5265518449364
  0
LINE
  5
1B1
330
1F
100
AcDbEntity
  8
FP_OB60S$Fisher _ Paykel-2
100
AcDbLine
 10
297.9999999999974
 20
-21.69999949335966
 30
507.7638885178536
 11
297.9999999999974
 21
-20.00000000000001
 31
507.7638885178536
  0
LINE
  5
1B2
330
1F
100
AcDbEntity
  8
FP_OB60S$Fisher _ Paykel-2
100
AcDbLine
 10
297.9999999999974
 20
-20.84999974667983
 30
498.0000168800355
 11
297.9999999999974
 21
-20.84999974667983
 31
516.5265518449364
  0
LINE
  5
1B3
330
1F
100
AcDbEntity
  8
FP_OB60S$Fisher _ Paykel-4
100
AcDbLine
 10
-217.5000052928908
 20
-19.99999999999979
 30
134.2000026226044
 11
-217.5000052928908
 21
-19.99999999999935
 31
417.4360027313233
  0
LINE
  5
1B4
330
1F
100
AcDbEntity
  8
FP_OB60S$Fisher _ Paykel-4
100
AcDbLine
 10
-217.5000052928908
 20
-19.99999999999935
 30
417.4360027313233
 11
217.5000052928941
 21
-19.99999999999935
 31
417.4360027313233
  0
LINE
  5
1B5
330
1F
100
AcDbEntity
  8
FP_OB60S$Fisher _ Paykel-4
100
AcDbLine
 10
217.5000052928941
 20
-19.99999999999935
 30
417.4360027313233
 11
217.5000052928941
 21
-19.99999999999979
 31
134.2000026226044
  0
LINE
  5
1B6
330
1F
100
AcDbEntity
  8
FP_OB60S$Fisher _ Paykel-4
100
AcDbLine
 10
217.5000052928941
 20
-19.99999999999979
 30
134.2000026226044
 11
-217.5000052928908
 21
-19.99999999999979
 31
134.2000026226044
  0
SPLINE
  5
1B7
330
1F
100
AcDbEntity
  8
FP_OB60S$Fisher _ Paykel-4
100
AcDbSpline
210
0.0
220
0.0
230
1.0
 70
    24
 71
     2
 72
     6
 73
     3
 74
     0
 42
0.0000000001
 43
0.0000000001
 40
-1.602690344094605
 40
-1.602690344094605
 40
-1.602690344094605
 40
0.0000000000000002
 40
0.0000000000000002
 40
0.0000000000000002
 10
294.9999986171739
 20
-5.000000265240226
 30
498.0000168800355
 10
294.9999986171739
 20
-5.000000265240226
 30
253.7500084400177
 10
294.9999986171739
 20
-5.000000265240226
 30
9.499999999999961
  0
SPLINE
  5
1B8
330
1F
100
AcDbEntity
  8
FP_OB60S$Fisher _ Paykel-4
100
AcDbSpline
210
0.0
220
0.0
230
1.0
 70
    24
 71
     2
 72
     6
 73
     3
 74
     0
 42
0.0000000001
 43
0.0000000001
 40
-0.0164042003452763
 40
-0.0164042003452763
 40
-0.0164042003452763
 40
0.0
 40
0.0
 40
0.0
 10
294.9999986171739
 20
-5.000000265240226
 30
9.499999999999961
 10
294.9999986171739
 20
-2.500000132620113
 30
9.499999999999982
 10
294.9999986171739
 20
0.0
 30
9.500000000000005
  0
SPLINE
  5
1B9
330
1F
100
AcDbEntity
  8
FP_OB60S$Fisher _ Paykel-4
100
AcDbSpline
210
0.0
220
0.0
230
1.0
 70
    24
 71
     2
 72
     6
 73
     3
 74
     0
 42
0.0000000001
 43
0.0000000001
 40
-1.602690344094605
 40
-1.602690344094605
 40
-1.602690344094605
 40
0.0
 40
0.0
 40
0.0
 10
294.9999986171739
 20
0.0
 30
9.500000000000005
 10
294.9999986171739
 20
0.0
 30
253.7500084400178
 10
294.9999986171739
 20
0.0
 30
498.0000168800355
  0
SPLINE
  5
1BA
330
1F
100
AcDbEntity
  8
FP_OB60S$Fisher _ Paykel-4
100
AcDbSpline
210
0.0
220
0.0
230
1.0
 70
    24
 71
     2
 72
     6
 73
     3
 74
     0
 42
0.0000000001
 43
0.0000000001
 40
-0.0164042003452763
 40
-0.0164042003452763
 40
-0.0164042003452763
 40
0.0
 40
0.0
 40
0.0
 10
294.9999986171739
 20
0.0
 30
498.0000168800355
 10
294.9999986171739
 20
-2.500000132620113
 30
498.0000168800355
 10
294.9999986171739
 20
-5.000000265240226
 30
498.0000168800355
  0
ARC
  5
1BB
330
1F
100
AcDbEntity
  8
FP_OB60S$Fisher _ Paykel-4
100
AcDbCircle
 10
-285.4999986171739
 20
9.499999999999964
 30
-5.000000265240225
 40
9.499999999999996
210
0.0
220
1.0
230
0.0
100
AcDbArc
 50
180.0
 51
270.0
  0
LINE
  5
1BC
330
1F
100
AcDbEntity
  8
FP_OB60S$Fisher _ Paykel-4
100
AcDbLine
 10
285.4999986171739
 20
-5.000000265240226
 30
0.0000000000000006
 11
285.4999986171738
 21
0.0
 31
0.000000000000008
  0
ARC
  5
1BD
330
1F
100
AcDbEntity
  8
FP_OB60S$Fisher _ Paykel-4
100
AcDbCircle
 10
285.4999986171739
 20
9.500000000000025
 30
0.0
 40
9.500000000000057
210
0.0
220
-1.0
230
0.0
100
AcDbArc
 50
269.9999999999997
 51
359.9999999999999
  0
SPLINE
  5
1BE
330
1F
100
AcDbEntity
  8
FP_OB60S$Fisher _ Paykel-4
100
AcDbSpline
210
0.0
220
0.0
230
1.0
 70
    24
 71
     2
 72
     6
 73
     3
 74
     0
 42
0.0000000001
 43
0.0000000001
 40
-1.873242998779474
 40
-1.873242998779474
 40
-1.873242998779474
 40
0.0000000000000002
 40
0.0000000000000002
 40
0.0000000000000002
 10
285.4999986171739
 20
-5.000000265240226
 30
0.0000000000000006
 10
0.017765603182113
 20
-5.000000265240226
 30
-0.0000000000000001
 10
-285.4644674108097
 20
-5.000000265240226
 30
-0.0000000000000009
  0
SPLINE
  5
1BF
330
1F
100
AcDbEntity
  8
FP_OB60S$Fisher _ Paykel-4
100
AcDbSpline
210
0.0
220
0.0
230
1.0
 70
    24
 71
     2
 72
     6
 73
     3
 74
     0
 42
0.0000000001
 43
0.0000000001
 40
-0.0164042003452763
 40
-0.0164042003452763
 40
-0.0164042003452763
 40
0.0
 40
0.0
 40
0.0
 10
-285.4644674108097
 20
-5.000000265240226
 30
-0.0000000000000009
 10
-285.4644674108097
 20
-2.500000132620113
 30
0.0000000000000019
 10
-285.4644674108097
 20
0.0
 30
0.0000000000000047
  0
SPLINE
  5
1C0
330
1F
100
AcDbEntity
  8
FP_OB60S$Fisher _ Paykel-4
100
AcDbSpline
210
0.0
220
0.0
230
1.0
 70
    24
 71
     2
 72
     6
 73
     3
 74
     0
 42
0.0000000001
 43
0.0000000001
 40
-1.873242998779474
 40
-1.873242998779474
 40
-1.873242998779474
 40
-0.0000000000000004
 40
-0.0000000000000004
 40
-0.0000000000000004
 10
-285.4644674108097
 20
0.0
 30
0.0000000000000047
 10
0.0177656031820845
 20
0.0
 30
0.0000000000000064
 10
285.4999986171738
 20
0.0
 30
0.000000000000008
  0
ARC
  5
1C1
330
1F
100
AcDbEntity
  8
FP_OB60S$Fisher _ Paykel-4
100
AcDbCircle
 10
285.4644674108097
 20
9.535531206360881
 30
-5.000000265240226
 40
9.535531206360872
210
0.0
220
1.0
230
0.0
100
AcDbArc
 50
270.0
 51
0.0000000000001067
  0
LINE
  5
1C2
330
1F
100
AcDbEntity
  8
FP_OB60S$Fisher _ Paykel-4
100
AcDbLine
 10
-294.9999986171705
 20
-5.000000265240226
 30
9.53553120636086
 11
-294.9999986171705
 21
0.0
 31
9.535531206360906
  0
ARC
  5
1C3
330
1F
100
AcDbEntity
  8
FP_OB60S$Fisher _ Paykel-4
100
AcDbCircle
 10
-285.4644674108097
 20
9.535531206360922
 30
0.0
 40
9.535531206360915
210
0.0
220
-1.0
230
0.0
100
AcDbArc
 50
180.0000000000001
 51
270.0
  0
SPLINE
  5
1C4
330
1F
100
AcDbEntity
  8
FP_OB60S$Fisher _ Paykel-4
100
AcDbSpline
210
0.0
220
0.0
230
1.0
 70
    24
 71
     2
 72
     6
 73
     3
 74
     0
 42
0.0000000001
 43
0.0000000001
 40
-1.602573771895258
 40
-1.602573771895258
 40
-1.602573771895258
 40
0.0
 40
0.0
 40
0.0
 10
-294.9999986171705
 20
-5.000000265240226
 30
9.53553120636086
 10
-294.9999986171705
 20
-5.000000265240226
 30
253.7677740431982
 10
-294.9999986171705
 20
-5.000000265240226
 30
498.0000168800355
  0
SPLINE
  5
1C5
330
1F
100
AcDbEntity
  8
FP_OB60S$Fisher _ Paykel-4
100
AcDbSpline
210
0.0
220
0.0
230
1.0
 70
    24
 71
     2
 72
     6
 73
     3
 74
     0
 42
0.0000000001
 43
0.0000000001
 40
-0.0164042003452763
 40
-0.0164042003452763
 40
-0.0164042003452763
 40
0.0
 40
0.0
 40
0.0
 10
-294.9999986171705
 20
-5.000000265240226
 30
498.0000168800355
 10
-294.9999986171705
 20
-2.500000132620113
 30
498.0000168800355
 10
-294.9999986171705
 20
0.0
 30
498.0000168800355
  0
SPLINE
  5
1C6
330
1F
100
AcDbEntity
  8
FP_OB60S$Fisher _ Paykel-4
100
AcDbSpline
210
0.0
220
0.0
230
1.0
 70
    24
 71
     2
 72
     6
 73
     3
 74
     0
 42
0.0000000001
 43
0.0000000001
 40
-1.602573771895258
 40
-1.602573771895258
 40
-1.602573771895258
 40
-0.0000000000000002
 40
-0.0000000000000002
 40
-0.0000000000000002
 10
-294.9999986171705
 20
0.0
 30
498.0000168800355
 10
-294.9999986171705
 20
0.0
 30
253.7677740431982
 10
-294.9999986171705
 20
0.0
 30
9.535531206360906
  0
SPLINE
  5
1C7
330
1F
100
AcDbEntity
  8
FP_OB60S$Fisher _ Paykel-4
100
AcDbSpline
210
0.0
220
0.0
230
1.0
 70
    24
 71
     2
 72
     6
 73
     3
 74
     0
 42
0.0000000001
 43
0.0000000001
 40
-1.93569552898407
 40
-1.93569552898407
 40
-1.93569552898407
 40
0.0
 40
0.0
 40
0.0
 10
-294.9999986171705
 20
-5.000000265240226
 30
498.0000168800355
 10
0.0000000000017053
 20
-5.000000265240226
 30
498.0000168800355
 10
294.9999986171739
 20
-5.000000265240226
 30
498.0000168800355
  0
SPLINE
  5
1C8
330
1F
100
AcDbEntity
  8
FP_OB60S$Fisher _ Paykel-4
100
AcDbSpline
210
0.0
220
0.0
230
1.0
 70
    24
 71
     2
 72
     6
 73
     3
 74
     0
 42
0.0000000001
 43
0.0000000001
 40
-1.93569552898407
 40
-1.93569552898407
 40
-1.93569552898407
 40
0.0
 40
0.0
 40
0.0
 10
294.9999986171739
 20
0.0
 30
498.0000168800355
 10
0.0000000000017053
 20
0.0
 30
498.0000168800355
 10
-294.9999986171705
 20
0.0
 30
498.0000168800355
  0
LINE
  5
1C9
330
1F
100
AcDbEntity
  8
FP_OB60S$Fisher _ Paykel-4
100
AcDbLine
 10
294.999998617174
 20
-5.000000265240226
 30
253.7500084400177
 11
294.999998617174
 21
0.0000000000000003
 31
253.7500084400177
  0
LINE
  5
1CA
330
1F
100
AcDbEntity
  8
FP_OB60S$Fisher _ Paykel-4
100
AcDbLine
 10
294.999998617174
 20
-2.500000132620114
 30
9.499999999999973
 11
294.999998617174
 21
-2.500000132620114
 31
498.0000168800355
  0
ARC
  5
1CB
330
1F
100
AcDbEntity
  8
FP_OB60S$Fisher _ Paykel-4
100
AcDbCircle
 10
285.499998617174
 20
9.500000000000023
 30
2.500000132620114
 40
9.5
210
0.0
220
-1.0
230
0.0
100
AcDbArc
 50
270.0
 51
359.9999999999999
  0
LINE
  5
1CC
330
1F
100
AcDbEntity
  8
FP_OB60S$Fisher _ Paykel-4
100
AcDbLine
 10
0.017765603182113
 20
-5.000000265240226
 30
0.0000000000000036
 11
0.017765603182113
 21
0.0000000000000003
 31
0.0000000000000036
  0
LINE
  5
1CD
330
1F
100
AcDbEntity
  8
FP_OB60S$Fisher _ Paykel-4
100
AcDbLine
 10
-285.4644674108097
 20
-2.500000132620114
 30
0.0
 11
285.499998617174
 21
-2.500000132620114
 31
0.0000000000000073
  0
ARC
  5
1CE
330
1F
100
AcDbEntity
  8
FP_OB60S$Fisher _ Paykel-4
100
AcDbCircle
 10
-285.4644674108097
 20
9.535531206360885
 30
2.500000132620114
 40
9.535531206360872
210
0.0
220
-1.0
230
0.0
100
AcDbArc
 50
179.9999999999999
 51
270.0
  0
LINE
  5
1CF
330
1F
100
AcDbEntity
  8
FP_OB60S$Fisher _ Paykel-4
100
AcDbLine
 10
-294.9999986171705
 20
-5.000000265240226
 30
253.7677740431982
 11
-294.9999986171705
 21
0.0000000000000003
 31
253.7677740431982
  0
LINE
  5
1D0
330
1F
100
AcDbEntity
  8
FP_OB60S$Fisher _ Paykel-4
100
AcDbLine
 10
-294.9999986171705
 20
-2.500000132620114
 30
498.0000168800355
 11
-294.9999986171705
 21
-2.500000132620114
 31
9.535531206360872
  0
LINE
  5
1D1
330
1F
100
AcDbEntity
  8
FP_OB60S$Fisher _ Paykel-4
100
AcDbLine
 10
0.0000000000017053
 20
-5.000000265240226
 30
498.0000168800355
 11
0.0000000000017053
 21
0.0000000000000003
 31
498.0000168800355
  0
LINE
  5
1D2
330
1F
100
AcDbEntity
  8
FP_OB60S$Fisher _ Paykel-4
100
AcDbLine
 10
294.999998617174
 20
-2.500000132620114
 30
498.0000168800355
 11
-294.9999986171705
 21
-2.500000132620114
 31
498.0000168800355
  0
LINE
  5
1D3
330
1F
100
AcDbEntity
  8
FP_OB60S$Fisher _ Paykel-4
100
AcDbLine
 10
-294.9999986171705
 20
0.0
 30
249.0000084400178
 11
294.999998617174
 21
0.0
 31
249.0000084400178
  0
LINE
  5
1D4
330
1F
100
AcDbEntity
  8
FP_OB60S$Fisher _ Paykel-4
100
AcDbLine
 10
0.0000000000016485
 20
0.0
 30
498.0000168800355
 11
0.0000000000016485
 21
0.0
 31
0.0000000000000176
  0
LINE
  5
1D5
330
1F
100
AcDbEntity
  8
FP_OB60S$Fisher _ Paykel-4
100
AcDbLine
 10
294.999998617174
 20
-5.000000265240227
 30
249.0000084400177
 11
-294.9999986171705
 21
-5.000000265240227
 31
249.0000084400177
  0
LINE
  5
1D6
330
1F
100
AcDbEntity
  8
FP_OB60S$Fisher _ Paykel-4
100
AcDbLine
 10
0.0000000000016485
 20
-5.000000265240227
 30
498.0000168800355
 11
0.0000000000016485
 21
-5.000000265240227
 31
-0.0000000000000392
  0
SPLINE
  5
1D7
330
1F
100
AcDbEntity
  8
FP_OB60S$Fisher _ Paykel-4
100
AcDbSpline
210
0.0
220
0.0
230
1.0
 70
    24
 71
     2
 72
     6
 73
     3
 74
     0
 42
0.0000000001
 43
0.0000000001
 40
-0.0072178468108171
 40
-0.0072178468108171
 40
-0.0072178468108171
 40
0.0
 40
0.0
 40
0.0
 10
277.0
 20
-15.9999999403943
 30
483.7000176429754
 10
277.0
 20
-14.90000008642577
 30
483.7000176429754
 10
277.0
 20
-13.80000023245724
 30
483.7000176429754
  0
SPLINE
  5
1D8
330
1F
100
AcDbEntity
  8
FP_OB60S$Fisher _ Paykel-4
100
AcDbSpline
210
0.0
220
0.0
230
1.0
 70
    24
 71
     2
 72
     6
 73
     3
 74
     0
 42
0.0000000001
 43
0.0000000001
 40
-1.81758530183727
 40
-1.81758530183727
 40
-1.81758530183727
 40
0.0
 40
0.0
 40
0.0
 10
277.0
 20
-13.80000023245724
 30
483.7000176429754
 10
0.0
 20
-13.80000023245724
 30
483.7000176429754
 10
-277.0
 20
-13.80000023245724
 30
483.7000176429754
  0
SPLINE
  5
1D9
330
1F
100
AcDbEntity
  8
FP_OB60S$Fisher _ Paykel-4
100
AcDbSpline
210
0.0
220
0.0
230
1.0
 70
    24
 71
     2
 72
     6
 73
     3
 74
     0
 42
0.0000000001
 43
0.0000000001
 40
-0.0072178468108171
 40
-0.0072178468108171
 40
-0.0072178468108171
 40
0.0
 40
0.0
 40
0.0
 10
-277.0
 20
-13.80000023245724
 30
483.7000176429754
 10
-277.0
 20
-14.90000008642577
 30
483.7000176429754
 10
-277.0
 20
-15.9999999403943
 30
483.7000176429754
  0
SPLINE
  5
1DA
330
1F
100
AcDbEntity
  8
FP_OB60S$Fisher _ Paykel-4
100
AcDbSpline
210
0.0
220
0.0
230
1.0
 70
    24
 71
     2
 72
     6
 73
     3
 74
     0
 42
0.0000000001
 43
0.0000000001
 40
-1.81758530183727
 40
-1.81758530183727
 40
-1.81758530183727
 40
0.0
 40
0.0
 40
0.0
 10
-277.0
 20
-15.9999999403943
 30
483.7000176429754
 10
0.0
 20
-15.9999999403943
 30
483.7000176429754
 10
277.0
 20
-15.9999999403943
 30
483.7000176429754
  0
SPLINE
  5
1DB
330
1F
100
AcDbEntity
  8
FP_OB60S$Fisher _ Paykel-4
100
AcDbSpline
210
0.0
220
0.0
230
1.0
 70
    24
 71
     2
 72
     6
 73
     3
 74
     0
 42
0.0000000001
 43
0.0000000001
 40
-0.0307243237040405
 40
-0.0307243237040405
 40
-0.0307243237040405
 40
0.0
 40
0.0
 40
0.0
 10
277.0
 20
-13.80000023245724
 30
483.7000176429754
 10
277.0
 20
-9.400000248848558
 30
482.0985347270969
 10
277.0
 20
-5.00000026523988
 30
480.4970518112183
  0
SPLINE
  5
1DC
330
1F
100
AcDbEntity
  8
FP_OB60S$Fisher _ Paykel-4
100
AcDbSpline
210
0.0
220
0.0
230
1.0
 70
    24
 71
     2
 72
     6
 73
     3
 74
     0
 42
0.0000000001
 43
0.0000000001
 40
-1.81758530183727
 40
-1.81758530183727
 40
-1.81758530183727
 40
0.0
 40
0.0
 40
0.0
 10
277.0
 20
-5.00000026523988
 30
480.4970518112183
 10
0.0
 20
-5.000000265239886
 30
480.4970518112183
 10
-277.0
 20
-5.000000265239892
 30
480.4970518112183
  0
SPLINE
  5
1DD
330
1F
100
AcDbEntity
  8
FP_OB60S$Fisher _ Paykel-4
100
AcDbSpline
210
0.0
220
0.0
230
1.0
 70
    24
 71
     2
 72
     6
 73
     3
 74
     0
 42
0.0000000001
 43
0.0000000001
 40
-0.0307243237040405
 40
-0.0307243237040405
 40
-0.0307243237040405
 40
0.0
 40
0.0
 40
0.0
 10
-277.0
 20
-5.000000265239892
 30
480.4970518112183
 10
-277.0
 20
-9.400000248848563
 30
482.0985347270969
 10
-277.0
 20
-13.80000023245724
 30
483.7000176429754
  0
SPLINE
  5
1DE
330
1F
100
AcDbEntity
  8
FP_OB60S$Fisher _ Paykel-4
100
AcDbSpline
210
0.0
220
0.0
230
1.0
 70
    24
 71
     2
 72
     6
 73
     3
 74
     0
 42
0.0000000001
 43
0.0000000001
 40
-1.49539715051651
 40
-1.49539715051651
 40
-1.49539715051651
 40
0.0
 40
0.0
 40
0.0
 10
277.0
 20
-5.00000026523988
 30
480.4970518112183
 10
277.0
 20
-5.000000265240252
 30
252.5985260725022
 10
277.0
 20
-5.000000265240624
 30
24.70000033378601
  0
SPLINE
  5
1DF
330
1F
100
AcDbEntity
  8
FP_OB60S$Fisher _ Paykel-4
100
AcDbSpline
210
0.0
220
0.0
230
1.0
 70
    24
 71
     2
 72
     6
 73
     3
 74
     0
 42
0.0000000001
 43
0.0000000001
 40
-1.81758530183727
 40
-1.81758530183727
 40
-1.81758530183727
 40
0.0
 40
0.0
 40
0.0
 10
277.0
 20
-5.000000265240624
 30
24.70000033378601
 10
0.0
 20
-5.000000265240624
 30
24.70000033378601
 10
-277.0
 20
-5.000000265240624
 30
24.70000033378601
  0
SPLINE
  5
1E0
330
1F
100
AcDbEntity
  8
FP_OB60S$Fisher _ Paykel-4
100
AcDbSpline
210
0.0
220
0.0
230
1.0
 70
    24
 71
     2
 72
     6
 73
     3
 74
     0
 42
0.0000000001
 43
0.0000000001
 40
-1.49539715051651
 40
-1.49539715051651
 40
-1.49539715051651
 40
0.0
 40
0.0
 40
0.0
 10
-277.0
 20
-5.000000265240624
 30
24.70000033378601
 10
-277.0
 20
-5.000000265240258
 30
252.5985260725022
 10
-277.0
 20
-5.000000265239892
 30
480.4970518112183
  0
SPLINE
  5
1E1
330
1F
100
AcDbEntity
  8
FP_OB60S$Fisher _ Paykel-4
100
AcDbSpline
210
0.0
220
0.0
230
1.0
 70
    24
 71
     2
 72
     6
 73
     3
 74
     0
 42
0.0000000001
 43
0.0000000001
 40
-0.0360892377793756
 40
-0.0360892377793756
 40
-0.0360892377793756
 40
0.0
 40
0.0
 40
0.0
 10
277.0
 20
-5.000000265240624
 30
24.70000033378601
 10
277.0
 20
-10.50000010281746
 30
24.70000033378601
 10
277.0
 20
-15.9999999403943
 30
24.70000033378601
  0
SPLINE
  5
1E2
330
1F
100
AcDbEntity
  8
FP_OB60S$Fisher _ Paykel-4
100
AcDbSpline
210
0.0
220
0.0
230
1.0
 70
    24
 71
     2
 72
     6
 73
     3
 74
     0
 42
0.0000000001
 43
0.0000000001
 40
-1.81758530183727
 40
-1.81758530183727
 40
-1.81758530183727
 40
0.0
 40
0.0
 40
0.0
 10
277.0
 20
-15.9999999403943
 30
24.70000033378601
 10
0.0
 20
-15.9999999403943
 30
24.70000033378601
 10
-277.0
 20
-15.9999999403943
 30
24.70000033378601
  0
SPLINE
  5
1E3
330
1F
100
AcDbEntity
  8
FP_OB60S$Fisher _ Paykel-4
100
AcDbSpline
210
0.0
220
0.0
230
1.0
 70
    24
 71
     2
 72
     6
 73
     3
 74
     0
 42
0.0000000001
 43
0.0000000001
 40
-0.0360892377793756
 40
-0.0360892377793756
 40
-0.0360892377793756
 40
0.0
 40
0.0
 40
0.0
 10
-277.0
 20
-15.9999999403943
 30
24.70000033378601
 10
-277.0
 20
-10.50000010281746
 30
24.70000033378601
 10
-277.0
 20
-5.000000265240624
 30
24.70000033378601
  0
SPLINE
  5
1E4
330
1F
100
AcDbEntity
  8
FP_OB60S$Fisher _ Paykel-4
100
AcDbSpline
210
0.0
220
0.0
230
1.0
 70
    24
 71
     2
 72
     6
 73
     3
 74
     0
 42
0.0000000001
 43
0.0000000001
 40
-1.505905568599703
 40
-1.505905568599703
 40
-1.505905568599703
 40
0.0
 40
0.0
 40
0.0
 10
277.0
 20
-15.9999999403943
 30
24.70000033378601
 10
277.0
 20
-15.9999999403943
 30
254.2000089883807
 10
277.0
 20
-15.9999999403943
 30
483.7000176429754
  0
SPLINE
  5
1E5
330
1F
100
AcDbEntity
  8
FP_OB60S$Fisher _ Paykel-4
100
AcDbSpline
210
0.0
220
0.0
230
1.0
 70
    24
 71
     2
 72
     6
 73
     3
 74
     0
 42
0.0000000001
 43
0.0000000001
 40
-1.505905568599703
 40
-1.505905568599703
 40
-1.505905568599703
 40
0.0
 40
0.0
 40
0.0
 10
-277.0
 20
-15.9999999403943
 30
483.7000176429754
 10
-277.0
 20
-15.9999999403943
 30
254.2000089883807
 10
-277.0
 20
-15.9999999403943
 30
24.70000033378601
  0
LINE
  5
1E6
330
1F
100
AcDbEntity
  8
FP_OB60S$Fisher _ Paykel-4
100
AcDbLine
 10
277.0
 20
-14.90000008642577
 30
483.7000176429754
 11
-277.0
 21
-14.90000008642577
 31
483.7000176429754
  0
LINE
  5
1E7
330
1F
100
AcDbEntity
  8
FP_OB60S$Fisher _ Paykel-4
100
AcDbLine
 10
0.0
 20
-13.80000023245724
 30
483.7000176429754
 11
0.0
 21
-15.9999999403943
 31
483.7000176429754
  0
LINE
  5
1E8
330
1F
100
AcDbEntity
  8
FP_OB60S$Fisher _ Paykel-4
100
AcDbLine
 10
277.0
 20
-9.400000248848567
 30
482.0985347270969
 11
-277.0
 21
-9.400000248848567
 31
482.0985347270969
  0
LINE
  5
1E9
330
1F
100
AcDbEntity
  8
FP_OB60S$Fisher _ Paykel-4
100
AcDbLine
 10
0.0
 20
-5.000000265239894
 30
480.4970518112183
 11
0.0
 21
-13.80000023245724
 31
483.7000176429754
  0
LINE
  5
1EA
330
1F
100
AcDbEntity
  8
FP_OB60S$Fisher _ Paykel-4
100
AcDbLine
 10
277.0
 20
-5.000000265240257
 30
252.5985260725022
 11
-277.0
 21
-5.000000265240257
 31
252.5985260725022
  0
LINE
  5
1EB
330
1F
100
AcDbEntity
  8
FP_OB60S$Fisher _ Paykel-4
100
AcDbLine
 10
0.0
 20
-5.000000265240625
 30
24.70000033378601
 11
0.0
 21
-5.000000265239889
 31
480.4970518112183
  0
LINE
  5
1EC
330
1F
100
AcDbEntity
  8
FP_OB60S$Fisher _ Paykel-4
100
AcDbLine
 10
277.0
 20
-10.50000010281746
 30
24.70000033378601
 11
-277.0
 21
-10.50000010281746
 31
24.70000033378601
  0
LINE
  5
1ED
330
1F
100
AcDbEntity
  8
FP_OB60S$Fisher _ Paykel-4
100
AcDbLine
 10
0.0
 20
-15.9999999403943
 30
24.70000033378601
 11
0.0
 21
-5.000000265240624
 31
24.70000033378601
  0
LINE
  5
1EE
330
1F
100
AcDbEntity
  8
FP_OB60S$Fisher _ Paykel-4
100
AcDbLine
 10
277.0
 20
-15.9999999403943
 30
254.2000089883807
 11
-277.0
 21
-15.9999999403943
 31
254.2000089883807
  0
LINE
  5
1EF
330
1F
100
AcDbEntity
  8
FP_OB60S$Fisher _ Paykel-4
100
AcDbLine
 10
0.0
 20
-15.9999999403943
 30
483.7000176429754
 11
0.0
 21
-15.9999999403943
 31
24.70000033378602
  0
LINE
  5
1F0
330
1F
100
AcDbEntity
  8
FP_OB60S$Fisher _ Paykel-4
100
AcDbLine
 10
-277.0
 20
-10.5000001028171
 30
24.70000033378602
 11
-277.0
 21
-10.5000001028171
 31
482.4989054044065
  0
LINE
  5
1F1
330
1F
100
AcDbEntity
  8
FP_OB60S$Fisher _ Paykel-4
100
AcDbLine
 10
-277.0
 20
-15.9999999403943
 30
254.2000089883807
 11
-277.0
 21
-5.000000265240263
 31
254.2000089883807
  0
LINE
  5
1F2
330
1F
100
AcDbEntity
  8
FP_OB60S$Fisher _ Paykel-4
100
AcDbLine
 10
277.0
 20
-10.50000010281709
 30
482.4989054044065
 11
277.0
 21
-10.50000010281709
 31
24.70000033378602
  0
LINE
  5
1F3
330
1F
100
AcDbEntity
  8
FP_OB60S$Fisher _ Paykel-4
100
AcDbLine
 10
277.0
 20
-15.9999999403943
 30
254.2000089883807
 11
277.0
 21
-5.000000265240255
 31
254.2000089883807
  0
SPLINE
  5
1F5
330
1F
100
AcDbEntity
  8
FP_OB60S$Fisher _ Paykel-3
100
AcDbSpline
210
0.0
220
0.0
230
1.0
 70
    24
 71
     2
 72
     6
 73
     3
 74
     0
 42
0.0000000001
 43
0.0000000001
 40
-1.955380577427821
 40
-1.955380577427821
 40
-1.955380577427821
 40
0.0
 40
0.0
 40
0.0
 10
297.9999999999974
 20
-20.0
 30
498.0000168800355
 10
-0.0000000000025295
 20
-20.0
 30
498.0000168800355
 10
-298.0000000000024
 20
-20.0
 30
498.0000168800355
  0
SPLINE
  5
1F6
330
1F
100
AcDbEntity
  8
FP_OB60S$Fisher _ Paykel-3
100
AcDbSpline
210
0.0
220
0.0
230
1.0
 70
    24
 71
     2
 72
     6
 73
     3
 74
     0
 42
0.0000000001
 43
0.0000000001
 40
-0.0131233597756093
 40
-0.0131233597756093
 40
-0.0131233597756093
 40
0.0
 40
0.0
 40
0.0
 10
-298.0000000000024
 20
-20.0
 30
498.0000168800355
 10
-298.0000000000024
 20
-17.99999997019715
 30
498.0000168800355
 10
-298.0000000000024
 20
-15.9999999403943
 30
498.0000168800355
  0
SPLINE
  5
1F7
330
1F
100
AcDbEntity
  8
FP_OB60S$Fisher _ Paykel-3
100
AcDbSpline
210
0.0
220
0.0
230
1.0
 70
    24
 71
     2
 72
     6
 73
     3
 74
     0
 42
0.0000000001
 43
0.0000000001
 40
-1.955380577427821
 40
-1.955380577427821
 40
-1.955380577427821
 40
0.0
 40
0.0
 40
0.0
 10
-298.0000000000024
 20
-15.9999999403943
 30
498.0000168800355
 10
-0.0000000000025295
 20
-15.9999999403943
 30
498.0000168800355
 10
297.9999999999974
 20
-15.9999999403943
 30
498.0000168800355
  0
SPLINE
  5
1F8
330
1F
100
AcDbEntity
  8
FP_OB60S$Fisher _ Paykel-3
100
AcDbSpline
210
0.0
220
0.0
230
1.0
 70
    24
 71
     2
 72
     6
 73
     3
 74
     0
 42
0.0000000001
 43
0.0000000001
 40
-0.0131233597756093
 40
-0.0131233597756093
 40
-0.0131233597756093
 40
0.0
 40
0.0
 40
0.0
 10
297.9999999999974
 20
-15.9999999403943
 30
498.0000168800355
 10
297.9999999999974
 20
-17.99999997019715
 30
498.0000168800355
 10
297.9999999999974
 20
-20.0
 30
498.0000168800355
  0
SPLINE
  5
1F9
330
1F
100
AcDbEntity
  8
FP_OB60S$Fisher _ Paykel-3
100
AcDbSpline
210
0.0
220
0.0
230
1.0
 70
    24
 71
     2
 72
     6
 73
     3
 74
     0
 42
0.0000000001
 43
0.0000000001
 40
-0.3166010379791255
 40
-0.3166010379791255
 40
-0.3166010379791255
 40
0.0
 40
0.0
 40
0.0
 10
-298.0000000000024
 20
-20.0
 30
498.0000168800355
 10
-298.0000000000024
 20
-20.0
 30
546.2500150680542
 10
-298.0000000000024
 20
-20.0
 30
594.5000132560729
  0
SPLINE
  5
1FA
330
1F
100
AcDbEntity
  8
FP_OB60S$Fisher _ Paykel-3
100
AcDbSpline
210
0.0
220
0.0
230
1.0
 70
    24
 71
     2
 72
     6
 73
     3
 74
     0
 42
0.0000000001
 43
0.0000000001
 40
-0.0131233597756093
 40
-0.0131233597756093
 40
-0.0131233597756093
 40
0.0
 40
0.0
 40
0.0
 10
-298.0000000000024
 20
-20.0
 30
594.5000132560729
 10
-298.0000000000024
 20
-17.99999997019715
 30
594.5000132560729
 10
-298.0000000000024
 20
-15.9999999403943
 30
594.5000132560729
  0
SPLINE
  5
1FB
330
1F
100
AcDbEntity
  8
FP_OB60S$Fisher _ Paykel-3
100
AcDbSpline
210
0.0
220
0.0
230
1.0
 70
    24
 71
     2
 72
     6
 73
     3
 74
     0
 42
0.0000000001
 43
0.0000000001
 40
-0.3166010379791255
 40
-0.3166010379791255
 40
-0.3166010379791255
 40
0.0
 40
0.0
 40
0.0
 10
-298.0000000000024
 20
-15.9999999403943
 30
594.5000132560729
 10
-298.0000000000024
 20
-15.9999999403943
 30
546.2500150680542
 10
-298.0000000000024
 20
-15.9999999403943
 30
498.0000168800355
  0
SPLINE
  5
1FC
330
1F
100
AcDbEntity
  8
FP_OB60S$Fisher _ Paykel-3
100
AcDbSpline
210
0.0
220
0.0
230
1.0
 70
    24
 71
     2
 72
     6
 73
     3
 74
     0
 42
0.0000000001
 43
0.0000000001
 40
-1.955380577427821
 40
-1.955380577427821
 40
-1.955380577427821
 40
0.0
 40
0.0
 40
0.0
 10
-298.0000000000024
 20
-20.0
 30
594.5000132560729
 10
-0.0000000000024727
 20
-20.0
 30
594.5000132560729
 10
297.9999999999974
 20
-20.0
 30
594.5000132560729
  0
SPLINE
  5
1FD
330
1F
100
AcDbEntity
  8
FP_OB60S$Fisher _ Paykel-3
100
AcDbSpline
210
0.0
220
0.0
230
1.0
 70
    24
 71
     2
 72
     6
 73
     3
 74
     0
 42
0.0000000001
 43
0.0000000001
 40
-0.0131233597756093
 40
-0.0131233597756093
 40
-0.0131233597756093
 40
0.0
 40
0.0
 40
0.0
 10
297.9999999999974
 20
-20.0
 30
594.5000132560729
 10
297.9999999999974
 20
-17.99999997019715
 30
594.5000132560729
 10
297.9999999999974
 20
-15.9999999403943
 30
594.5000132560729
  0
SPLINE
  5
1FE
330
1F
100
AcDbEntity
  8
FP_OB60S$Fisher _ Paykel-3
100
AcDbSpline
210
0.0
220
0.0
230
1.0
 70
    24
 71
     2
 72
     6
 73
     3
 74
     0
 42
0.0000000001
 43
0.0000000001
 40
-1.955380577427821
 40
-1.955380577427821
 40
-1.955380577427821
 40
0.0
 40
0.0
 40
0.0
 10
297.9999999999974
 20
-15.9999999403943
 30
594.5000132560729
 10
-0.0000000000024727
 20
-15.9999999403943
 30
594.5000132560729
 10
-298.0000000000024
 20
-15.9999999403943
 30
594.5000132560729
  0
SPLINE
  5
1FF
330
1F
100
AcDbEntity
  8
FP_OB60S$Fisher _ Paykel-3
100
AcDbSpline
210
0.0
220
0.0
230
1.0
 70
    24
 71
     2
 72
     6
 73
     3
 74
     0
 42
0.0000000001
 43
0.0000000001
 40
0.0
 40
0.0
 40
0.0
 40
0.3166010379791255
 40
0.3166010379791255
 40
0.3166010379791255
 10
297.9999999999974
 20
-15.9999999403943
 30
594.5000132560729
 10
297.9999999999974
 20
-15.9999999403943
 30
546.2500150680542
 10
297.9999999999974
 20
-15.9999999403943
 30
498.0000168800355
  0
SPLINE
  5
200
330
1F
100
AcDbEntity
  8
FP_OB60S$Fisher _ Paykel-3
100
AcDbSpline
210
0.0
220
0.0
230
1.0
 70
    24
 71
     2
 72
     6
 73
     3
 74
     0
 42
0.0000000001
 43
0.0000000001
 40
0.0
 40
0.0
 40
0.0
 40
0.3166010379791255
 40
0.3166010379791255
 40
0.3166010379791255
 10
297.9999999999974
 20
-20.0
 30
498.0000168800355
 10
297.9999999999974
 20
-20.0
 30
546.2500150680542
 10
297.9999999999974
 20
-20.0
 30
594.5000132560729
  0
SPLINE
  5
201
330
1F
100
AcDbEntity
  8
FP_OB60S$Fisher _ Paykel-3
100
AcDbSpline
210
0.0
220
0.0
230
1.0
 70
    24
 71
     2
 72
     6
 73
     3
 74
     0
 42
0.0000000001
 43
0.0000000001
 40
-1.563648223876932
 40
-1.563648223876932
 40
-1.563648223876932
 40
0.0
 40
0.0
 40
0.0
 10
297.9999999999974
 20
-20.0
 30
485.1999987602235
 10
297.9999999999974
 20
-20.0
 30
246.9000094413791
 10
297.9999999999975
 20
-20.0
 30
8.600020122534708
  0
SPLINE
  5
202
330
1F
100
AcDbEntity
  8
FP_OB60S$Fisher _ Paykel-3
100
AcDbSpline
210
0.0
220
0.0
230
1.0
 70
    24
 71
     2
 72
     6
 73
     3
 74
     0
 42
0.0000000001
 43
0.0000000001
 40
-0.0131233597756093
 40
-0.0131233597756093
 40
-0.0131233597756093
 40
0.0
 40
0.0
 40
0.0
 10
297.9999999999975
 20
-20.0
 30
8.600020122534708
 10
297.9999999999974
 20
-17.99999997019715
 30
8.600020122534708
 10
297.9999999999974
 20
-15.9999999403943
 30
8.600020122534708
  0
SPLINE
  5
203
330
1F
100
AcDbEntity
  8
FP_OB60S$Fisher _ Paykel-3
100
AcDbSpline
210
0.0
220
0.0
230
1.0
 70
    24
 71
     2
 72
     6
 73
     3
 74
     0
 42
0.0000000001
 43
0.0000000001
 40
-1.563648223876932
 40
-1.563648223876932
 40
-1.563648223876932
 40
0.0
 40
0.0
 40
0.0
 10
297.9999999999974
 20
-15.9999999403943
 30
8.600020122534708
 10
297.9999999999974
 20
-15.9999999403943
 30
246.9000094413791
 10
297.9999999999974
 20
-15.9999999403943
 30
485.1999987602235
  0
SPLINE
  5
204
330
1F
100
AcDbEntity
  8
FP_OB60S$Fisher _ Paykel-3
100
AcDbSpline
210
0.0
220
0.0
230
1.0
 70
    24
 71
     2
 72
     6
 73
     3
 74
     0
 42
0.0000000001
 43
0.0000000001
 40
-0.0131233597756093
 40
-0.0131233597756093
 40
-0.0131233597756093
 40
0.0
 40
0.0
 40
0.0
 10
297.9999999999974
 20
-15.9999999403943
 30
485.1999987602235
 10
297.9999999999974
 20
-17.99999997019715
 30
485.1999987602235
 10
297.9999999999974
 20
-20.0
 30
485.1999987602235
  0
SPLINE
  5
205
330
1F
100
AcDbEntity
  8
FP_OB60S$Fisher _ Paykel-3
100
AcDbSpline
210
0.0
220
0.0
230
1.0
 70
    24
 71
     2
 72
     6
 73
     3
 74
     0
 42
0.0000000001
 43
0.0000000001
 40
-1.955380577427821
 40
-1.955380577427821
 40
-1.955380577427821
 40
0.0
 40
0.0
 40
0.0
 10
297.9999999999975
 20
-20.0
 30
8.600020122534708
 10
-0.0000000000025011
 20
-20.0
 30
8.600020122534705
 10
-298.0000000000025
 20
-20.0
 30
8.600020122534701
  0
SPLINE
  5
206
330
1F
100
AcDbEntity
  8
FP_OB60S$Fisher _ Paykel-3
100
AcDbSpline
210
0.0
220
0.0
230
1.0
 70
    24
 71
     2
 72
     6
 73
     3
 74
     0
 42
0.0000000001
 43
0.0000000001
 40
-0.0131233597756093
 40
-0.0131233597756093
 40
-0.0131233597756093
 40
0.0
 40
0.0
 40
0.0
 10
-298.0000000000025
 20
-20.0
 30
8.600020122534701
 10
-298.0000000000025
 20
-17.99999997019715
 30
8.600020122534701
 10
-298.0000000000025
 20
-15.9999999403943
 30
8.600020122534701
  0
SPLINE
  5
207
330
1F
100
AcDbEntity
  8
FP_OB60S$Fisher _ Paykel-3
100
AcDbSpline
210
0.0
220
0.0
230
1.0
 70
    24
 71
     2
 72
     6
 73
     3
 74
     0
 42
0.0000000001
 43
0.0000000001
 40
-1.955380577427821
 40
-1.955380577427821
 40
-1.955380577427821
 40
-0.0000000000000002
 40
-0.0000000000000002
 40
-0.0000000000000002
 10
-298.0000000000025
 20
-15.9999999403943
 30
8.600020122534701
 10
-0.000000000002558
 20
-15.9999999403943
 30
8.600020122534705
 10
297.9999999999974
 20
-15.9999999403943
 30
8.600020122534708
  0
SPLINE
  5
208
330
1F
100
AcDbEntity
  8
FP_OB60S$Fisher _ Paykel-3
100
AcDbSpline
210
0.0
220
0.0
230
1.0
 70
    24
 71
     2
 72
     6
 73
     3
 74
     0
 42
0.0000000001
 43
0.0000000001
 40
-1.563648223876932
 40
-1.563648223876932
 40
-1.563648223876932
 40
0.0
 40
0.0
 40
0.0
 10
-298.0000000000025
 20
-20.0
 30
8.600020122534701
 10
-298.0000000000024
 20
-20.0
 30
246.9000094413791
 10
-298.0000000000024
 20
-20.0
 30
485.1999987602235
  0
SPLINE
  5
209
330
1F
100
AcDbEntity
  8
FP_OB60S$Fisher _ Paykel-3
100
AcDbSpline
210
0.0
220
0.0
230
1.0
 70
    24
 71
     2
 72
     6
 73
     3
 74
     0
 42
0.0000000001
 43
0.0000000001
 40
-0.0131233597756093
 40
-0.0131233597756093
 40
-0.0131233597756093
 40
0.0
 40
0.0
 40
0.0
 10
-298.0000000000024
 20
-20.0
 30
485.1999987602235
 10
-298.0000000000024
 20
-17.99999997019715
 30
485.1999987602235
 10
-298.0000000000024
 20
-15.9999999403943
 30
485.1999987602235
  0
SPLINE
  5
20A
330
1F
100
AcDbEntity
  8
FP_OB60S$Fisher _ Paykel-3
100
AcDbSpline
210
0.0
220
0.0
230
1.0
 70
    24
 71
     2
 72
     6
 73
     3
 74
     0
 42
0.0000000001
 43
0.0000000001
 40
-1.563648223876932
 40
-1.563648223876932
 40
-1.563648223876932
 40
0.0
 40
0.0
 40
0.0
 10
-298.0000000000024
 20
-15.9999999403943
 30
485.1999987602235
 10
-298.0000000000024
 20
-15.9999999403943
 30
246.9000094413791
 10
-298.0000000000025
 20
-15.9999999403943
 30
8.600020122534701
  0
SPLINE
  5
20B
330
1F
100
AcDbEntity
  8
FP_OB60S$Fisher _ Paykel-3
100
AcDbSpline
210
0.0
220
0.0
230
1.0
 70
    24
 71
     2
 72
     6
 73
     3
 74
     0
 42
0.0000000001
 43
0.0000000001
 40
-1.955380577427821
 40
-1.955380577427821
 40
-1.955380577427821
 40
0.0
 40
0.0
 40
0.0
 10
-298.0000000000024
 20
-20.0
 30
485.1999987602235
 10
-0.0000000000025011
 20
-20.0
 30
485.1999987602235
 10
297.9999999999974
 20
-20.0
 30
485.1999987602235
  0
SPLINE
  5
20C
330
1F
100
AcDbEntity
  8
FP_OB60S$Fisher _ Paykel-3
100
AcDbSpline
210
0.0
220
0.0
230
1.0
 70
    24
 71
     2
 72
     6
 73
     3
 74
     0
 42
0.0000000001
 43
0.0000000001
 40
-1.955380577427821
 40
-1.955380577427821
 40
-1.955380577427821
 40
0.0
 40
0.0
 40
0.0
 10
297.9999999999974
 20
-15.9999999403943
 30
485.1999987602235
 10
-0.0000000000025011
 20
-15.9999999403943
 30
485.1999987602235
 10
-298.0000000000024
 20
-15.9999999403943
 30
485.1999987602235
  0
LINE
  5
20D
330
1F
100
AcDbEntity
  8
FP_OB60S$Fisher _ Paykel-3
100
AcDbLine
 10
-0.0000000000025011
 20
-20.0
 30
498.0000168800355
 11
-0.0000000000025011
 21
-15.9999999403943
 31
498.0000168800355
  0
LINE
  5
20E
330
1F
100
AcDbEntity
  8
FP_OB60S$Fisher _ Paykel-3
100
AcDbLine
 10
-298.0000000000024
 20
-17.99999997019715
 30
498.0000168800355
 11
297.9999999999974
 21
-17.99999997019715
 31
498.0000168800355
  0
LINE
  5
20F
330
1F
100
AcDbEntity
  8
FP_OB60S$Fisher _ Paykel-3
100
AcDbLine
 10
-298.0000000000024
 20
-20.0
 30
546.2500150680543
 11
-298.0000000000024
 21
-15.9999999403943
 31
546.2500150680543
  0
LINE
  5
210
330
1F
100
AcDbEntity
  8
FP_OB60S$Fisher _ Paykel-3
100
AcDbLine
 10
-298.0000000000024
 20
-17.99999997019715
 30
594.500013256073
 11
-298.0000000000025
 21
-17.99999997019715
 31
498.0000168800356
  0
LINE
  5
211
330
1F
100
AcDbEntity
  8
FP_OB60S$Fisher _ Paykel-3
100
AcDbLine
 10
-0.0000000000025011
 20
-20.0
 30
594.500013256073
 11
-0.0000000000025011
 21
-15.9999999403943
 31
594.500013256073
  0
LINE
  5
212
330
1F
100
AcDbEntity
  8
FP_OB60S$Fisher _ Paykel-3
100
AcDbLine
 10
297.9999999999974
 20
-17.99999997019715
 30
594.500013256073
 11
-298.0000000000024
 21
-17.99999997019715
 31
594.500013256073
  0
LINE
  5
213
330
1F
100
AcDbEntity
  8
FP_OB60S$Fisher _ Paykel-3
100
AcDbLine
 10
297.9999999999975
 20
-20.0
 30
546.2500150680543
 11
297.9999999999975
 21
-15.9999999403943
 31
546.2500150680543
  0
LINE
  5
214
330
1F
100
AcDbEntity
  8
FP_OB60S$Fisher _ Paykel-3
100
AcDbLine
 10
297.9999999999975
 20
-17.99999997019715
 30
498.0000168800356
 11
297.9999999999975
 21
-17.99999997019715
 31
594.500013256073
  0
LINE
  5
215
330
1F
100
AcDbEntity
  8
FP_OB60S$Fisher _ Paykel-3
100
AcDbLine
 10
-298.0000000000024
 20
-15.9999999403943
 30
546.2500150680543
 11
297.9999999999974
 21
-15.9999999403943
 31
546.2500150680543
  0
LINE
  5
216
330
1F
100
AcDbEntity
  8
FP_OB60S$Fisher _ Paykel-3
100
AcDbLine
 10
-0.0000000000025011
 20
-15.9999999403943
 30
594.5000132560729
 11
-0.0000000000025011
 21
-15.9999999403943
 31
498.0000168800356
  0
LINE
  5
217
330
1F
100
AcDbEntity
  8
FP_OB60S$Fisher _ Paykel-3
100
AcDbLine
 10
297.9999999999974
 20
-20.0
 30
546.2500150680543
 11
-298.0000000000024
 21
-20.0
 31
546.2500150680543
  0
LINE
  5
218
330
1F
100
AcDbEntity
  8
FP_OB60S$Fisher _ Paykel-3
100
AcDbLine
 10
-0.0000000000025011
 20
-20.0
 30
594.5000132560729
 11
-0.0000000000025011
 21
-20.0
 31
498.0000168800356
  0
LINE
  5
219
330
1F
100
AcDbEntity
  8
FP_OB60S$Fisher _ Paykel-3
100
AcDbLine
 10
297.9999999999974
 20
-20.0
 30
246.9000094413791
 11
297.9999999999974
 21
-15.9999999403943
 31
246.9000094413791
  0
LINE
  5
21A
330
1F
100
AcDbEntity
  8
FP_OB60S$Fisher _ Paykel-3
100
AcDbLine
 10
297.9999999999974
 20
-17.99999997019715
 30
8.600020122534708
 11
297.9999999999974
 21
-17.99999997019715
 31
485.1999987602235
  0
LINE
  5
21B
330
1F
100
AcDbEntity
  8
FP_OB60S$Fisher _ Paykel-3
100
AcDbLine
 10
-0.0000000000025011
 20
-20.0
 30
8.600020122534708
 11
-0.0000000000025011
 21
-15.9999999403943
 31
8.600020122534708
  0
LINE
  5
21C
330
1F
100
AcDbEntity
  8
FP_OB60S$Fisher _ Paykel-3
100
AcDbLine
 10
-298.0000000000025
 20
-17.99999997019715
 30
8.600020122534708
 11
297.9999999999975
 21
-17.99999997019715
 31
8.600020122534708
  0
LINE
  5
21D
330
1F
100
AcDbEntity
  8
FP_OB60S$Fisher _ Paykel-3
100
AcDbLine
 10
-298.0000000000024
 20
-20.0
 30
246.9000094413791
 11
-298.0000000000024
 21
-15.9999999403943
 31
246.9000094413791
  0
LINE
  5
21E
330
1F
100
AcDbEntity
  8
FP_OB60S$Fisher _ Paykel-3
100
AcDbLine
 10
-298.0000000000024
 20
-17.99999997019715
 30
485.1999987602235
 11
-298.0000000000025
 21
-17.99999997019715
 31
8.600020122534728
  0
LINE
  5
21F
330
1F
100
AcDbEntity
  8
FP_OB60S$Fisher _ Paykel-3
100
AcDbLine
 10
-0.0000000000025011
 20
-20.0
 30
485.1999987602235
 11
-0.0000000000025011
 21
-15.9999999403943
 31
485.1999987602235
  0
LINE
  5
220
330
1F
100
AcDbEntity
  8
FP_OB60S$Fisher _ Paykel-3
100
AcDbLine
 10
297.9999999999974
 20
-17.99999997019715
 30
485.1999987602235
 11
-298.0000000000024
 21
-17.99999997019715
 31
485.1999987602235
  0
LINE
  5
221
330
1F
100
AcDbEntity
  8
FP_OB60S$Fisher _ Paykel-3
100
AcDbLine
 10
-298.0000000000025
 20
-15.9999999403943
 30
246.9000094413791
 11
297.9999999999974
 21
-15.9999999403943
 31
246.9000094413791
  0
LINE
  5
222
330
1F
100
AcDbEntity
  8
FP_OB60S$Fisher _ Paykel-3
100
AcDbLine
 10
-0.000000000002558
 20
-15.9999999403943
 30
485.1999987602235
 11
-0.000000000002558
 21
-15.9999999403943
 31
8.600020122534728
  0
LINE
  5
223
330
1F
100
AcDbEntity
  8
FP_OB60S$Fisher _ Paykel-3
100
AcDbLine
 10
297.9999999999976
 20
-20.0
 30
246.9000094413791
 11
-298.0000000000024
 21
-20.0
 31
246.9000094413791
  0
LINE
  5
224
330
1F
100
AcDbEntity
  8
FP_OB60S$Fisher _ Paykel-3
100
AcDbLine
 10
-0.0000000000025011
 20
-20.0
 30
485.1999987602235
 11
-0.0000000000025011
 21
-20.0
 31
8.600020122534728
  0
SPLINE
  5
226
330
1F
100
AcDbEntity
  8
FP_OB60S$Fisher _ Paykel-1
100
AcDbSpline
210
0.0
220
0.0
230
1.0
 70
    24
 71
     2
 72
     6
 73
     3
 74
     0
 42
0.0000000001
 43
0.0000000001
 40
-0.3185695409774778
 40
-0.3185695409774778
 40
-0.3185695409774778
 40
0.0
 40
0.0
 40
0.0
 10
297.9999999999974
 20
0.0000000000008228
 30
595.1000129699707
 10
297.9999999999974
 20
0.0000000000008228
 30
546.5500149250031
 10
297.9999999999974
 20
0.0000000000008227
 30
498.0000168800355
  0
SPLINE
  5
227
330
1F
100
AcDbEntity
  8
FP_OB60S$Fisher _ Paykel-1
100
AcDbSpline
210
0.0
220
0.0
230
1.0
 70
    24
 71
     2
 72
     6
 73
     3
 74
     0
 42
0.0000000001
 43
0.0000000001
 40
-1.955380577427821
 40
-1.955380577427821
 40
-1.955380577427821
 40
0.0
 40
0.0
 40
0.0
 10
297.9999999999974
 20
0.0000000000008227
 30
498.0000168800355
 10
-0.0000000000025011
 20
0.0000000000008227
 30
498.0000168800355
 10
-298.0000000000024
 20
0.0000000000008227
 30
498.0000168800355
  0
SPLINE
  5
228
330
1F
100
AcDbEntity
  8
FP_OB60S$Fisher _ Paykel-1
100
AcDbSpline
210
0.0
220
0.0
230
1.0
 70
    24
 71
     2
 72
     6
 73
     3
 74
     0
 42
0.0000000001
 43
0.0000000001
 40
-0.3185695409774778
 40
-0.3185695409774778
 40
-0.3185695409774778
 40
0.0
 40
0.0
 40
0.0
 10
-298.0000000000024
 20
0.0000000000008227
 30
498.0000168800355
 10
-298.0000000000024
 20
0.0000000000008228
 30
546.5500149250031
 10
-298.0000000000024
 20
0.0000000000008228
 30
595.1000129699707
  0
SPLINE
  5
229
330
1F
100
AcDbEntity
  8
FP_OB60S$Fisher _ Paykel-1
100
AcDbSpline
210
0.0
220
0.0
230
1.0
 70
    24
 71
     2
 72
     6
 73
     3
 74
     0
 42
0.0000000001
 43
0.0000000001
 40
-1.955380577427821
 40
-1.955380577427821
 40
-1.955380577427821
 40
0.0
 40
0.0
 40
0.0
 10
-298.0000000000024
 20
0.0000000000008228
 30
595.1000129699707
 10
-0.0000000000025011
 20
0.0000000000008228
 30
595.1000129699707
 10
297.9999999999974
 20
0.0000000000008228
 30
595.1000129699707
  0
SPLINE
  5
22A
330
1F
100
AcDbEntity
  8
FP_OB60S$Fisher _ Paykel-1
100
AcDbSpline
210
0.0
220
0.0
230
1.0
 70
    24
 71
     2
 72
     6
 73
     3
 74
     0
 42
0.0000000001
 43
0.0000000001
 40
-0.0524934381246559
 40
-0.0524934381246559
 40
-0.0524934381246559
 40
0.0
 40
0.0
 40
0.0
 10
297.9999999999974
 20
0.0000000000008227
 30
498.0000168800355
 10
297.9999999999974
 20
-7.999999970196738
 30
498.0000168800355
 10
297.9999999999974
 20
-15.9999999403943
 30
498.0000168800355
  0
SPLINE
  5
22B
330
1F
100
AcDbEntity
  8
FP_OB60S$Fisher _ Paykel-1
100
AcDbSpline
210
0.0
220
0.0
230
1.0
 70
    24
 71
     2
 72
     6
 73
     3
 74
     0
 42
0.0000000001
 43
0.0000000001
 40
-1.955380577427821
 40
-1.955380577427821
 40
-1.955380577427821
 40
0.0
 40
0.0
 40
0.0
 10
297.9999999999974
 20
-15.9999999403943
 30
498.0000168800355
 10
-0.0000000000025011
 20
-15.9999999403943
 30
498.0000168800355
 10
-298.0000000000024
 20
-15.9999999403943
 30
498.0000168800355
  0
SPLINE
  5
22C
330
1F
100
AcDbEntity
  8
FP_OB60S$Fisher _ Paykel-1
100
AcDbSpline
210
0.0
220
0.0
230
1.0
 70
    24
 71
     2
 72
     6
 73
     3
 74
     0
 42
0.0000000001
 43
0.0000000001
 40
-0.0524934381246559
 40
-0.0524934381246559
 40
-0.0524934381246559
 40
0.0
 40
0.0
 40
0.0
 10
-298.0000000000024
 20
-15.9999999403943
 30
498.0000168800355
 10
-298.0000000000024
 20
-7.999999970196738
 30
498.0000168800355
 10
-298.0000000000024
 20
0.0000000000008227
 30
498.0000168800355
  0
SPLINE
  5
22D
330
1F
100
AcDbEntity
  8
FP_OB60S$Fisher _ Paykel-1
100
AcDbSpline
210
0.0
220
0.0
230
1.0
 70
    24
 71
     2
 72
     6
 73
     3
 74
     0
 42
0.0000000001
 43
0.0000000001
 40
-0.3185695409774778
 40
-0.3185695409774778
 40
-0.3185695409774778
 40
0.0
 40
0.0
 40
0.0
 10
297.9999999999974
 20
-15.9999999403943
 30
498.0000168800355
 10
297.9999999999974
 20
-15.9999999403943
 30
546.5500149250031
 10
297.9999999999974
 20
-15.9999999403943
 30
595.1000129699707
  0
SPLINE
  5
22E
330
1F
100
AcDbEntity
  8
FP_OB60S$Fisher _ Paykel-1
100
AcDbSpline
210
0.0
220
0.0
230
1.0
 70
    24
 71
     2
 72
     6
 73
     3
 74
     0
 42
0.0000000001
 43
0.0000000001
 40
-1.955380577427821
 40
-1.955380577427821
 40
-1.955380577427821
 40
0.0
 40
0.0
 40
0.0
 10
297.9999999999974
 20
-15.9999999403943
 30
595.1000129699707
 10
-0.0000000000025011
 20
-15.9999999403943
 30
595.1000129699707
 10
-298.0000000000024
 20
-15.9999999403943
 30
595.1000129699707
  0
SPLINE
  5
22F
330
1F
100
AcDbEntity
  8
FP_OB60S$Fisher _ Paykel-1
100
AcDbSpline
210
0.0
220
0.0
230
1.0
 70
    24
 71
     2
 72
     6
 73
     3
 74
     0
 42
0.0000000001
 43
0.0000000001
 40
-0.3185695409774778
 40
-0.3185695409774778
 40
-0.3185695409774778
 40
0.0
 40
0.0
 40
0.0
 10
-298.0000000000024
 20
-15.9999999403943
 30
595.1000129699707
 10
-298.0000000000024
 20
-15.9999999403943
 30
546.5500149250031
 10
-298.0000000000024
 20
-15.9999999403943
 30
498.0000168800355
  0
SPLINE
  5
230
330
1F
100
AcDbEntity
  8
FP_OB60S$Fisher _ Paykel-1
100
AcDbSpline
210
0.0
220
0.0
230
1.0
 70
    24
 71
     2
 72
     6
 73
     3
 74
     0
 42
0.0000000001
 43
0.0000000001
 40
-0.0524934381246559
 40
-0.0524934381246559
 40
-0.0524934381246559
 40
0.0
 40
0.0
 40
0.0
 10
297.9999999999974
 20
-15.9999999403943
 30
595.1000129699707
 10
297.9999999999974
 20
-7.999999970196738
 30
595.1000129699707
 10
297.9999999999974
 20
0.0000000000008228
 30
595.1000129699707
  0
SPLINE
  5
231
330
1F
100
AcDbEntity
  8
FP_OB60S$Fisher _ Paykel-1
100
AcDbSpline
210
0.0
220
0.0
230
1.0
 70
    24
 71
     2
 72
     6
 73
     3
 74
     0
 42
0.0000000001
 43
0.0000000001
 40
-0.0524934381246559
 40
-0.0524934381246559
 40
-0.0524934381246559
 40
0.0
 40
0.0
 40
0.0
 10
-298.0000000000024
 20
0.0000000000008228
 30
595.1000129699707
 10
-298.0000000000024
 20
-7.999999970196738
 30
595.1000129699707
 10
-298.0000000000024
 20
-15.9999999403943
 30
595.1000129699707
  0
LINE
  5
232
330
1F
100
AcDbEntity
  8
FP_OB60S$Fisher _ Paykel-1
100
AcDbLine
 10
297.9999999999974
 20
0.0000000000008229
 30
546.5500149250031
 11
-298.0000000000024
 21
0.0000000000008229
 31
546.5500149250031
  0
LINE
  5
233
330
1F
100
AcDbEntity
  8
FP_OB60S$Fisher _ Paykel-1
100
AcDbLine
 10
-0.0000000000025011
 20
0.0000000000008227
 30
498.0000168800356
 11
-0.0000000000025011
 21
0.000000000000823
 31
595.1000129699707
  0
LINE
  5
234
330
1F
100
AcDbEntity
  8
FP_OB60S$Fisher _ Paykel-1
100
AcDbLine
 10
297.9999999999974
 20
-7.999999970196737
 30
498.0000168800355
 11
-298.0000000000024
 21
-7.999999970196737
 31
498.0000168800355
  0
LINE
  5
235
330
1F
100
AcDbEntity
  8
FP_OB60S$Fisher _ Paykel-1
100
AcDbLine
 10
-0.0000000000025011
 20
-15.9999999403943
 30
498.0000168800355
 11
-0.0000000000025011
 21
0.0000000000008227
 31
498.0000168800355
  0
LINE
  5
236
330
1F
100
AcDbEntity
  8
FP_OB60S$Fisher _ Paykel-1
100
AcDbLine
 10
297.9999999999974
 20
-15.9999999403943
 30
546.5500149250031
 11
-298.0000000000024
 21
-15.9999999403943
 31
546.5500149250031
  0
LINE
  5
237
330
1F
100
AcDbEntity
  8
FP_OB60S$Fisher _ Paykel-1
100
AcDbLine
 10
-0.0000000000025011
 20
-15.9999999403943
 30
595.1000129699707
 11
-0.0000000000025011
 21
-15.9999999403943
 31
498.0000168800356
  0
LINE
  5
238
330
1F
100
AcDbEntity
  8
FP_OB60S$Fisher _ Paykel-1
100
AcDbLine
 10
297.9999999999974
 20
-7.999999970196739
 30
595.1000129699707
 11
-298.0000000000024
 21
-7.999999970196739
 31
595.1000129699707
  0
LINE
  5
239
330
1F
100
AcDbEntity
  8
FP_OB60S$Fisher _ Paykel-1
100
AcDbLine
 10
-0.0000000000025011
 20
0.0000000000008227
 30
595.1000129699707
 11
-0.0000000000025011
 21
-15.9999999403943
 31
595.1000129699707
  0
LINE
  5
23A
330
1F
100
AcDbEntity
  8
FP_OB60S$Fisher _ Paykel-1
100
AcDbLine
 10
-298.0000000000024
 20
-15.9999999403943
 30
546.5500149250031
 11
-298.0000000000024
 21
0.0000000000008227
 31
546.5500149250031
  0
LINE
  5
23B
330
1F
100
AcDbEntity
  8
FP_OB60S$Fisher _ Paykel-1
100
AcDbLine
 10
-298.0000000000024
 20
-7.999999970196737
 30
595.1000129699707
 11
-298.0000000000024
 21
-7.999999970196737
 31
498.0000168800356
  0
LINE
  5
23C
330
1F
100
AcDbEntity
  8
FP_OB60S$Fisher _ Paykel-1
100
AcDbLine
 10
297.9999999999974
 20
0.0000000000008225
 30
546.5500149250031
 11
297.9999999999974
 21
-15.9999999403943
 31
546.5500149250031
  0
LINE
  5
23D
330
1F
100
AcDbEntity
  8
FP_OB60S$Fisher _ Paykel-1
100
AcDbLine
 10
297.9999999999974
 20
-7.999999970196737
 30
595.1000129699707
 11
297.9999999999974
 21
-7.999999970196737
 31
498.0000168800356
  0
SPLINE
  5
23E
330
1F
100
AcDbEntity
  8
FP_OB60S$Fisher _ Paykel-2
100
AcDbSpline
210
0.0
220
0.0
230
1.0
 70
    24
 71
     2
 72
     6
 73
     3
 74
     0
 42
0.0000000001
 43
0.0000000001
 40
-0.0672572180628776
 40
-0.0672572180628776
 40
-0.0672572180628776
 40
0.0
 40
0.0
 40
0.0
 10
297.9999999999974
 20
-20.50000006556404
 30
598.000017642975
 10
297.9999999999974
 20
-10.25000003278149
 30
598.0000176429749
 10
297.9999999999974
 20
0.0000000000010576
 30
598.0000176429749
  0
SPLINE
  5
23F
330
1F
100
AcDbEntity
  8
FP_OB60S$Fisher _ Paykel-2
100
AcDbSpline
210
0.0
220
0.0
230
1.0
 70
    24
 71
     2
 72
     6
 73
     3
 74
     0
 42
0.0000000001
 43
0.0000000001
 40
-1.955380568197692
 40
-1.955380568197692
 40
-1.955380568197692
 40
0.0
 40
0.0
 40
0.0
 10
297.9999999999974
 20
0.0000000000010576
 30
598.0000176429749
 10
0.0000014066691847
 20
0.0000000000010576
 30
598.0000176429749
 10
-297.999997186659
 20
0.0000000000010576
 30
598.0000176429749
  0
SPLINE
  5
240
330
1F
100
AcDbEntity
  8
FP_OB60S$Fisher _ Paykel-2
100
AcDbSpline
210
0.0
220
0.0
230
1.0
 70
    24
 71
     2
 72
     6
 73
     3
 74
     0
 42
0.0000000001
 43
0.0000000001
 40
-0.0672572180628776
 40
-0.0672572180628776
 40
-0.0672572180628776
 40
0.0
 40
0.0
 40
0.0
 10
-297.999997186659
 20
0.0000000000010576
 30
598.0000176429749
 10
-297.999997186659
 20
-10.25000003278149
 30
598.0000176429749
 10
-297.999997186659
 20
-20.50000006556404
 30
598.000017642975
  0
SPLINE
  5
241
330
1F
100
AcDbEntity
  8
FP_OB60S$Fisher _ Paykel-2
100
AcDbSpline
210
0.0
220
0.0
230
1.0
 70
    24
 71
     2
 72
     6
 73
     3
 74
     0
 42
0.0000000001
 43
0.0000000001
 40
-1.955380568197692
 40
-1.955380568197692
 40
-1.955380568197692
 40
0.0
 40
0.0
 40
0.0
 10
-297.999997186659
 20
-20.50000006556404
 30
598.000017642975
 10
0.0000014066691847
 20
-20.50000006556404
 30
598.000017642975
 10
297.9999999999974
 20
-20.50000006556404
 30
598.000017642975
  0
SPLINE
  5
242
330
1F
100
AcDbEntity
  8
FP_OB60S$Fisher _ Paykel-2
100
AcDbSpline
210
0.0
220
0.0
230
1.0
 70
    24
 71
     2
 72
     6
 73
     3
 74
     0
 42
0.0000000001
 43
0.0000000001
 40
-0.0095144510269164
 40
-0.0095144510269164
 40
-0.0095144510269164
 40
0.0
 40
0.0
 40
0.0
 10
297.9999999999974
 20
0.0000000000010576
 30
598.0000176429749
 10
297.9999999999974
 20
0.0000000000005288
 30
596.5500153064728
 10
297.9999999999974
 20
0.0
 30
595.1000129699707
  0
SPLINE
  5
243
330
1F
100
AcDbEntity
  8
FP_OB60S$Fisher _ Paykel-2
100
AcDbSpline
210
0.0
220
0.0
230
1.0
 70
    24
 71
     2
 72
     6
 73
     3
 74
     0
 42
0.0000000001
 43
0.0000000001
 40
-1.955380568197692
 40
-1.955380568197692
 40
-1.955380568197692
 40
0.0
 40
0.0
 40
0.0
 10
297.9999999999974
 20
0.0
 30
595.1000129699707
 10
0.0000014066691847
 20
0.0
 30
595.1000129699707
 10
-297.999997186659
 20
0.0
 30
595.1000129699707
  0
SPLINE
  5
244
330
1F
100
AcDbEntity
  8
FP_OB60S$Fisher _ Paykel-2
100
AcDbSpline
210
0.0
220
0.0
230
1.0
 70
    24
 71
     2
 72
     6
 73
     3
 74
     0
 42
0.0000000001
 43
0.0000000001
 40
-0.0095144510269164
 40
-0.0095144510269164
 40
-0.0095144510269164
 40
0.0
 40
0.0
 40
0.0
 10
-297.999997186659
 20
0.0
 30
595.1000129699707
 10
-297.999997186659
 20
0.0000000000005288
 30
596.5500153064728
 10
-297.999997186659
 20
0.0000000000010576
 30
598.0000176429749
  0
SPLINE
  5
245
330
1F
100
AcDbEntity
  8
FP_OB60S$Fisher _ Paykel-2
100
AcDbSpline
210
0.0
220
0.0
230
1.0
 70
    24
 71
     2
 72
     6
 73
     3
 74
     0
 42
0.0000000001
 43
0.0000000001
 40
-0.0672572180628742
 40
-0.0672572180628742
 40
-0.0672572180628742
 40
0.0
 40
0.0
 40
0.0
 10
297.9999999999974
 20
0.0
 30
595.1000129699707
 10
297.9999999999974
 20
-10.25000003278202
 30
595.1000129699707
 10
297.9999999999974
 20
-20.50000006556404
 30
595.1000129699707
  0
SPLINE
  5
246
330
1F
100
AcDbEntity
  8
FP_OB60S$Fisher _ Paykel-2
100
AcDbSpline
210
0.0
220
0.0
230
1.0
 70
    24
 71
     2
 72
     6
 73
     3
 74
     0
 42
0.0000000001
 43
0.0000000001
 40
-1.955380568197692
 40
-1.955380568197692
 40
-1.955380568197692
 40
0.0
 40
0.0
 40
0.0
 10
297.9999999999974
 20
-20.50000006556404
 30
595.1000129699707
 10
0.0000014066691847
 20
-20.50000006556404
 30
595.1000129699707
 10
-297.999997186659
 20
-20.50000006556404
 30
595.1000129699707
  0
SPLINE
  5
247
330
1F
100
AcDbEntity
  8
FP_OB60S$Fisher _ Paykel-2
100
AcDbSpline
210
0.0
220
0.0
230
1.0
 70
    24
 71
     2
 72
     6
 73
     3
 74
     0
 42
0.0000000001
 43
0.0000000001
 40
-0.0672572180628742
 40
-0.0672572180628742
 40
-0.0672572180628742
 40
0.0
 40
0.0
 40
0.0
 10
-297.999997186659
 20
-20.50000006556404
 30
595.1000129699707
 10
-297.999997186659
 20
-10.25000003278202
 30
595.1000129699707
 10
-297.999997186659
 20
0.0
 30
595.1000129699707
  0
SPLINE
  5
248
330
1F
100
AcDbEntity
  8
FP_OB60S$Fisher _ Paykel-2
100
AcDbSpline
210
0.0
220
0.0
230
1.0
 70
    24
 71
     2
 72
     6
 73
     3
 74
     0
 42
0.0000000001
 43
0.0000000001
 40
-0.0095144510269167
 40
-0.0095144510269167
 40
-0.0095144510269167
 40
0.0
 40
0.0
 40
0.0
 10
297.9999999999974
 20
-20.50000006556404
 30
595.1000129699707
 10
297.9999999999974
 20
-20.50000006556404
 30
596.5500153064729
 10
297.9999999999974
 20
-20.50000006556404
 30
598.000017642975
  0
SPLINE
  5
249
330
1F
100
AcDbEntity
  8
FP_OB60S$Fisher _ Paykel-2
100
AcDbSpline
210
0.0
220
0.0
230
1.0
 70
    24
 71
     2
 72
     6
 73
     3
 74
     0
 42
0.0000000001
 43
0.0000000001
 40
-0.0095144510269167
 40
-0.0095144510269167
 40
-0.0095144510269167
 40
0.0
 40
0.0
 40
0.0
 10
-297.999997186659
 20
-20.50000006556404
 30
598.000017642975
 10
-297.999997186659
 20
-20.50000006556404
 30
596.5500153064729
 10
-297.999997186659
 20
-20.50000006556404
 30
595.1000129699707
  0
LINE
  5
24A
330
1F
100
AcDbEntity
  8
FP_OB60S$Fisher _ Paykel-2
100
AcDbLine
 10
297.9999999999974
 20
-10.2500000327815
 30
598.0000176429749
 11
-297.9999971866591
 21
-10.2500000327815
 31
598.0000176429749
  0
LINE
  5
24B
330
1F
100
AcDbEntity
  8
FP_OB60S$Fisher _ Paykel-2
100
AcDbLine
 10
0.0000014066691847
 20
0.0000000000010575
 30
598.0000176429749
 11
0.0000014066691847
 21
-20.50000006556405
 31
598.000017642975
  0
LINE
  5
24C
330
1F
100
AcDbEntity
  8
FP_OB60S$Fisher _ Paykel-2
100
AcDbLine
 10
297.9999999999974
 20
0.000000000000529
 30
596.5500153064728
 11
-297.9999971866591
 21
0.000000000000529
 31
596.5500153064728
  0
LINE
  5
24D
330
1F
100
AcDbEntity
  8
FP_OB60S$Fisher _ Paykel-2
100
AcDbLine
 10
0.0000014066691847
 20
0.0
 30
595.1000129699707
 11
0.0000014066691847
 21
0.0000000000010579
 31
598.0000176429749
  0
LINE
  5
24E
330
1F
100
AcDbEntity
  8
FP_OB60S$Fisher _ Paykel-2
100
AcDbLine
 10
297.9999999999974
 20
-10.25000003278202
 30
595.1000129699707
 11
-297.9999971866591
 21
-10.25000003278202
 31
595.1000129699707
  0
LINE
  5
24F
330
1F
100
AcDbEntity
  8
FP_OB60S$Fisher _ Paykel-2
100
AcDbLine
 10
0.0000014066691847
 20
-20.50000006556405
 30
595.1000129699707
 11
0.0000014066691847
 21
-0.0000000000000008
 31
595.1000129699707
  0
LINE
  5
250
330
1F
100
AcDbEntity
  8
FP_OB60S$Fisher _ Paykel-2
100
AcDbLine
 10
297.9999999999974
 20
-20.50000006556405
 30
596.5500153064729
 11
-297.9999971866591
 21
-20.50000006556405
 31
596.5500153064729
  0
LINE
  5
251
330
1F
100
AcDbEntity
  8
FP_OB60S$Fisher _ Paykel-2
100
AcDbLine
 10
0.0000014066691847
 20
-20.50000006556405
 30
598.000017642975
 11
0.0000014066691847
 21
-20.50000006556405
 31
595.1000129699707
  0
LINE
  5
252
330
1F
100
AcDbEntity
  8
FP_OB60S$Fisher _ Paykel-2
100
AcDbLine
 10
-297.9999971866591
 20
-10.25000003278149
 30
595.1000129699707
 11
-297.9999971866591
 21
-10.25000003278149
 31
598.000017642975
  0
LINE
  5
253
330
1F
100
AcDbEntity
  8
FP_OB60S$Fisher _ Paykel-2
100
AcDbLine
 10
-297.9999971866591
 20
-20.50000006556405
 30
596.5500153064729
 11
-297.9999971866591
 21
0.0000000000005265
 31
596.5500153064729
  0
LINE
  5
254
330
1F
100
AcDbEntity
  8
FP_OB60S$Fisher _ Paykel-2
100
AcDbLine
 10
297.9999999999974
 20
-10.25000003278149
 30
598.000017642975
 11
297.9999999999974
 21
-10.25000003278149
 31
595.1000129699707
  0
LINE
  5
255
330
1F
100
AcDbEntity
  8
FP_OB60S$Fisher _ Paykel-2
100
AcDbLine
 10
297.9999999999974
 20
-20.50000006556405
 30
596.5500153064729
 11
297.9999999999974
 21
0.0000000000005265
 31
596.5500153064729
  0
INSERT
  5
29F
330
1F
100
AcDbEntity
  8
FP_OB60S$Fisher _ Paykel-1
100
AcDbBlockReference
  2
FamilyGeomCombination_81130-View 1
 10
0.0
 20
0.0
 30
0.0
  0
ENDSEC
  0
SECTION
  2
OBJECTS
  0
DICTIONARY
  5
C
330
0
100
AcDbDictionary
281
     1
  3
ACAD_DETAILVIEWSTYLE
350
2DB
  3
ACAD_GROUP
350
D
  3
ACAD_LAYOUT
350
1A
  3
ACAD_MATERIAL
350
43
  3
ACAD_MLEADERSTYLE
350
5B
  3
ACAD_MLINESTYLE
350
17
  3
ACAD_PLOTSETTINGS
350
19
  3
ACAD_PLOTSTYLENAME
350
E
  3
ACAD_SCALELIST
350
47
  3
ACAD_SECTIONVIEWSTYLE
350
2DC
  3
ACAD_TABLESTYLE
350
59
  3
ACAD_VISUALSTYLE
350
2A
  3
ACDB_RECOMPOSE_DATA
350
2D8
  3
AcDbVariableDictionary
350
2A0
  0
SUN
  5
5D
330
29
100
AcDbSun
 90
        1
290
     0
 63
     7
421
 16777215
 40
1.0
291
     1
 91
  2455826
 92
 54000000
292
     0
 70
     2
 71
   256
280
     1
  0
DICTIONARY
  5
2DB
102
{ACAD_REACTORS
330
C
102
}
330
C
100
AcDbDictionary
281
     1
  0
DICTIONARY
  5
D
102
{ACAD_REACTORS
330
C
102
}
330
C
100
AcDbDictionary
281
     1
  0
DICTIONARY
  5
1A
102
{ACAD_REACTORS
330
C
102
}
330
C
100
AcDbDictionary
281
     1
  3
Layout1
350
1E
  3
Layout2
350
26
  3
Model
350
22
  0
DICTIONARY
  5
43
102
{ACAD_REACTORS
330
C
102
}
330
C
100
AcDbDictionary
281
     1
  3
ByBlock
350
45
  3
ByLayer
350
44
  3
Global
350
46
  0
DICTIONARY
  5
5B
102
{ACAD_REACTORS
330
C
102
}
330
C
100
AcDbDictionary
281
     1
  3
Standard
350
5C
  0
DICTIONARY
  5
17
102
{ACAD_REACTORS
330
C
102
}
330
C
100
AcDbDictionary
281
     1
  3
Standard
350
18
  0
DICTIONARY
  5
19
102
{ACAD_REACTORS
330
C
102
}
330
C
100
AcDbDictionary
281
     1
  0
ACDBDICTIONARYWDFLT
  5
E
102
{ACAD_REACTORS
330
C
102
}
330
C
100
AcDbDictionary
281
     1
  3
Normal
350
F
100
AcDbDictionaryWithDefault
340
F
  0
DICTIONARY
  5
47
102
{ACAD_REACTORS
330
C
102
}
330
C
100
AcDbDictionary
281
     1
  3
A0
350
48
  3
A1
350
49
  3
A2
350
4A
  3
A3
350
4B
  3
A4
350
4C
  3
A5
350
4D
  3
A6
350
4E
  3
A7
350
4F
  3
A8
350
50
  3
A9
350
51
  3
B1
350
52
  3
B2
350
53
  3
B3
350
54
  3
B4
350
55
  3
B5
350
56
  3
B6
350
57
  3
B7
350
58
  0
DICTIONARY
  5
2DC
102
{ACAD_REACTORS
330
C
102
}
330
C
100
AcDbDictionary
281
     1
  0
DICTIONARY
  5
59
102
{ACAD_REACTORS
330
C
102
}
330
C
100
AcDbDictionary
281
     1
  3
Standard
350
5A
  0
DICTIONARY
  5
2A
102
{ACAD_REACTORS
330
C
102
}
330
C
100
AcDbDictionary
281
     1
  3
2dWireframe
350
2F
  3
Basic
350
32
  3
Brighten
350
36
  3
ColorChange
350
3A
  3
Conceptual
350
34
  3
Dim
350
35
  3
EdgeColorOff
350
3D
  3
Facepattern
350
39
  3
Flat
350
2B
  3
FlatWithEdges
350
2C
  3
Gouraud
350
2D
  3
GouraudWithEdges
350
2E
  3
Hidden
350
31
  3
JitterOff
350
3B
  3
Linepattern
350
38
  3
OverhangOff
350
3C
  3
Realistic
350
33
  3
Shaded
350
42
  3
Shaded with edges
350
41
  3
Shades of Gray
350
3E
  3
Sketchy
350
3F
  3
Thicken
350
37
  3
Wireframe
350
30
  3
X-Ray
350
40
  0
XRECORD
  5
2D8
102
{ACAD_REACTORS
330
C
102
}
330
C
100
AcDbXrecord
280
     1
 90
        1
330
5A
  0
DICTIONARY
  5
2A0
102
{ACAD_REACTORS
330
C
102
}
330
C
100
AcDbDictionary
281
     1
  3
CANNOSCALE
350
2A1
  3
CMLEADERSTYLE
350
2DA
  3
CTABLESTYLE
350
2D9
  3
XCLIPFRAME
350
2A2
  0
LAYOUT
  5
1E
102
{ACAD_REACTORS
330
1A
102
}
330
1A
100
AcDbPlotSettings
  1

  2
none_device
  4

  6

 40
0.0
 41
0.0
 42
0.0
 43
0.0
 44
0.0
 45
0.0
 46
0.0
 47
0.0
 48
0.0
 49
0.0
140
0.0
141
0.0
142
1.0
143
1.0
 70
   688
 72
     0
 73
     0
 74
     5
  7

 75
    16
 76
     0
 77
     2
 78
   300
147
1.0
148
0.0
149
0.0
100
AcDbLayout
  1
Layout1
 70
     1
 71
     1
 10
0.0
 20
0.0
 11
12.0
 21
9.0
 12
0.0
 22
0.0
 32
0.0
 14
1.000000000000000E+20
 24
1.000000000000000E+20
 34
1.000000000000000E+20
 15
-1.000000000000000E+20
 25
-1.000000000000000E+20
 35
-1.000000000000000E+20
146
0.0
 13
0.0
 23
0.0
 33
0.0
 16
1.0
 26
0.0
 36
0.0
 17
0.0
 27
1.0
 37
0.0
 76
     0
330
1B
  0
LAYOUT
  5
26
102
{ACAD_REACTORS
330
1A
102
}
330
1A
100
AcDbPlotSettings
  1

  2
none_device
  4

  6

 40
0.0
 41
0.0
 42
0.0
 43
0.0
 44
0.0
 45
0.0
 46
0.0
 47
0.0
 48
0.0
 49
0.0
140
0.0
141
0.0
142
1.0
143
1.0
 70
   688
 72
     0
 73
     0
 74
     5
  7

 75
    16
 76
     0
 77
     2
 78
   300
147
1.0
148
0.0
149
0.0
100
AcDbLayout
  1
Layout2
 70
     1
 71
     2
 10
0.0
 20
0.0
 11
0.0
 21
0.0
 12
0.0
 22
0.0
 32
0.0
 14
0.0
 24
0.0
 34
0.0
 15
0.0
 25
0.0
 35
0.0
146
0.0
 13
0.0
 23
0.0
 33
0.0
 16
1.0
 26
0.0
 36
0.0
 17
0.0
 27
1.0
 37
0.0
 76
     0
330
23
  0
LAYOUT
  5
22
102
{ACAD_REACTORS
330
1A
102
}
330
1A
100
AcDbPlotSettings
  1

  2
none_device
  4
Letter_(8.50_x_11.00_Inches)
  6

 40
6.35
 41
6.35
 42
6.35000508
 43
6.35000508
 44
215.9
 45
279.4
 46
0.0
 47
0.0
 48
0.0
 49
0.0
140
0.0
141
0.0
142
1.0
143
1.0
 70
  1712
 72
     0
 73
     0
 74
     0
  7

 75
     0
 76
     0
 77
     2
 78
   300
147
1.0
148
0.0
149
0.0
100
AcDbLayout
  1
Model
 70
     1
 71
     0
 10
0.0
 20
0.0
 11
12.0
 21
9.0
 12
0.0
 22
0.0
 32
0.0
 14
-298.0000000000025
 24
-62.00001630782994
 34
-0.0000000000000392
 15
297.9999999999976
 25
544.9999999999844
 35
598.000017642975
146
0.0
 13
0.0
 23
0.0
 33
0.0
 16
1.0
 26
0.0
 36
0.0
 17
0.0
 27
1.0
 37
0.0
 76
     0
330
1F
331
29
  0
MATERIAL
  5
45
102
{ACAD_REACTORS
330
43
102
}
330
43
100
AcDbMaterial
  1
ByBlock
 72
     1
 94
      127
  0
MATERIAL
  5
44
102
{ACAD_REACTORS
330
43
102
}
330
43
100
AcDbMaterial
  1
ByLayer
 72
     1
 94
      127
  0
MATERIAL
  5
46
102
{ACAD_REACTORS
330
43
102
}
330
43
100
AcDbMaterial
  1
Global
 72
     1
 94
      127
  0
MLEADERSTYLE
  5
5C
102
{ACAD_REACTORS
330
5B
102
}
102
{ACAD_XDICTIONARY
360
2D6
102
}
330
5B
100
AcDbMLeaderStyle
170
     2
171
     1
172
     0
 90
        2
 40
0.0
 41
0.0
173
     1
 91
-1056964608
340
14
 92
       -2
290
     1
 42
0.09
291
     1
 43
0.36
  3
Standard
341
0
 44
0.18
300

342
11
174
     1
178
     6
175
     1
176
     0
 93
-1056964608
 45
0.18
292
     0
297
     0
 46
0.18
343
0
 94
-1056964608
 47
1.0
 49
1.0
140
1.0
293
     1
141
0.0
294
     1
177
     0
142
1.0
295
     0
296
     0
143
0.125
1001
ACAD_MLEADERVER
1070
     2
  0
MLINESTYLE
  5
18
102
{ACAD_REACTORS
330
17
102
}
330
17
100
AcDbMlineStyle
  2
Standard
 70
     0
  3

 62
   256
 51
90.0
 52
90.0
 71
     2
 49
0.5
 62
   256
  6
BYLAYER
 49
-0.5
 62
   256
  6
BYLAYER
  0
ACDBPLACEHOLDER
  5
F
102
{ACAD_REACTORS
330
E
102
}
330
E
  0
SCALE
  5
48
102
{ACAD_REACTORS
330
47
102
}
330
47
100
AcDbScale
 70
     0
300
1:1
140
1.0
141
1.0
290
     1
  0
SCALE
  5
49
102
{ACAD_REACTORS
330
47
102
}
330
47
100
AcDbScale
 70
     0
300
1/128" = 1'-0"
140
0.0078125
141
12.0
290
     0
  0
SCALE
  5
4A
102
{ACAD_REACTORS
330
47
102
}
330
47
100
AcDbScale
 70
     0
300
1/64" = 1'-0"
140
0.015625
141
12.0
290
     0
  0
SCALE
  5
4B
102
{ACAD_REACTORS
330
47
102
}
330
47
100
AcDbScale
 70
     0
300
1/32" = 1'-0"
140
0.03125
141
12.0
290
     0
  0
SCALE
  5
4C
102
{ACAD_REACTORS
330
47
102
}
330
47
100
AcDbScale
 70
     0
300
1/16" = 1'-0"
140
0.0625
141
12.0
290
     0
  0
SCALE
  5
4D
102
{ACAD_REACTORS
330
47
102
}
330
47
100
AcDbScale
 70
     0
300
3/32" = 1'-0"
140
0.09375
141
12.0
290
     0
  0
SCALE
  5
4E
102
{ACAD_REACTORS
330
47
102
}
330
47
100
AcDbScale
 70
     0
300
1/8" = 1'-0"
140
0.125
141
12.0
290
     0
  0
SCALE
  5
4F
102
{ACAD_REACTORS
330
47
102
}
330
47
100
AcDbScale
 70
     0
300
3/16" = 1'-0"
140
0.1875
141
12.0
290
     0
  0
SCALE
  5
50
102
{ACAD_REACTORS
330
47
102
}
330
47
100
AcDbScale
 70
     0
300
1/4" = 1'-0"
140
0.25
141
12.0
290
     0
  0
SCALE
  5
51
102
{ACAD_REACTORS
330
47
102
}
330
47
100
AcDbScale
 70
     0
300
3/8" = 1'-0"
140
0.375
141
12.0
290
     0
  0
SCALE
  5
52
102
{ACAD_REACTORS
330
47
102
}
330
47
100
AcDbScale
 70
     0
300
1/2" = 1'-0"
140
0.5
141
12.0
290
     0
  0
SCALE
  5
53
102
{ACAD_REACTORS
330
47
102
}
330
47
100
AcDbScale
 70
     0
300
3/4" = 1'-0"
140
0.75
141
12.0
290
     0
  0
SCALE
  5
54
102
{ACAD_REACTORS
330
47
102
}
330
47
100
AcDbScale
 70
     0
300
1" = 1'-0"
140
1.0
141
12.0
290
     0
  0
SCALE
  5
55
102
{ACAD_REACTORS
330
47
102
}
330
47
100
AcDbScale
 70
     0
300
1-1/2" = 1'-0"
140
1.5
141
12.0
290
     0
  0
SCALE
  5
56
102
{ACAD_REACTORS
330
47
102
}
330
47
100
AcDbScale
 70
     0
300
3" = 1'-0"
140
3.0
141
12.0
290
     0
  0
SCALE
  5
57
102
{ACAD_REACTORS
330
47
102
}
330
47
100
AcDbScale
 70
     0
300
6" = 1'-0"
140
6.0
141
12.0
290
     0
  0
SCALE
  5
58
102
{ACAD_REACTORS
330
47
102
}
330
47
100
AcDbScale
 70
     0
300
1'-0" = 1'-0"
140
12.0
141
12.0
290
     0
  0
TABLESTYLE
  5
5A
102
{ACAD_REACTORS
330
59
102
}
102
{ACAD_XDICTIONARY
360
2D3
102
}
330
59
100
AcDbTableStyle
  3
Standard
 70
     0
 71
     0
 40
0.06
 41
0.06
280
     0
281
     0
  7
Standard
140
0.18
170
     2
 62
     0
 63
   257
283
     0
 90
        4
 91
        0
  1

274
    -2
284
     1
 64
     0
275
    -2
285
     1
 65
     0
276
    -2
286
     1
 66
     0
277
    -2
287
     1
 67
     0
278
    -2
288
     1
 68
     0
279
    -2
289
     1
 69
     0
  7
Standard
140
0.25
170
     5
 62
     0
 63
   257
283
     0
 90
        4
 91
        0
  1

274
    -2
284
     1
 64
     0
275
    -2
285
     1
 65
     0
276
    -2
286
     1
 66
     0
277
    -2
287
     1
 67
     0
278
    -2
288
     1
 68
     0
279
    -2
289
     1
 69
     0
  7
Standard
140
0.18
170
     5
 62
     0
 63
   257
283
     0
 90
        4
 91
        0
  1

274
    -2
284
     1
 64
     0
275
    -2
285
     1
 65
     0
276
    -2
286
     1
 66
     0
277
    -2
287
     1
 67
     0
278
    -2
288
     1
 68
     0
279
    -2
289
     1
 69
     0
  0
VISUALSTYLE
  5
2F
102
{ACAD_REACTORS
330
2A
102
}
102
{ACAD_XDICTIONARY
360
2AB
102
}
330
2A
100
AcDbVisualStyle
  2
2dWireframe
 70
     4
 71
     0
 72
     2
 73
     0
 90
        0
 40
0.6
 41
30.0
 62
     5
 63
     7
421
 16777215
 74
     1
 91
        4
 64
     7
 65
   257
 75
     1
175
     1
 42
1.0
 92
        0
 66
   257
 43
1.0
 76
     1
 77
     6
 78
     2
 67
     7
 79
     5
170
     0
171
     0
290
     0
174
     0
 93
        1
 44
0.0
173
     0
291
     0
 45
0.0
  0
VISUALSTYLE
  5
32
102
{ACAD_REACTORS
330
2A
102
}
102
{ACAD_XDICTIONARY
360
2B1
102
}
330
2A
100
AcDbVisualStyle
  2
Basic
 70
     7
 71
     1
 72
     0
 73
     1
 90
        0
 40
0.6
 41
30.0
 62
     5
 63
     7
421
 16777215
 74
     0
 91
        4
 64
     7
 65
   257
 75
     1
175
     1
 42
1.0
 92
        8
 66
     7
 43
1.0
 76
     1
 77
     6
 78
     2
 67
     7
 79
     5
170
     0
171
     0
290
     0
174
     0
 93
        1
 44
0.0
173
     0
291
     1
 45
0.0
  0
VISUALSTYLE
  5
36
102
{ACAD_REACTORS
330
2A
102
}
102
{ACAD_XDICTIONARY
360
2B9
102
}
330
2A
100
AcDbVisualStyle
  2
Brighten
 70
    12
 71
     2
 72
     2
 73
     0
 90
        0
 40
0.6
 41
30.0
 62
     5
 63
     7
421
 16777215
 74
     1
 91
        4
 64
     7
 65
   257
 75
     1
175
     1
 42
1.0
 92
        8
 66
     7
 43
1.0
 76
     1
 77
     6
 78
     2
 67
     7
 79
     5
170
     0
171
     0
290
     0
174
     0
 93
        1
 44
50.0
173
     0
291
     1
 45
0.0
  0
VISUALSTYLE
  5
3A
102
{ACAD_REACTORS
330
2A
102
}
102
{ACAD_XDICTIONARY
360
2C1
102
}
330
2A
100
AcDbVisualStyle
  2
ColorChange
 70
    16
 71
     2
 72
     2
 73
     3
 90
        0
 40
0.6
 41
30.0
 62
     5
 63
     8
421
  8421504
 74
     1
 91
        4
 64
     7
 65
   257
 75
     1
175
     1
 42
1.0
 92
        8
 66
     8
424
  8421504
 43
1.0
 76
     1
 77
     6
 78
     2
 67
     7
 79
     5
170
     0
171
     0
290
     0
174
     0
 93
        1
 44
0.0
173
     0
291
     1
 45
0.0
  0
VISUALSTYLE
  5
34
102
{ACAD_REACTORS
330
2A
102
}
102
{ACAD_XDICTIONARY
360
2B5
102
}
330
2A
100
AcDbVisualStyle
  2
Conceptual
 70
     9
 71
     3
 72
     2
 73
     0
 90
        0
 40
0.6
 41
30.0
 62
     5
 63
     7
421
 16777215
 74
     2
 91
        2
 64
     7
 65
   257
 75
     1
175
     1
 42
179.0
 92
        8
 66
     7
 43
1.0
 76
     1
 77
     6
 78
     2
 67
     7
 79
     3
170
     0
171
     0
290
     0
174
     0
 93
        1
 44
0.0
173
     0
291
     0
 45
0.0
  0
VISUALSTYLE
  5
35
102
{ACAD_REACTORS
330
2A
102
}
102
{ACAD_XDICTIONARY
360
2B7
102
}
330
2A
100
AcDbVisualStyle
  2
Dim
 70
    11
 71
     2
 72
     2
 73
     0
 90
        0
 40
0.6
 41
30.0
 62
     5
 63
     7
421
 16777215
 74
     1
 91
        4
 64
     7
 65
   257
 75
     1
175
     1
 42
1.0
 92
        8
 66
     7
 43
1.0
 76
     1
 77
     6
 78
     2
 67
     7
 79
     5
170
     0
171
     0
290
     0
174
     0
 93
        1
 44
-50.0
173
     0
291
     1
 45
0.0
  0
VISUALSTYLE
  5
3D
102
{ACAD_REACTORS
330
2A
102
}
102
{ACAD_XDICTIONARY
360
2C7
102
}
330
2A
100
AcDbVisualStyle
  2
EdgeColorOff
 70
    22
 71
     2
 72
     2
 73
     0
 90
        0
 40
0.6
 41
30.0
 62
     5
 63
     7
421
 16777215
 74
     1
 91
        4
 64
     7
 65
   257
 75
     1
175
     1
 42
1.0
 92
        8
 66
     7
 43
1.0
 76
     1
 77
     6
 78
     2
 67
     7
 79
     5
170
     0
171
     0
290
     0
174
     0
 93
        1
 44
0.0
173
     0
291
     1
 45
0.0
  0
VISUALSTYLE
  5
39
102
{ACAD_REACTORS
330
2A
102
}
102
{ACAD_XDICTIONARY
360
2BF
102
}
330
2A
100
AcDbVisualStyle
  2
Facepattern
 70
    15
 71
     2
 72
     2
 73
     0
 90
        0
 40
0.6
 41
30.0
 62
     5
 63
     7
421
 16777215
 74
     1
 91
        4
 64
     7
 65
   257
 75
     1
175
     1
 42
1.0
 92
        8
 66
     7
 43
1.0
 76
     1
 77
     6
 78
     2
 67
     7
 79
     5
170
     0
171
     0
290
     0
174
     0
 93
        1
 44
0.0
173
     0
291
     1
 45
0.0
  0
VISUALSTYLE
  5
2B
102
{ACAD_REACTORS
330
2A
102
}
102
{ACAD_XDICTIONARY
360
2A3
102
}
330
2A
100
AcDbVisualStyle
  2
Flat
 70
     0
 71
     2
 72
     1
 73
     1
 90
        2
 40
0.6
 41
30.0
 62
     5
 63
     7
421
 16777215
 74
     0
 91
        0
 64
     7
 65
   257
 75
     1
175
     1
 42
1.0
 92
        8
 66
     7
 43
1.0
 76
     1
 77
     6
 78
     2
 67
     7
 79
     5
170
     0
171
     0
290
     0
174
     0
 93
       13
 44
0.0
173
     0
291
     1
 45
0.0
  0
VISUALSTYLE
  5
2C
102
{ACAD_REACTORS
330
2A
102
}
102
{ACAD_XDICTIONARY
360
2A5
102
}
330
2A
100
AcDbVisualStyle
  2
FlatWithEdges
 70
     1
 71
     2
 72
     1
 73
     1
 90
        2
 40
0.6
 41
30.0
 62
     5
 63
     7
421
 16777215
 74
     1
 91
        0
 64
     7
 65
   257
 75
     1
175
     1
 42
1.0
 92
        0
 66
   257
 43
1.0
 76
     1
 77
     6
 78
     2
 67
     7
 79
     5
170
     0
171
     0
290
     0
174
     0
 93
       13
 44
0.0
173
     0
291
     1
 45
0.0
  0
VISUALSTYLE
  5
2D
102
{ACAD_REACTORS
330
2A
102
}
102
{ACAD_XDICTIONARY
360
2A7
102
}
330
2A
100
AcDbVisualStyle
  2
Gouraud
 70
     2
 71
     2
 72
     2
 73
     1
 90
        2
 40
0.6
 41
30.0
 62
     5
 63
     7
421
 16777215
 74
     0
 91
        0
 64
     7
 65
   257
 75
     1
175
     1
 42
1.0
 92
        0
 66
     7
 43
1.0
 76
     1
 77
     6
 78
     2
 67
     7
 79
     5
170
     0
171
     0
290
     0
174
     0
 93
       13
 44
0.0
173
     0
291
     1
 45
0.0
  0
VISUALSTYLE
  5
2E
102
{ACAD_REACTORS
330
2A
102
}
102
{ACAD_XDICTIONARY
360
2A9
102
}
330
2A
100
AcDbVisualStyle
  2
GouraudWithEdges
 70
     3
 71
     2
 72
     2
 73
     1
 90
        2
 40
0.6
 41
30.0
 62
     5
 63
     7
421
 16777215
 74
     1
 91
        0
 64
     7
 65
   257
 75
     1
175
     1
 42
1.0
 92
        0
 66
   257
 43
1.0
 76
     1
 77
     6
 78
     2
 67
     7
 79
     5
170
     0
171
     0
290
     0
174
     0
 93
       13
 44
0.0
173
     0
291
     1
 45
0.0
  0
VISUALSTYLE
  5
31
102
{ACAD_REACTORS
330
2A
102
}
102
{ACAD_XDICTIONARY
360
2AF
102
}
330
2A
100
AcDbVisualStyle
  2
Hidden
 70
     6
 71
     1
 72
     2
 73
     2
 90
        0
 40
0.6
 41
30.0
 62
     5
 63
     7
421
 16777215
 74
     2
 91
        2
 64
     7
 65
   257
 75
     2
175
     1
 42
40.0
 92
        0
 66
   257
 43
1.0
 76
     1
 77
     6
 78
     2
 67
     7
 79
     3
170
     0
171
     0
290
     0
174
     0
 93
        1
 44
0.0
173
     0
291
     0
 45
0.0
  0
VISUALSTYLE
  5
3B
102
{ACAD_REACTORS
330
2A
102
}
102
{ACAD_XDICTIONARY
360
2C3
102
}
330
2A
100
AcDbVisualStyle
  2
JitterOff
 70
    20
 71
     2
 72
     2
 73
     0
 90
        0
 40
0.6
 41
30.0
 62
     5
 63
     7
421
 16777215
 74
     1
 91
        4
 64
     7
 65
   257
 75
     1
175
     1
 42
1.0
 92
       10
 66
     7
 43
1.0
 76
     1
 77
     6
 78
     2
 67
     7
 79
     5
170
     0
171
     0
290
     0
174
     0
 93
        1
 44
0.0
173
     0
291
     1
 45
0.0
  0
VISUALSTYLE
  5
38
102
{ACAD_REACTORS
330
2A
102
}
102
{ACAD_XDICTIONARY
360
2BD
102
}
330
2A
100
AcDbVisualStyle
  2
Linepattern
 70
    14
 71
     2
 72
     2
 73
     0
 90
        0
 40
0.6
 41
30.0
 62
     5
 63
     7
421
 16777215
 74
     1
 91
        4
 64
     7
 65
   257
 75
     7
175
     7
 42
1.0
 92
        8
 66
     7
 43
1.0
 76
     1
 77
     6
 78
     2
 67
     7
 79
     5
170
     0
171
     0
290
     0
174
     0
 93
        1
 44
0.0
173
     0
291
     1
 45
0.0
  0
VISUALSTYLE
  5
3C
102
{ACAD_REACTORS
330
2A
102
}
102
{ACAD_XDICTIONARY
360
2C5
102
}
330
2A
100
AcDbVisualStyle
  2
OverhangOff
 70
    21
 71
     2
 72
     2
 73
     0
 90
        0
 40
0.6
 41
30.0
 62
     5
 63
     7
421
 16777215
 74
     1
 91
        4
 64
     7
 65
   257
 75
     1
175
     1
 42
1.0
 92
        9
 66
     7
 43
1.0
 76
     1
 77
     6
 78
     2
 67
     7
 79
     5
170
     0
171
     0
290
     0
174
     0
 93
        1
 44
0.0
173
     0
291
     1
 45
0.0
  0
VISUALSTYLE
  5
33
102
{ACAD_REACTORS
330
2A
102
}
102
{ACAD_XDICTIONARY
360
2B3
102
}
330
2A
100
AcDbVisualStyle
  2
Realistic
 70
     8
 71
     2
 72
     3
 73
     0
 90
        2
 40
0.6
 41
30.0
 62
     5
 63
     7
421
 16777215
 74
     0
 91
        0
 64
     7
 65
   257
 75
     1
175
     1
 42
1.0
 92
        8
 66
   257
 43
1.0
 76
     1
 77
     6
 78
     2
 67
     7
 79
     3
170
     0
171
     0
290
     0
174
     0
 93
       13
 44
0.0
173
     0
291
     0
 45
0.0
  0
VISUALSTYLE
  5
42
102
{ACAD_REACTORS
330
2A
102
}
102
{ACAD_XDICTIONARY
360
2D1
102
}
330
2A
100
AcDbVisualStyle
  2
Shaded
 70
    27
 71
     2
 72
     2
 73
     1
 90
        2
 40
0.6
 41
30.0
 62
     5
 63
     7
421
 16777215
 74
     0
 91
        4
 64
     7
 65
   257
 75
     1
175
     1
 42
1.0
 92
        8
 66
   257
 43
1.0
 76
     1
 77
     6
 78
     2
 67
     8
425
  7895160
 79
     3
170
     0
171
     0
290
     0
174
     0
 93
        5
 44
0.0
173
     0
291
     0
 45
0.0
  0
VISUALSTYLE
  5
41
102
{ACAD_REACTORS
330
2A
102
}
102
{ACAD_XDICTIONARY
360
2CF
102
}
330
2A
100
AcDbVisualStyle
  2
Shaded with edges
 70
    26
 71
     2
 72
     2
 73
     1
 90
        2
 40
0.6
 41
30.0
 62
     5
 63
     7
421
 16777215
 74
     1
 91
       10
 64
     7
 65
   257
 75
     2
175
     1
 42
1.0
 92
        8
 66
   257
 43
1.0
 76
     1
 77
     6
 78
     2
 67
     7
 79
     3
170
     0
171
     0
290
     0
174
     0
 93
        5
 44
0.0
173
     0
291
     0
 45
0.0
  0
VISUALSTYLE
  5
3E
102
{ACAD_REACTORS
330
2A
102
}
102
{ACAD_XDICTIONARY
360
2C9
102
}
330
2A
100
AcDbVisualStyle
  2
Shades of Gray
 70
    23
 71
     2
 72
     2
 73
     3
 90
        0
 40
0.6
 41
30.0
 62
     5
 63
     7
421
 16777215
 74
     2
 91
        2
 64
     7
 65
     7
 75
     1
175
     1
 42
40.0
 92
        8
 66
     7
 43
1.0
 76
     1
 77
     6
 78
     2
 67
     7
 79
     3
170
     0
171
     0
290
     0
174
     0
 93
        1
 44
0.0
173
     0
291
     0
 45
0.0
  0
VISUALSTYLE
  5
3F
102
{ACAD_REACTORS
330
2A
102
}
102
{ACAD_XDICTIONARY
360
2CB
102
}
330
2A
100
AcDbVisualStyle
  2
Sketchy
 70
    24
 71
     1
 72
     2
 73
     2
 90
        0
 40
0.6
 41
30.0
 62
     5
 63
     7
421
 16777215
 74
     2
 91
        2
 64
     7
 65
     7
 75
     1
175
     1
 42
40.0
 92
       11
 66
     7
 43
1.0
 76
     1
 77
     6
 78
     2
 67
     7
 79
     6
170
     0
171
     0
290
     0
174
     0
 93
        1
 44
0.0
173
     0
291
     0
 45
0.0
  0
VISUALSTYLE
  5
37
102
{ACAD_REACTORS
330
2A
102
}
102
{ACAD_XDICTIONARY
360
2BB
102
}
330
2A
100
AcDbVisualStyle
  2
Thicken
 70
    13
 71
     2
 72
     2
 73
     0
 90
        0
 40
0.6
 41
30.0
 62
     5
 63
     7
421
 16777215
 74
     1
 91
        4
 64
     7
 65
   257
 75
     1
175
     1
 42
1.0
 92
       12
 66
     7
 43
1.0
 76
     1
 77
     6
 78
     2
 67
     7
 79
     5
170
     0
171
     0
290
     0
174
     0
 93
        1
 44
0.0
173
     0
291
     1
 45
0.0
  0
VISUALSTYLE
  5
30
102
{ACAD_REACTORS
330
2A
102
}
102
{ACAD_XDICTIONARY
360
2AD
102
}
330
2A
100
AcDbVisualStyle
  2
Wireframe
 70
     5
 71
     0
 72
     2
 73
     0
 90
        0
 40
0.6
 41
30.0
 62
     5
 63
     7
421
 16777215
 74
     1
 91
        4
 64
     7
 65
   257
 75
     1
175
     1
 42
1.0
 92
        0
 66
   257
 43
1.0
 76
     1
 77
     6
 78
     2
 67
     7
 79
     3
170
     0
171
     0
290
     0
174
     0
 93
        1
 44
0.0
173
     0
291
     0
 45
0.0
  0
VISUALSTYLE
  5
40
102
{ACAD_REACTORS
330
2A
102
}
102
{ACAD_XDICTIONARY
360
2CD
102
}
330
2A
100
AcDbVisualStyle
  2
X-Ray
 70
    25
 71
     2
 72
     2
 73
     1
 90
        1
 40
0.5
 41
30.0
 62
     5
 63
     7
421
 16777215
 74
     1
 91
        0
 64
     7
 65
   257
 75
     1
175
     1
 42
1.0
 92
        8
 66
     7
 43
1.0
 76
     1
 77
     6
 78
     2
 67
     7
 79
     3
170
     0
171
     0
290
     0
174
     0
 93
       13
 44
0.0
173
     0
291
     0
 45
0.0
  0
DICTIONARYVAR
  5
2A1
102
{ACAD_REACTORS
330
2A0
102
}
330
2A0
100
DictionaryVariables
280
     0
  1
1:1
  0
DICTIONARYVAR
  5
2DA
102
{ACAD_REACTORS
330
2A0
102
}
330
2A0
100
DictionaryVariables
280
     0
  1
Standard
  0
DICTIONARYVAR
  5
2D9
102
{ACAD_REACTORS
330
2A0
102
}
330
2A0
100
DictionaryVariables
280
     0
  1
Standard
  0
DICTIONARYVAR
  5
2A2
102
{ACAD_REACTORS
330
2A0
102
}
330
2A0
100
DictionaryVariables
280
     0
  1
2
  0
DICTIONARY
  5
2D6
330
5C
100
AcDbDictionary
280
     1
281
     1
  3
ACAD_XREC_ROUNDTRIP
360
2D7
  0
DICTIONARY
  5
2D3
330
5A
100
AcDbDictionary
280
     1
281
     1
  3
ACAD_ROUNDTRIP_2008_TABLESTYLE_CELLSTYLEMAP
360
2D4
  0
DICTIONARY
  5
2AB
330
2F
100
AcDbDictionary
280
     1
281
     1
  3
ACAD_XREC_ROUNDTRIP
360
2AC
  0
DICTIONARY
  5
2B1
330
32
100
AcDbDictionary
280
     1
281
     1
  3
ACAD_XREC_ROUNDTRIP
360
2B2
  0
DICTIONARY
  5
2B9
330
36
100
AcDbDictionary
280
     1
281
     1
  3
ACAD_XREC_ROUNDTRIP
360
2BA
  0
DICTIONARY
  5
2C1
330
3A
100
AcDbDictionary
280
     1
281
     1
  3
ACAD_XREC_ROUNDTRIP
360
2C2
  0
DICTIONARY
  5
2B5
330
34
100
AcDbDictionary
280
     1
281
     1
  3
ACAD_XREC_ROUNDTRIP
360
2B6
  0
DICTIONARY
  5
2B7
330
35
100
AcDbDictionary
280
     1
281
     1
  3
ACAD_XREC_ROUNDTRIP
360
2B8
  0
DICTIONARY
  5
2C7
330
3D
100
AcDbDictionary
280
     1
281
     1
  3
ACAD_XREC_ROUNDTRIP
360
2C8
  0
DICTIONARY
  5
2BF
330
39
100
AcDbDictionary
280
     1
281
     1
  3
ACAD_XREC_ROUNDTRIP
360
2C0
  0
DICTIONARY
  5
2A3
330
2B
100
AcDbDictionary
280
     1
281
     1
  3
ACAD_XREC_ROUNDTRIP
360
2A4
  0
DICTIONARY
  5
2A5
330
2C
100
AcDbDictionary
280
     1
281
     1
  3
ACAD_XREC_ROUNDTRIP
360
2A6
  0
DICTIONARY
  5
2A7
330
2D
100
AcDbDictionary
280
     1
281
     1
  3
ACAD_XREC_ROUNDTRIP
360
2A8
  0
DICTIONARY
  5
2A9
330
2E
100
AcDbDictionary
280
     1
281
     1
  3
ACAD_XREC_ROUNDTRIP
360
2AA
  0
DICTIONARY
  5
2AF
330
31
100
AcDbDictionary
280
     1
281
     1
  3
ACAD_XREC_ROUNDTRIP
360
2B0
  0
DICTIONARY
  5
2C3
330
3B
100
AcDbDictionary
280
     1
281
     1
  3
ACAD_XREC_ROUNDTRIP
360
2C4
  0
DICTIONARY
  5
2BD
330
38
100
AcDbDictionary
280
     1
281
     1
  3
ACAD_XREC_ROUNDTRIP
360
2BE
  0
DICTIONARY
  5
2C5
330
3C
100
AcDbDictionary
280
     1
281
     1
  3
ACAD_XREC_ROUNDTRIP
360
2C6
  0
DICTIONARY
  5
2B3
330
33
100
AcDbDictionary
280
     1
281
     1
  3
ACAD_XREC_ROUNDTRIP
360
2B4
  0
DICTIONARY
  5
2D1
330
42
100
AcDbDictionary
280
     1
281
     1
  3
ACAD_XREC_ROUNDTRIP
360
2D2
  0
DICTIONARY
  5
2CF
330
41
100
AcDbDictionary
280
     1
281
     1
  3
ACAD_XREC_ROUNDTRIP
360
2D0
  0
DICTIONARY
  5
2C9
330
3E
100
AcDbDictionary
280
     1
281
     1
  3
ACAD_XREC_ROUNDTRIP
360
2CA
  0
DICTIONARY
  5
2CB
330
3F
100
AcDbDictionary
280
     1
281
     1
  3
ACAD_XREC_ROUNDTRIP
360
2CC
  0
DICTIONARY
  5
2BB
330
37
100
AcDbDictionary
280
     1
281
     1
  3
ACAD_XREC_ROUNDTRIP
360
2BC
  0
DICTIONARY
  5
2AD
330
30
100
AcDbDictionary
280
     1
281
     1
  3
ACAD_XREC_ROUNDTRIP
360
2AE
  0
DICTIONARY
  5
2CD
330
40
100
AcDbDictionary
280
     1
281
     1
  3
ACAD_XREC_ROUNDTRIP
360
2CE
  0
XRECORD
  5
2D7
102
{ACAD_REACTORS
330
2D6
102
}
330
2D6
100
AcDbXrecord
280
     1
102
ACAD_ROUNDTRIP_2010_MLEADER_STYLE
  0
CELLSTYLEMAP
  5
2D4
102
{ACAD_REACTORS
330
2D3
102
}
330
2D3
100
AcDbCellStyleMap
 90
        3
300
CELLSTYLE
  1
TABLEFORMAT_BEGIN
 90
        5
170
     1
 91
        0
 92
    32768
 62
   257
 93
        1
300
CONTENTFORMAT
  1
CONTENTFORMAT_BEGIN
 90
        0
 91
        0
 92
        4
 93
        0
300

 40
0.0
140
1.0
 94
        5
 62
     0
340
11
144
0.25
309
CONTENTFORMAT_END
171
     1
301
MARGIN
  1
CELLMARGIN_BEGIN
 40
0.06
 40
0.06
 40
0.06
 40
0.06
 40
0.06
 40
0.06
309
CELLMARGIN_END
 94
        6
 95
        1
302
GRIDFORMAT
  1
GRIDFORMAT_BEGIN
 90
        0
 91
        1
 62
     0
 92
       -2
340
14
 93
        0
 40
0.045
309
GRIDFORMAT_END
 95
        2
302
GRIDFORMAT
  1
GRIDFORMAT_BEGIN
 90
        0
 91
        1
 62
     0
 92
       -2
340
14
 93
        0
 40
0.045
309
GRIDFORMAT_END
 95
        4
302
GRIDFORMAT
  1
GRIDFORMAT_BEGIN
 90
        0
 91
        1
 62
     0
 92
       -2
340
14
 93
        0
 40
0.045
309
GRIDFORMAT_END
 95
        8
302
GRIDFORMAT
  1
GRIDFORMAT_BEGIN
 90
        0
 91
        1
 62
     0
 92
       -2
340
14
 93
        0
 40
0.045
309
GRIDFORMAT_END
 95
       16
302
GRIDFORMAT
  1
GRIDFORMAT_BEGIN
 90
        0
 91
        1
 62
     0
 92
       -2
340
14
 93
        0
 40
0.045
309
GRIDFORMAT_END
 95
       32
302
GRIDFORMAT
  1
GRIDFORMAT_BEGIN
 90
        0
 91
        1
 62
     0
 92
       -2
340
14
 93
        0
 40
0.045
309
GRIDFORMAT_END
309
TABLEFORMAT_END
  1
CELLSTYLE_BEGIN
 90
        1
 91
        1
300
_TITLE
309
CELLSTYLE_END
300
CELLSTYLE
  1
TABLEFORMAT_BEGIN
 90
        5
170
     1
 91
        0
 92
        0
 62
   257
 93
        1
300
CONTENTFORMAT
  1
CONTENTFORMAT_BEGIN
 90
        0
 91
        0
 92
        4
 93
        0
300

 40
0.0
140
1.0
 94
        5
 62
     0
340
11
144
0.18
309
CONTENTFORMAT_END
171
     1
301
MARGIN
  1
CELLMARGIN_BEGIN
 40
0.06
 40
0.06
 40
0.06
 40
0.06
 40
0.06
 40
0.06
309
CELLMARGIN_END
 94
        6
 95
        1
302
GRIDFORMAT
  1
GRIDFORMAT_BEGIN
 90
        0
 91
        1
 62
     0
 92
       -2
340
14
 93
        0
 40
0.045
309
GRIDFORMAT_END
 95
        2
302
GRIDFORMAT
  1
GRIDFORMAT_BEGIN
 90
        0
 91
        1
 62
     0
 92
       -2
340
14
 93
        0
 40
0.045
309
GRIDFORMAT_END
 95
        4
302
GRIDFORMAT
  1
GRIDFORMAT_BEGIN
 90
        0
 91
        1
 62
     0
 92
       -2
340
14
 93
        0
 40
0.045
309
GRIDFORMAT_END
 95
        8
302
GRIDFORMAT
  1
GRIDFORMAT_BEGIN
 90
        0
 91
        1
 62
     0
 92
       -2
340
14
 93
        0
 40
0.045
309
GRIDFORMAT_END
 95
       16
302
GRIDFORMAT
  1
GRIDFORMAT_BEGIN
 90
        0
 91
        1
 62
     0
 92
       -2
340
14
 93
        0
 40
0.045
309
GRIDFORMAT_END
 95
       32
302
GRIDFORMAT
  1
GRIDFORMAT_BEGIN
 90
        0
 91
        1
 62
     0
 92
       -2
340
14
 93
        0
 40
0.045
309
GRIDFORMAT_END
309
TABLEFORMAT_END
  1
CELLSTYLE_BEGIN
 90
        2
 91
        1
300
_HEADER
309
CELLSTYLE_END
300
CELLSTYLE
  1
TABLEFORMAT_BEGIN
 90
        5
170
     1
 91
        0
 92
        0
 62
   257
 93
        1
300
CONTENTFORMAT
  1
CONTENTFORMAT_BEGIN
 90
        0
 91
        0
 92
        4
 93
        0
300

 40
0.0
140
1.0
 94
        2
 62
     0
340
11
144
0.18
309
CONTENTFORMAT_END
171
     1
301
MARGIN
  1
CELLMARGIN_BEGIN
 40
0.06
 40
0.06
 40
0.06
 40
0.06
 40
0.06
 40
0.06
309
CELLMARGIN_END
 94
        6
 95
        1
302
GRIDFORMAT
  1
GRIDFORMAT_BEGIN
 90
        0
 91
        1
 62
     0
 92
       -2
340
14
 93
        0
 40
0.045
309
GRIDFORMAT_END
 95
        2
302
GRIDFORMAT
  1
GRIDFORMAT_BEGIN
 90
        0
 91
        1
 62
     0
 92
       -2
340
14
 93
        0
 40
0.045
309
GRIDFORMAT_END
 95
        4
302
GRIDFORMAT
  1
GRIDFORMAT_BEGIN
 90
        0
 91
        1
 62
     0
 92
       -2
340
14
 93
        0
 40
0.045
309
GRIDFORMAT_END
 95
        8
302
GRIDFORMAT
  1
GRIDFORMAT_BEGIN
 90
        0
 91
        1
 62
     0
 92
       -2
340
14
 93
        0
 40
0.045
309
GRIDFORMAT_END
 95
       16
302
GRIDFORMAT
  1
GRIDFORMAT_BEGIN
 90
        0
 91
        1
 62
     0
 92
       -2
340
14
 93
        0
 40
0.045
309
GRIDFORMAT_END
 95
       32
302
GRIDFORMAT
  1
GRIDFORMAT_BEGIN
 90
        0
 91
        1
 62
     0
 92
       -2
340
14
 93
        0
 40
0.045
309
GRIDFORMAT_END
309
TABLEFORMAT_END
  1
CELLSTYLE_BEGIN
 90
        3
 91
        2
300
_DATA
309
CELLSTYLE_END
  0
XRECORD
  5
2AC
102
{ACAD_REACTORS
330
2AB
102
}
330
2AB
100
AcDbXrecord
280
     1
102
RTVSPropertyOp0
 70
     1
102
RTVSPropertyOp1
 70
     1
102
RTVSPropertyOp2
 70
     1
102
RTVSPropertyOp3
 70
     1
102
RTVSPropertyOp4
 70
     1
102
RTVSPropertyOp5
 70
     1
102
RTVSPropertyOp6
 70
     1
102
RTVSPropertyOp7
 70
     1
102
RTVSPropertyOp8
 70
     1
102
RTVSPropertyOp9
 70
     1
102
RTVSPropertyOp10
 70
     1
102
RTVSPropertyOp11
 70
     1
102
RTVSPropertyOp12
 70
     1
102
RTVSPropertyOp13
 70
     1
102
RTVSPropertyOp14
 70
     1
102
RTVSPropertyOp15
 70
     1
102
RTVSPropertyOp16
 70
     1
102
RTVSPropertyOp17
 70
     1
102
RTVSPropertyOp18
 70
     1
102
RTVSPropertyOp19
 70
     1
102
RTVSPropertyOp20
 70
     1
102
RTVSPropertyOp21
 70
     1
102
RTVSPropertyOp22
 70
     1
102
RTVSPropertyOp23
 70
     1
102
RTVSPropertyOp24
 70
     1
102
RTVSPropertyOp25
 70
     1
102
RTVSPropertyOp26
 70
     1
102
RTVSPropertyOp27
 70
     1
102
RTVSPropertyOp28
 70
     1
102
RTVSPropertyOp29
 70
     1
102
RTVSPropertyOp30
 70
     1
102
RTVSPropertyOp31
 70
     1
102
RTVSPropertyOp32
 70
     1
102
RTVSPropertyOp33
 70
     1
102
RTVSPropertyOp34
 70
     1
102
RTVSPropertyOp35
 70
     1
102
RTVSPropertyOp36
 70
     1
102
RTVSPropertyOp37
 70
     1
102
RTVSPropertyOp38
 70
     1
102
RTVSPropertyOp39
 70
     1
102
RTVSPropertyOp40
 70
     1
102
RTVSPropertyOp41
 70
     1
102
RTVSPropertyOp42
 70
     1
102
RTVSPropertyOp43
 70
     1
102
RTVSPropertyOp44
 70
     1
102
RTVSPropertyOp45
 70
     1
102
RTVSPropertyOp46
 70
     1
102
RTVSPropertyOp47
 70
     1
102
RTVSPropertyOp48
 70
     1
102
RTVSPropertyOp49
 70
     1
102
RTVSPropertyOp50
 70
     1
102
RTVSPropertyOp51
 70
     0
102
RTVSPropertyOp52
 70
     0
102
RTVSPropertyOp53
 70
     1
102
RTVSPropertyOp54
 70
     1
102
RTVSPropertyOp55
 70
     1
102
RTVSPropertyOp56
 70
     1
102
RTVSPropertyOp57
 70
     1
102
RTVSPost2010Prop28
280
     1
102
RTVSPost2010PropOp28
 70
     1
102
RTVSPost2010Prop29
280
     1
102
RTVSPost2010PropOp29
 70
     1
102
RTVSPost2010Prop30
280
     0
102
RTVSPost2010PropOp30
 70
     1
102
RTVSPost2010Prop31
280
     0
102
RTVSPost2010PropOp31
 70
     1
102
RTVSPost2010Prop32
280
     0
102
RTVSPost2010PropOp32
 70
     1
102
RTVSPost2010Prop33
280
     0
102
RTVSPost2010PropOp33
 70
     1
102
RTVSPost2010Prop34
280
     0
102
RTVSPost2010PropOp34
 70
     1
102
RTVSPost2010Prop35
280
     0
102
RTVSPost2010PropOp35
 70
     1
102
RTVSPost2010Prop36
280
     0
102
RTVSPost2010PropOp36
 70
     1
102
RTVSPost2010Prop37
 90
       50
102
RTVSPost2010PropOp37
 70
     1
102
RTVSPost2010Prop38
140
0.0
102
RTVSPost2010PropOp38
 70
     1
102
RTVSPost2010Prop39
140
1.0
102
RTVSPost2010PropOp39
 70
     1
102
RTVSPost2010Prop40
 90
        0
102
RTVSPost2010PropOp40
 70
     1
102
RTVSPost2010Prop41ColorIndex
 90
       18
102
RTVSPost2010Prop41ColorRGB
 90
        0
102
RTVSPost2010PropOp41
 70
     1
102
RTVSPost2010Prop42
 90
       50
102
RTVSPost2010PropOp42
 70
     1
102
RTVSPost2010Prop43
 90
        3
102
RTVSPost2010PropOp43
 70
     1
102
RTVSPost2010Prop44ColorIndex
 90
        5
102
RTVSPost2010Prop44ColorRGB
 90
      255
102
RTVSPost2010PropOp44
 70
     1
102
RTVSPost2010Prop45
280
     0
102
RTVSPost2010PropOp45
 70
     1
102
RTVSPost2010Prop46
 90
       50
102
RTVSPost2010PropOp46
 70
     1
102
RTVSPost2010Prop47
 90
       50
102
RTVSPost2010PropOp47
 70
     1
102
RTVSPost2010Prop48
 90
       50
102
RTVSPost2010PropOp48
 70
     1
102
RTVSPost2010Prop49
280
     0
102
RTVSPost2010PropOp49
 70
     1
102
RTVSPost2010Prop50
 90
       50
102
RTVSPost2010PropOp50
 70
     1
102
RTVSPost2010Prop51ColorIndex
 90
      256
102
RTVSPost2010Prop51ColorRGB
 90
-16777216
102
RTVSPost2010PropOp51
 70
     0
102
RTVSPost2010Prop52
140
1.0
102
RTVSPost2010PropOp52
 70
     0
102
RTVSPost2010Prop53
 90
        2
102
RTVSPost2010PropOp53
 70
     1
102
RTVSPost2010Prop54
  1
strokes_ogs.tif
102
RTVSPost2010PropOp54
 70
     1
102
RTVSPost2010Prop55
280
     0
102
RTVSPost2010PropOp55
 70
     1
102
RTVSPost2010Prop56
140
1.0
102
RTVSPost2010PropOp56
 70
     1
102
RTVSPost2010Prop57
140
1.0
102
RTVSPost2010PropOp57
 70
     1
  0
XRECORD
  5
2B2
102
{ACAD_REACTORS
330
2B1
102
}
330
2B1
100
AcDbXrecord
280
     1
102
RTVSPropertyOp0
 70
     1
102
RTVSPropertyOp1
 70
     1
102
RTVSPropertyOp2
 70
     1
102
RTVSPropertyOp3
 70
     1
102
RTVSPropertyOp4
 70
     1
102
RTVSPropertyOp5
 70
     1
102
RTVSPropertyOp6
 70
     1
102
RTVSPropertyOp7
 70
     1
102
RTVSPropertyOp8
 70
     1
102
RTVSPropertyOp9
 70
     1
102
RTVSPropertyOp10
 70
     1
102
RTVSPropertyOp11
 70
     1
102
RTVSPropertyOp12
 70
     1
102
RTVSPropertyOp13
 70
     1
102
RTVSPropertyOp14
 70
     1
102
RTVSPropertyOp15
 70
     1
102
RTVSPropertyOp16
 70
     1
102
RTVSPropertyOp17
 70
     1
102
RTVSPropertyOp18
 70
     1
102
RTVSPropertyOp19
 70
     1
102
RTVSPropertyOp20
 70
     1
102
RTVSPropertyOp21
 70
     1
102
RTVSPropertyOp22
 70
     1
102
RTVSPropertyOp23
 70
     1
102
RTVSPropertyOp24
 70
     1
102
RTVSPropertyOp25
 70
     1
102
RTVSPropertyOp26
 70
     1
102
RTVSPropertyOp27
 70
     1
102
RTVSPropertyOp28
 70
     1
102
RTVSPropertyOp29
 70
     1
102
RTVSPropertyOp30
 70
     1
102
RTVSPropertyOp31
 70
     1
102
RTVSPropertyOp32
 70
     1
102
RTVSPropertyOp33
 70
     1
102
RTVSPropertyOp34
 70
     1
102
RTVSPropertyOp35
 70
     1
102
RTVSPropertyOp36
 70
     1
102
RTVSPropertyOp37
 70
     1
102
RTVSPropertyOp38
 70
     1
102
RTVSPropertyOp39
 70
     1
102
RTVSPropertyOp40
 70
     1
102
RTVSPropertyOp41
 70
     1
102
RTVSPropertyOp42
 70
     1
102
RTVSPropertyOp43
 70
     1
102
RTVSPropertyOp44
 70
     1
102
RTVSPropertyOp45
 70
     1
102
RTVSPropertyOp46
 70
     1
102
RTVSPropertyOp47
 70
     1
102
RTVSPropertyOp48
 70
     1
102
RTVSPropertyOp49
 70
     1
102
RTVSPropertyOp50
 70
     1
102
RTVSPropertyOp51
 70
     0
102
RTVSPropertyOp52
 70
     0
102
RTVSPropertyOp53
 70
     1
102
RTVSPropertyOp54
 70
     1
102
RTVSPropertyOp55
 70
     1
102
RTVSPropertyOp56
 70
     1
102
RTVSPropertyOp57
 70
     1
102
RTVSPost2010Prop28
280
     0
102
RTVSPost2010PropOp28
 70
     1
102
RTVSPost2010Prop29
280
     1
102
RTVSPost2010PropOp29
 70
     1
102
RTVSPost2010Prop30
280
     1
102
RTVSPost2010PropOp30
 70
     1
102
RTVSPost2010Prop31
280
     0
102
RTVSPost2010PropOp31
 70
     1
102
RTVSPost2010Prop32
280
     0
102
RTVSPost2010PropOp32
 70
     1
102
RTVSPost2010Prop33
280
     0
102
RTVSPost2010PropOp33
 70
     1
102
RTVSPost2010Prop34
280
     0
102
RTVSPost2010PropOp34
 70
     1
102
RTVSPost2010Prop35
280
     0
102
RTVSPost2010PropOp35
 70
     1
102
RTVSPost2010Prop36
280
     0
102
RTVSPost2010PropOp36
 70
     1
102
RTVSPost2010Prop37
 90
       50
102
RTVSPost2010PropOp37
 70
     1
102
RTVSPost2010Prop38
140
0.0
102
RTVSPost2010PropOp38
 70
     1
102
RTVSPost2010Prop39
140
1.0
102
RTVSPost2010PropOp39
 70
     1
102
RTVSPost2010Prop40
 90
        0
102
RTVSPost2010PropOp40
 70
     1
102
RTVSPost2010Prop41ColorIndex
 90
       18
102
RTVSPost2010Prop41ColorRGB
 90
        0
102
RTVSPost2010PropOp41
 70
     1
102
RTVSPost2010Prop42
 90
       50
102
RTVSPost2010PropOp42
 70
     1
102
RTVSPost2010Prop43
 90
        3
102
RTVSPost2010PropOp43
 70
     1
102
RTVSPost2010Prop44ColorIndex
 90
        5
102
RTVSPost2010Prop44ColorRGB
 90
      255
102
RTVSPost2010PropOp44
 70
     1
102
RTVSPost2010Prop45
280
     0
102
RTVSPost2010PropOp45
 70
     1
102
RTVSPost2010Prop46
 90
       50
102
RTVSPost2010PropOp46
 70
     1
102
RTVSPost2010Prop47
 90
       50
102
RTVSPost2010PropOp47
 70
     1
102
RTVSPost2010Prop48
 90
       50
102
RTVSPost2010PropOp48
 70
     1
102
RTVSPost2010Prop49
280
     0
102
RTVSPost2010PropOp49
 70
     1
102
RTVSPost2010Prop50
 90
       50
102
RTVSPost2010PropOp50
 70
     1
102
RTVSPost2010Prop51ColorIndex
 90
      256
102
RTVSPost2010Prop51ColorRGB
 90
-16777216
102
RTVSPost2010PropOp51
 70
     0
102
RTVSPost2010Prop52
140
1.0
102
RTVSPost2010PropOp52
 70
     0
102
RTVSPost2010Prop53
 90
        2
102
RTVSPost2010PropOp53
 70
     1
102
RTVSPost2010Prop54
  1
strokes_ogs.tif
102
RTVSPost2010PropOp54
 70
     1
102
RTVSPost2010Prop55
280
     0
102
RTVSPost2010PropOp55
 70
     1
102
RTVSPost2010Prop56
140
1.0
102
RTVSPost2010PropOp56
 70
     1
102
RTVSPost2010Prop57
140
1.0
102
RTVSPost2010PropOp57
 70
     1
  0
XRECORD
  5
2BA
102
{ACAD_REACTORS
330
2B9
102
}
330
2B9
100
AcDbXrecord
280
     1
102
RTVSPropertyOp0
 70
     1
102
RTVSPropertyOp1
 70
     1
102
RTVSPropertyOp2
 70
     1
102
RTVSPropertyOp3
 70
     1
102
RTVSPropertyOp4
 70
     1
102
RTVSPropertyOp5
 70
     1
102
RTVSPropertyOp6
 70
     1
102
RTVSPropertyOp7
 70
     1
102
RTVSPropertyOp8
 70
     1
102
RTVSPropertyOp9
 70
     1
102
RTVSPropertyOp10
 70
     1
102
RTVSPropertyOp11
 70
     1
102
RTVSPropertyOp12
 70
     1
102
RTVSPropertyOp13
 70
     1
102
RTVSPropertyOp14
 70
     1
102
RTVSPropertyOp15
 70
     1
102
RTVSPropertyOp16
 70
     1
102
RTVSPropertyOp17
 70
     1
102
RTVSPropertyOp18
 70
     1
102
RTVSPropertyOp19
 70
     1
102
RTVSPropertyOp20
 70
     1
102
RTVSPropertyOp21
 70
     1
102
RTVSPropertyOp22
 70
     1
102
RTVSPropertyOp23
 70
     1
102
RTVSPropertyOp24
 70
     1
102
RTVSPropertyOp25
 70
     1
102
RTVSPropertyOp26
 70
     1
102
RTVSPropertyOp27
 70
     1
102
RTVSPropertyOp28
 70
     1
102
RTVSPropertyOp29
 70
     1
102
RTVSPropertyOp30
 70
     1
102
RTVSPropertyOp31
 70
     1
102
RTVSPropertyOp32
 70
     1
102
RTVSPropertyOp33
 70
     1
102
RTVSPropertyOp34
 70
     1
102
RTVSPropertyOp35
 70
     1
102
RTVSPropertyOp36
 70
     1
102
RTVSPropertyOp37
 70
     1
102
RTVSPropertyOp38
 70
     1
102
RTVSPropertyOp39
 70
     1
102
RTVSPropertyOp40
 70
     1
102
RTVSPropertyOp41
 70
     1
102
RTVSPropertyOp42
 70
     1
102
RTVSPropertyOp43
 70
     1
102
RTVSPropertyOp44
 70
     1
102
RTVSPropertyOp45
 70
     1
102
RTVSPropertyOp46
 70
     1
102
RTVSPropertyOp47
 70
     1
102
RTVSPropertyOp48
 70
     1
102
RTVSPropertyOp49
 70
     1
102
RTVSPropertyOp50
 70
     1
102
RTVSPropertyOp51
 70
     0
102
RTVSPropertyOp52
 70
     0
102
RTVSPropertyOp53
 70
     1
102
RTVSPropertyOp54
 70
     1
102
RTVSPropertyOp55
 70
     1
102
RTVSPropertyOp56
 70
     1
102
RTVSPropertyOp57
 70
     1
102
RTVSPost2010Prop28
280
     0
102
RTVSPost2010PropOp28
 70
     1
102
RTVSPost2010Prop29
280
     1
102
RTVSPost2010PropOp29
 70
     1
102
RTVSPost2010Prop30
280
     1
102
RTVSPost2010PropOp30
 70
     1
102
RTVSPost2010Prop31
280
     0
102
RTVSPost2010PropOp31
 70
     1
102
RTVSPost2010Prop32
280
     0
102
RTVSPost2010PropOp32
 70
     1
102
RTVSPost2010Prop33
280
     0
102
RTVSPost2010PropOp33
 70
     1
102
RTVSPost2010Prop34
280
     0
102
RTVSPost2010PropOp34
 70
     1
102
RTVSPost2010Prop35
280
     0
102
RTVSPost2010PropOp35
 70
     1
102
RTVSPost2010Prop36
280
     0
102
RTVSPost2010PropOp36
 70
     1
102
RTVSPost2010Prop37
 90
       50
102
RTVSPost2010PropOp37
 70
     1
102
RTVSPost2010Prop38
140
0.0
102
RTVSPost2010PropOp38
 70
     1
102
RTVSPost2010Prop39
140
1.0
102
RTVSPost2010PropOp39
 70
     1
102
RTVSPost2010Prop40
 90
        0
102
RTVSPost2010PropOp40
 70
     1
102
RTVSPost2010Prop41ColorIndex
 90
       18
102
RTVSPost2010Prop41ColorRGB
 90
        0
102
RTVSPost2010PropOp41
 70
     1
102
RTVSPost2010Prop42
 90
       50
102
RTVSPost2010PropOp42
 70
     1
102
RTVSPost2010Prop43
 90
        3
102
RTVSPost2010PropOp43
 70
     1
102
RTVSPost2010Prop44ColorIndex
 90
        5
102
RTVSPost2010Prop44ColorRGB
 90
      255
102
RTVSPost2010PropOp44
 70
     1
102
RTVSPost2010Prop45
280
     0
102
RTVSPost2010PropOp45
 70
     1
102
RTVSPost2010Prop46
 90
       50
102
RTVSPost2010PropOp46
 70
     1
102
RTVSPost2010Prop47
 90
       50
102
RTVSPost2010PropOp47
 70
     1
102
RTVSPost2010Prop48
 90
       50
102
RTVSPost2010PropOp48
 70
     1
102
RTVSPost2010Prop49
280
     0
102
RTVSPost2010PropOp49
 70
     1
102
RTVSPost2010Prop50
 90
       50
102
RTVSPost2010PropOp50
 70
     1
102
RTVSPost2010Prop51ColorIndex
 90
      256
102
RTVSPost2010Prop51ColorRGB
 90
-16777216
102
RTVSPost2010PropOp51
 70
     0
102
RTVSPost2010Prop52
140
1.0
102
RTVSPost2010PropOp52
 70
     0
102
RTVSPost2010Prop53
 90
        2
102
RTVSPost2010PropOp53
 70
     1
102
RTVSPost2010Prop54
  1
strokes_ogs.tif
102
RTVSPost2010PropOp54
 70
     1
102
RTVSPost2010Prop55
280
     0
102
RTVSPost2010PropOp55
 70
     1
102
RTVSPost2010Prop56
140
1.0
102
RTVSPost2010PropOp56
 70
     1
102
RTVSPost2010Prop57
140
1.0
102
RTVSPost2010PropOp57
 70
     1
  0
XRECORD
  5
2C2
102
{ACAD_REACTORS
330
2C1
102
}
330
2C1
100
AcDbXrecord
280
     1
102
RTVSPropertyOp0
 70
     1
102
RTVSPropertyOp1
 70
     1
102
RTVSPropertyOp2
 70
     1
102
RTVSPropertyOp3
 70
     1
102
RTVSPropertyOp4
 70
     1
102
RTVSPropertyOp5
 70
     1
102
RTVSPropertyOp6
 70
     1
102
RTVSPropertyOp7
 70
     1
102
RTVSPropertyOp8
 70
     1
102
RTVSPropertyOp9
 70
     1
102
RTVSPropertyOp10
 70
     1
102
RTVSPropertyOp11
 70
     1
102
RTVSPropertyOp12
 70
     1
102
RTVSPropertyOp13
 70
     1
102
RTVSPropertyOp14
 70
     1
102
RTVSPropertyOp15
 70
     1
102
RTVSPropertyOp16
 70
     1
102
RTVSPropertyOp17
 70
     1
102
RTVSPropertyOp18
 70
     1
102
RTVSPropertyOp19
 70
     1
102
RTVSPropertyOp20
 70
     1
102
RTVSPropertyOp21
 70
     1
102
RTVSPropertyOp22
 70
     1
102
RTVSPropertyOp23
 70
     1
102
RTVSPropertyOp24
 70
     1
102
RTVSPropertyOp25
 70
     1
102
RTVSPropertyOp26
 70
     1
102
RTVSPropertyOp27
 70
     1
102
RTVSPropertyOp28
 70
     1
102
RTVSPropertyOp29
 70
     1
102
RTVSPropertyOp30
 70
     1
102
RTVSPropertyOp31
 70
     1
102
RTVSPropertyOp32
 70
     1
102
RTVSPropertyOp33
 70
     1
102
RTVSPropertyOp34
 70
     1
102
RTVSPropertyOp35
 70
     1
102
RTVSPropertyOp36
 70
     1
102
RTVSPropertyOp37
 70
     1
102
RTVSPropertyOp38
 70
     1
102
RTVSPropertyOp39
 70
     1
102
RTVSPropertyOp40
 70
     1
102
RTVSPropertyOp41
 70
     1
102
RTVSPropertyOp42
 70
     1
102
RTVSPropertyOp43
 70
     1
102
RTVSPropertyOp44
 70
     1
102
RTVSPropertyOp45
 70
     1
102
RTVSPropertyOp46
 70
     1
102
RTVSPropertyOp47
 70
     1
102
RTVSPropertyOp48
 70
     1
102
RTVSPropertyOp49
 70
     1
102
RTVSPropertyOp50
 70
     1
102
RTVSPropertyOp51
 70
     0
102
RTVSPropertyOp52
 70
     0
102
RTVSPropertyOp53
 70
     1
102
RTVSPropertyOp54
 70
     1
102
RTVSPropertyOp55
 70
     1
102
RTVSPropertyOp56
 70
     1
102
RTVSPropertyOp57
 70
     1
102
RTVSPost2010Prop28
280
     0
102
RTVSPost2010PropOp28
 70
     1
102
RTVSPost2010Prop29
280
     1
102
RTVSPost2010PropOp29
 70
     1
102
RTVSPost2010Prop30
280
     1
102
RTVSPost2010PropOp30
 70
     1
102
RTVSPost2010Prop31
280
     0
102
RTVSPost2010PropOp31
 70
     1
102
RTVSPost2010Prop32
280
     0
102
RTVSPost2010PropOp32
 70
     1
102
RTVSPost2010Prop33
280
     0
102
RTVSPost2010PropOp33
 70
     1
102
RTVSPost2010Prop34
280
     0
102
RTVSPost2010PropOp34
 70
     1
102
RTVSPost2010Prop35
280
     0
102
RTVSPost2010PropOp35
 70
     1
102
RTVSPost2010Prop36
280
     0
102
RTVSPost2010PropOp36
 70
     1
102
RTVSPost2010Prop37
 90
       50
102
RTVSPost2010PropOp37
 70
     1
102
RTVSPost2010Prop38
140
0.0
102
RTVSPost2010PropOp38
 70
     1
102
RTVSPost2010Prop39
140
1.0
102
RTVSPost2010PropOp39
 70
     1
102
RTVSPost2010Prop40
 90
        0
102
RTVSPost2010PropOp40
 70
     1
102
RTVSPost2010Prop41ColorIndex
 90
       18
102
RTVSPost2010Prop41ColorRGB
 90
        0
102
RTVSPost2010PropOp41
 70
     1
102
RTVSPost2010Prop42
 90
       50
102
RTVSPost2010PropOp42
 70
     1
102
RTVSPost2010Prop43
 90
        3
102
RTVSPost2010PropOp43
 70
     1
102
RTVSPost2010Prop44ColorIndex
 90
        5
102
RTVSPost2010Prop44ColorRGB
 90
      255
102
RTVSPost2010PropOp44
 70
     1
102
RTVSPost2010Prop45
280
     0
102
RTVSPost2010PropOp45
 70
     1
102
RTVSPost2010Prop46
 90
       50
102
RTVSPost2010PropOp46
 70
     1
102
RTVSPost2010Prop47
 90
       50
102
RTVSPost2010PropOp47
 70
     1
102
RTVSPost2010Prop48
 90
       50
102
RTVSPost2010PropOp48
 70
     1
102
RTVSPost2010Prop49
280
     0
102
RTVSPost2010PropOp49
 70
     1
102
RTVSPost2010Prop50
 90
       50
102
RTVSPost2010PropOp50
 70
     1
102
RTVSPost2010Prop51ColorIndex
 90
      256
102
RTVSPost2010Prop51ColorRGB
 90
-16777216
102
RTVSPost2010PropOp51
 70
     0
102
RTVSPost2010Prop52
140
1.0
102
RTVSPost2010PropOp52
 70
     0
102
RTVSPost2010Prop53
 90
        2
102
RTVSPost2010PropOp53
 70
     1
102
RTVSPost2010Prop54
  1
strokes_ogs.tif
102
RTVSPost2010PropOp54
 70
     1
102
RTVSPost2010Prop55
280
     0
102
RTVSPost2010PropOp55
 70
     1
102
RTVSPost2010Prop56
140
1.0
102
RTVSPost2010PropOp56
 70
     1
102
RTVSPost2010Prop57
140
1.0
102
RTVSPost2010PropOp57
 70
     1
  0
XRECORD
  5
2B6
102
{ACAD_REACTORS
330
2B5
102
}
330
2B5
100
AcDbXrecord
280
     1
102
RTVSPropertyOp0
 70
     1
102
RTVSPropertyOp1
 70
     1
102
RTVSPropertyOp2
 70
     1
102
RTVSPropertyOp3
 70
     1
102
RTVSPropertyOp4
 70
     1
102
RTVSPropertyOp5
 70
     1
102
RTVSPropertyOp6
 70
     1
102
RTVSPropertyOp7
 70
     1
102
RTVSPropertyOp8
 70
     1
102
RTVSPropertyOp9
 70
     1
102
RTVSPropertyOp10
 70
     1
102
RTVSPropertyOp11
 70
     1
102
RTVSPropertyOp12
 70
     1
102
RTVSPropertyOp13
 70
     1
102
RTVSPropertyOp14
 70
     1
102
RTVSPropertyOp15
 70
     1
102
RTVSPropertyOp16
 70
     1
102
RTVSPropertyOp17
 70
     1
102
RTVSPropertyOp18
 70
     1
102
RTVSPropertyOp19
 70
     1
102
RTVSPropertyOp20
 70
     1
102
RTVSPropertyOp21
 70
     1
102
RTVSPropertyOp22
 70
     1
102
RTVSPropertyOp23
 70
     1
102
RTVSPropertyOp24
 70
     1
102
RTVSPropertyOp25
 70
     1
102
RTVSPropertyOp26
 70
     1
102
RTVSPropertyOp27
 70
     1
102
RTVSPropertyOp28
 70
     1
102
RTVSPropertyOp29
 70
     1
102
RTVSPropertyOp30
 70
     1
102
RTVSPropertyOp31
 70
     1
102
RTVSPropertyOp32
 70
     1
102
RTVSPropertyOp33
 70
     1
102
RTVSPropertyOp34
 70
     1
102
RTVSPropertyOp35
 70
     1
102
RTVSPropertyOp36
 70
     1
102
RTVSPropertyOp37
 70
     1
102
RTVSPropertyOp38
 70
     1
102
RTVSPropertyOp39
 70
     1
102
RTVSPropertyOp40
 70
     1
102
RTVSPropertyOp41
 70
     1
102
RTVSPropertyOp42
 70
     1
102
RTVSPropertyOp43
 70
     1
102
RTVSPropertyOp44
 70
     1
102
RTVSPropertyOp45
 70
     1
102
RTVSPropertyOp46
 70
     1
102
RTVSPropertyOp47
 70
     1
102
RTVSPropertyOp48
 70
     1
102
RTVSPropertyOp49
 70
     1
102
RTVSPropertyOp50
 70
     1
102
RTVSPropertyOp51
 70
     0
102
RTVSPropertyOp52
 70
     0
102
RTVSPropertyOp53
 70
     1
102
RTVSPropertyOp54
 70
     1
102
RTVSPropertyOp55
 70
     1
102
RTVSPropertyOp56
 70
     1
102
RTVSPropertyOp57
 70
     1
102
RTVSPost2010Prop28
280
     0
102
RTVSPost2010PropOp28
 70
     1
102
RTVSPost2010Prop29
280
     1
102
RTVSPost2010PropOp29
 70
     1
102
RTVSPost2010Prop30
280
     1
102
RTVSPost2010PropOp30
 70
     1
102
RTVSPost2010Prop31
280
     0
102
RTVSPost2010PropOp31
 70
     1
102
RTVSPost2010Prop32
280
     0
102
RTVSPost2010PropOp32
 70
     1
102
RTVSPost2010Prop33
280
     0
102
RTVSPost2010PropOp33
 70
     1
102
RTVSPost2010Prop34
280
     0
102
RTVSPost2010PropOp34
 70
     1
102
RTVSPost2010Prop35
280
     0
102
RTVSPost2010PropOp35
 70
     1
102
RTVSPost2010Prop36
280
     0
102
RTVSPost2010PropOp36
 70
     1
102
RTVSPost2010Prop37
 90
       50
102
RTVSPost2010PropOp37
 70
     1
102
RTVSPost2010Prop38
140
0.0
102
RTVSPost2010PropOp38
 70
     1
102
RTVSPost2010Prop39
140
1.0
102
RTVSPost2010PropOp39
 70
     1
102
RTVSPost2010Prop40
 90
        0
102
RTVSPost2010PropOp40
 70
     1
102
RTVSPost2010Prop41ColorIndex
 90
       18
102
RTVSPost2010Prop41ColorRGB
 90
        0
102
RTVSPost2010PropOp41
 70
     1
102
RTVSPost2010Prop42
 90
       50
102
RTVSPost2010PropOp42
 70
     1
102
RTVSPost2010Prop43
 90
        3
102
RTVSPost2010PropOp43
 70
     1
102
RTVSPost2010Prop44ColorIndex
 90
        5
102
RTVSPost2010Prop44ColorRGB
 90
      255
102
RTVSPost2010PropOp44
 70
     1
102
RTVSPost2010Prop45
280
     0
102
RTVSPost2010PropOp45
 70
     1
102
RTVSPost2010Prop46
 90
       50
102
RTVSPost2010PropOp46
 70
     1
102
RTVSPost2010Prop47
 90
       50
102
RTVSPost2010PropOp47
 70
     1
102
RTVSPost2010Prop48
 90
       50
102
RTVSPost2010PropOp48
 70
     1
102
RTVSPost2010Prop49
280
     0
102
RTVSPost2010PropOp49
 70
     1
102
RTVSPost2010Prop50
 90
       50
102
RTVSPost2010PropOp50
 70
     1
102
RTVSPost2010Prop51ColorIndex
 90
      256
102
RTVSPost2010Prop51ColorRGB
 90
-16777216
102
RTVSPost2010PropOp51
 70
     0
102
RTVSPost2010Prop52
140
1.0
102
RTVSPost2010PropOp52
 70
     0
102
RTVSPost2010Prop53
 90
        2
102
RTVSPost2010PropOp53
 70
     1
102
RTVSPost2010Prop54
  1
strokes_ogs.tif
102
RTVSPost2010PropOp54
 70
     1
102
RTVSPost2010Prop55
280
     0
102
RTVSPost2010PropOp55
 70
     1
102
RTVSPost2010Prop56
140
1.0
102
RTVSPost2010PropOp56
 70
     1
102
RTVSPost2010Prop57
140
1.0
102
RTVSPost2010PropOp57
 70
     1
  0
XRECORD
  5
2B8
102
{ACAD_REACTORS
330
2B7
102
}
330
2B7
100
AcDbXrecord
280
     1
102
RTVSPropertyOp0
 70
     1
102
RTVSPropertyOp1
 70
     1
102
RTVSPropertyOp2
 70
     1
102
RTVSPropertyOp3
 70
     1
102
RTVSPropertyOp4
 70
     1
102
RTVSPropertyOp5
 70
     1
102
RTVSPropertyOp6
 70
     1
102
RTVSPropertyOp7
 70
     1
102
RTVSPropertyOp8
 70
     1
102
RTVSPropertyOp9
 70
     1
102
RTVSPropertyOp10
 70
     1
102
RTVSPropertyOp11
 70
     1
102
RTVSPropertyOp12
 70
     1
102
RTVSPropertyOp13
 70
     1
102
RTVSPropertyOp14
 70
     1
102
RTVSPropertyOp15
 70
     1
102
RTVSPropertyOp16
 70
     1
102
RTVSPropertyOp17
 70
     1
102
RTVSPropertyOp18
 70
     1
102
RTVSPropertyOp19
 70
     1
102
RTVSPropertyOp20
 70
     1
102
RTVSPropertyOp21
 70
     1
102
RTVSPropertyOp22
 70
     1
102
RTVSPropertyOp23
 70
     1
102
RTVSPropertyOp24
 70
     1
102
RTVSPropertyOp25
 70
     1
102
RTVSPropertyOp26
 70
     1
102
RTVSPropertyOp27
 70
     1
102
RTVSPropertyOp28
 70
     1
102
RTVSPropertyOp29
 70
     1
102
RTVSPropertyOp30
 70
     1
102
RTVSPropertyOp31
 70
     1
102
RTVSPropertyOp32
 70
     1
102
RTVSPropertyOp33
 70
     1
102
RTVSPropertyOp34
 70
     1
102
RTVSPropertyOp35
 70
     1
102
RTVSPropertyOp36
 70
     1
102
RTVSPropertyOp37
 70
     1
102
RTVSPropertyOp38
 70
     1
102
RTVSPropertyOp39
 70
     1
102
RTVSPropertyOp40
 70
     1
102
RTVSPropertyOp41
 70
     1
102
RTVSPropertyOp42
 70
     1
102
RTVSPropertyOp43
 70
     1
102
RTVSPropertyOp44
 70
     1
102
RTVSPropertyOp45
 70
     1
102
RTVSPropertyOp46
 70
     1
102
RTVSPropertyOp47
 70
     1
102
RTVSPropertyOp48
 70
     1
102
RTVSPropertyOp49
 70
     1
102
RTVSPropertyOp50
 70
     1
102
RTVSPropertyOp51
 70
     0
102
RTVSPropertyOp52
 70
     0
102
RTVSPropertyOp53
 70
     1
102
RTVSPropertyOp54
 70
     1
102
RTVSPropertyOp55
 70
     1
102
RTVSPropertyOp56
 70
     1
102
RTVSPropertyOp57
 70
     1
102
RTVSPost2010Prop28
280
     0
102
RTVSPost2010PropOp28
 70
     1
102
RTVSPost2010Prop29
280
     1
102
RTVSPost2010PropOp29
 70
     1
102
RTVSPost2010Prop30
280
     1
102
RTVSPost2010PropOp30
 70
     1
102
RTVSPost2010Prop31
280
     0
102
RTVSPost2010PropOp31
 70
     1
102
RTVSPost2010Prop32
280
     0
102
RTVSPost2010PropOp32
 70
     1
102
RTVSPost2010Prop33
280
     0
102
RTVSPost2010PropOp33
 70
     1
102
RTVSPost2010Prop34
280
     0
102
RTVSPost2010PropOp34
 70
     1
102
RTVSPost2010Prop35
280
     0
102
RTVSPost2010PropOp35
 70
     1
102
RTVSPost2010Prop36
280
     0
102
RTVSPost2010PropOp36
 70
     1
102
RTVSPost2010Prop37
 90
       50
102
RTVSPost2010PropOp37
 70
     1
102
RTVSPost2010Prop38
140
0.0
102
RTVSPost2010PropOp38
 70
     1
102
RTVSPost2010Prop39
140
1.0
102
RTVSPost2010PropOp39
 70
     1
102
RTVSPost2010Prop40
 90
        0
102
RTVSPost2010PropOp40
 70
     1
102
RTVSPost2010Prop41ColorIndex
 90
       18
102
RTVSPost2010Prop41ColorRGB
 90
        0
102
RTVSPost2010PropOp41
 70
     1
102
RTVSPost2010Prop42
 90
       50
102
RTVSPost2010PropOp42
 70
     1
102
RTVSPost2010Prop43
 90
        3
102
RTVSPost2010PropOp43
 70
     1
102
RTVSPost2010Prop44ColorIndex
 90
        5
102
RTVSPost2010Prop44ColorRGB
 90
      255
102
RTVSPost2010PropOp44
 70
     1
102
RTVSPost2010Prop45
280
     0
102
RTVSPost2010PropOp45
 70
     1
102
RTVSPost2010Prop46
 90
       50
102
RTVSPost2010PropOp46
 70
     1
102
RTVSPost2010Prop47
 90
       50
102
RTVSPost2010PropOp47
 70
     1
102
RTVSPost2010Prop48
 90
       50
102
RTVSPost2010PropOp48
 70
     1
102
RTVSPost2010Prop49
280
     0
102
RTVSPost2010PropOp49
 70
     1
102
RTVSPost2010Prop50
 90
       50
102
RTVSPost2010PropOp50
 70
     1
102
RTVSPost2010Prop51ColorIndex
 90
      256
102
RTVSPost2010Prop51ColorRGB
 90
-16777216
102
RTVSPost2010PropOp51
 70
     0
102
RTVSPost2010Prop52
140
1.0
102
RTVSPost2010PropOp52
 70
     0
102
RTVSPost2010Prop53
 90
        2
102
RTVSPost2010PropOp53
 70
     1
102
RTVSPost2010Prop54
  1
strokes_ogs.tif
102
RTVSPost2010PropOp54
 70
     1
102
RTVSPost2010Prop55
280
     0
102
RTVSPost2010PropOp55
 70
     1
102
RTVSPost2010Prop56
140
1.0
102
RTVSPost2010PropOp56
 70
     1
102
RTVSPost2010Prop57
140
1.0
102
RTVSPost2010PropOp57
 70
     1
  0
XRECORD
  5
2C8
102
{ACAD_REACTORS
330
2C7
102
}
330
2C7
100
AcDbXrecord
280
     1
102
RTVSPropertyOp0
 70
     0
102
RTVSPropertyOp1
 70
     0
102
RTVSPropertyOp2
 70
     0
102
RTVSPropertyOp3
 70
     0
102
RTVSPropertyOp4
 70
     0
102
RTVSPropertyOp5
 70
     0
102
RTVSPropertyOp6
 70
     0
102
RTVSPropertyOp7
 70
     0
102
RTVSPropertyOp8
 70
     0
102
RTVSPropertyOp9
 70
     0
102
RTVSPropertyOp10
 70
     0
102
RTVSPropertyOp11
 70
     0
102
RTVSPropertyOp12
 70
     0
102
RTVSPropertyOp13
 70
     0
102
RTVSPropertyOp14
 70
     2
102
RTVSPropertyOp15
 70
     0
102
RTVSPropertyOp16
 70
     0
102
RTVSPropertyOp17
 70
     0
102
RTVSPropertyOp18
 70
     0
102
RTVSPropertyOp19
 70
     0
102
RTVSPropertyOp20
 70
     0
102
RTVSPropertyOp21
 70
     0
102
RTVSPropertyOp22
 70
     0
102
RTVSPropertyOp23
 70
     0
102
RTVSPropertyOp24
 70
     0
102
RTVSPropertyOp25
 70
     0
102
RTVSPropertyOp26
 70
     0
102
RTVSPropertyOp27
 70
     0
102
RTVSPropertyOp28
 70
     0
102
RTVSPropertyOp29
 70
     0
102
RTVSPropertyOp30
 70
     0
102
RTVSPropertyOp31
 70
     0
102
RTVSPropertyOp32
 70
     0
102
RTVSPropertyOp33
 70
     0
102
RTVSPropertyOp34
 70
     0
102
RTVSPropertyOp35
 70
     0
102
RTVSPropertyOp36
 70
     0
102
RTVSPropertyOp37
 70
     0
102
RTVSPropertyOp38
 70
     0
102
RTVSPropertyOp39
 70
     0
102
RTVSPropertyOp40
 70
     0
102
RTVSPropertyOp41
 70
     0
102
RTVSPropertyOp42
 70
     0
102
RTVSPropertyOp43
 70
     0
102
RTVSPropertyOp44
 70
     0
102
RTVSPropertyOp45
 70
     0
102
RTVSPropertyOp46
 70
     0
102
RTVSPropertyOp47
 70
     0
102
RTVSPropertyOp48
 70
     0
102
RTVSPropertyOp49
 70
     0
102
RTVSPropertyOp50
 70
     0
102
RTVSPropertyOp51
 70
     0
102
RTVSPropertyOp52
 70
     0
102
RTVSPropertyOp53
 70
     0
102
RTVSPropertyOp54
 70
     0
102
RTVSPropertyOp55
 70
     0
102
RTVSPropertyOp56
 70
     0
102
RTVSPropertyOp57
 70
     0
102
RTVSPost2010Prop28
280
     0
102
RTVSPost2010PropOp28
 70
     0
102
RTVSPost2010Prop29
280
     1
102
RTVSPost2010PropOp29
 70
     0
102
RTVSPost2010Prop30
280
     1
102
RTVSPost2010PropOp30
 70
     0
102
RTVSPost2010Prop31
280
     0
102
RTVSPost2010PropOp31
 70
     0
102
RTVSPost2010Prop32
280
     0
102
RTVSPost2010PropOp32
 70
     0
102
RTVSPost2010Prop33
280
     0
102
RTVSPost2010PropOp33
 70
     0
102
RTVSPost2010Prop34
280
     0
102
RTVSPost2010PropOp34
 70
     0
102
RTVSPost2010Prop35
280
     0
102
RTVSPost2010PropOp35
 70
     0
102
RTVSPost2010Prop36
280
     0
102
RTVSPost2010PropOp36
 70
     0
102
RTVSPost2010Prop37
 90
       50
102
RTVSPost2010PropOp37
 70
     0
102
RTVSPost2010Prop38
140
0.0
102
RTVSPost2010PropOp38
 70
     0
102
RTVSPost2010Prop39
140
1.0
102
RTVSPost2010PropOp39
 70
     0
102
RTVSPost2010Prop40
 90
        0
102
RTVSPost2010PropOp40
 70
     0
102
RTVSPost2010Prop41ColorIndex
 90
       18
102
RTVSPost2010Prop41ColorRGB
 90
        0
102
RTVSPost2010PropOp41
 70
     0
102
RTVSPost2010Prop42
 90
       50
102
RTVSPost2010PropOp42
 70
     0
102
RTVSPost2010Prop43
 90
        3
102
RTVSPost2010PropOp43
 70
     0
102
RTVSPost2010Prop44ColorIndex
 90
        5
102
RTVSPost2010Prop44ColorRGB
 90
      255
102
RTVSPost2010PropOp44
 70
     0
102
RTVSPost2010Prop45
280
     0
102
RTVSPost2010PropOp45
 70
     0
102
RTVSPost2010Prop46
 90
       50
102
RTVSPost2010PropOp46
 70
     0
102
RTVSPost2010Prop47
 90
       50
102
RTVSPost2010PropOp47
 70
     0
102
RTVSPost2010Prop48
 90
       50
102
RTVSPost2010PropOp48
 70
     0
102
RTVSPost2010Prop49
280
     0
102
RTVSPost2010PropOp49
 70
     0
102
RTVSPost2010Prop50
 90
       50
102
RTVSPost2010PropOp50
 70
     0
102
RTVSPost2010Prop51ColorIndex
 90
      256
102
RTVSPost2010Prop51ColorRGB
 90
-16777216
102
RTVSPost2010PropOp51
 70
     0
102
RTVSPost2010Prop52
140
1.0
102
RTVSPost2010PropOp52
 70
     0
102
RTVSPost2010Prop53
 90
        2
102
RTVSPost2010PropOp53
 70
     0
102
RTVSPost2010Prop54
  1
strokes_ogs.tif
102
RTVSPost2010PropOp54
 70
     0
102
RTVSPost2010Prop55
280
     0
102
RTVSPost2010PropOp55
 70
     0
102
RTVSPost2010Prop56
140
1.0
102
RTVSPost2010PropOp56
 70
     0
102
RTVSPost2010Prop57
140
1.0
102
RTVSPost2010PropOp57
 70
     0
  0
XRECORD
  5
2C0
102
{ACAD_REACTORS
330
2BF
102
}
330
2BF
100
AcDbXrecord
280
     1
102
RTVSPropertyOp0
 70
     1
102
RTVSPropertyOp1
 70
     1
102
RTVSPropertyOp2
 70
     1
102
RTVSPropertyOp3
 70
     1
102
RTVSPropertyOp4
 70
     1
102
RTVSPropertyOp5
 70
     1
102
RTVSPropertyOp6
 70
     1
102
RTVSPropertyOp7
 70
     1
102
RTVSPropertyOp8
 70
     1
102
RTVSPropertyOp9
 70
     1
102
RTVSPropertyOp10
 70
     1
102
RTVSPropertyOp11
 70
     1
102
RTVSPropertyOp12
 70
     1
102
RTVSPropertyOp13
 70
     1
102
RTVSPropertyOp14
 70
     1
102
RTVSPropertyOp15
 70
     1
102
RTVSPropertyOp16
 70
     1
102
RTVSPropertyOp17
 70
     1
102
RTVSPropertyOp18
 70
     1
102
RTVSPropertyOp19
 70
     1
102
RTVSPropertyOp20
 70
     1
102
RTVSPropertyOp21
 70
     1
102
RTVSPropertyOp22
 70
     1
102
RTVSPropertyOp23
 70
     1
102
RTVSPropertyOp24
 70
     1
102
RTVSPropertyOp25
 70
     1
102
RTVSPropertyOp26
 70
     1
102
RTVSPropertyOp27
 70
     1
102
RTVSPropertyOp28
 70
     1
102
RTVSPropertyOp29
 70
     1
102
RTVSPropertyOp30
 70
     1
102
RTVSPropertyOp31
 70
     1
102
RTVSPropertyOp32
 70
     1
102
RTVSPropertyOp33
 70
     1
102
RTVSPropertyOp34
 70
     1
102
RTVSPropertyOp35
 70
     1
102
RTVSPropertyOp36
 70
     1
102
RTVSPropertyOp37
 70
     1
102
RTVSPropertyOp38
 70
     1
102
RTVSPropertyOp39
 70
     1
102
RTVSPropertyOp40
 70
     1
102
RTVSPropertyOp41
 70
     1
102
RTVSPropertyOp42
 70
     1
102
RTVSPropertyOp43
 70
     1
102
RTVSPropertyOp44
 70
     1
102
RTVSPropertyOp45
 70
     1
102
RTVSPropertyOp46
 70
     1
102
RTVSPropertyOp47
 70
     1
102
RTVSPropertyOp48
 70
     1
102
RTVSPropertyOp49
 70
     1
102
RTVSPropertyOp50
 70
     1
102
RTVSPropertyOp51
 70
     0
102
RTVSPropertyOp52
 70
     0
102
RTVSPropertyOp53
 70
     1
102
RTVSPropertyOp54
 70
     1
102
RTVSPropertyOp55
 70
     1
102
RTVSPropertyOp56
 70
     1
102
RTVSPropertyOp57
 70
     1
102
RTVSPost2010Prop28
280
     0
102
RTVSPost2010PropOp28
 70
     1
102
RTVSPost2010Prop29
280
     1
102
RTVSPost2010PropOp29
 70
     1
102
RTVSPost2010Prop30
280
     1
102
RTVSPost2010PropOp30
 70
     1
102
RTVSPost2010Prop31
280
     0
102
RTVSPost2010PropOp31
 70
     1
102
RTVSPost2010Prop32
280
     0
102
RTVSPost2010PropOp32
 70
     1
102
RTVSPost2010Prop33
280
     0
102
RTVSPost2010PropOp33
 70
     1
102
RTVSPost2010Prop34
280
     0
102
RTVSPost2010PropOp34
 70
     1
102
RTVSPost2010Prop35
280
     0
102
RTVSPost2010PropOp35
 70
     1
102
RTVSPost2010Prop36
280
     0
102
RTVSPost2010PropOp36
 70
     1
102
RTVSPost2010Prop37
 90
       50
102
RTVSPost2010PropOp37
 70
     1
102
RTVSPost2010Prop38
140
0.0
102
RTVSPost2010PropOp38
 70
     1
102
RTVSPost2010Prop39
140
1.0
102
RTVSPost2010PropOp39
 70
     1
102
RTVSPost2010Prop40
 90
        0
102
RTVSPost2010PropOp40
 70
     1
102
RTVSPost2010Prop41ColorIndex
 90
       18
102
RTVSPost2010Prop41ColorRGB
 90
        0
102
RTVSPost2010PropOp41
 70
     1
102
RTVSPost2010Prop42
 90
       50
102
RTVSPost2010PropOp42
 70
     1
102
RTVSPost2010Prop43
 90
        3
102
RTVSPost2010PropOp43
 70
     1
102
RTVSPost2010Prop44ColorIndex
 90
        5
102
RTVSPost2010Prop44ColorRGB
 90
      255
102
RTVSPost2010PropOp44
 70
     1
102
RTVSPost2010Prop45
280
     0
102
RTVSPost2010PropOp45
 70
     1
102
RTVSPost2010Prop46
 90
       50
102
RTVSPost2010PropOp46
 70
     1
102
RTVSPost2010Prop47
 90
       50
102
RTVSPost2010PropOp47
 70
     1
102
RTVSPost2010Prop48
 90
       50
102
RTVSPost2010PropOp48
 70
     1
102
RTVSPost2010Prop49
280
     0
102
RTVSPost2010PropOp49
 70
     1
102
RTVSPost2010Prop50
 90
       50
102
RTVSPost2010PropOp50
 70
     1
102
RTVSPost2010Prop51ColorIndex
 90
      256
102
RTVSPost2010Prop51ColorRGB
 90
-16777216
102
RTVSPost2010PropOp51
 70
     0
102
RTVSPost2010Prop52
140
1.0
102
RTVSPost2010PropOp52
 70
     0
102
RTVSPost2010Prop53
 90
        2
102
RTVSPost2010PropOp53
 70
     1
102
RTVSPost2010Prop54
  1
strokes_ogs.tif
102
RTVSPost2010PropOp54
 70
     1
102
RTVSPost2010Prop55
280
     0
102
RTVSPost2010PropOp55
 70
     1
102
RTVSPost2010Prop56
140
1.0
102
RTVSPost2010PropOp56
 70
     1
102
RTVSPost2010Prop57
140
1.0
102
RTVSPost2010PropOp57
 70
     1
  0
XRECORD
  5
2A4
102
{ACAD_REACTORS
330
2A3
102
}
330
2A3
100
AcDbXrecord
280
     1
102
RTVSPropertyOp0
 70
     1
102
RTVSPropertyOp1
 70
     1
102
RTVSPropertyOp2
 70
     1
102
RTVSPropertyOp3
 70
     1
102
RTVSPropertyOp4
 70
     1
102
RTVSPropertyOp5
 70
     1
102
RTVSPropertyOp6
 70
     1
102
RTVSPropertyOp7
 70
     1
102
RTVSPropertyOp8
 70
     1
102
RTVSPropertyOp9
 70
     1
102
RTVSPropertyOp10
 70
     1
102
RTVSPropertyOp11
 70
     1
102
RTVSPropertyOp12
 70
     1
102
RTVSPropertyOp13
 70
     1
102
RTVSPropertyOp14
 70
     1
102
RTVSPropertyOp15
 70
     1
102
RTVSPropertyOp16
 70
     1
102
RTVSPropertyOp17
 70
     1
102
RTVSPropertyOp18
 70
     1
102
RTVSPropertyOp19
 70
     1
102
RTVSPropertyOp20
 70
     1
102
RTVSPropertyOp21
 70
     1
102
RTVSPropertyOp22
 70
     1
102
RTVSPropertyOp23
 70
     1
102
RTVSPropertyOp24
 70
     1
102
RTVSPropertyOp25
 70
     1
102
RTVSPropertyOp26
 70
     1
102
RTVSPropertyOp27
 70
     1
102
RTVSPropertyOp28
 70
     1
102
RTVSPropertyOp29
 70
     1
102
RTVSPropertyOp30
 70
     1
102
RTVSPropertyOp31
 70
     1
102
RTVSPropertyOp32
 70
     1
102
RTVSPropertyOp33
 70
     1
102
RTVSPropertyOp34
 70
     1
102
RTVSPropertyOp35
 70
     1
102
RTVSPropertyOp36
 70
     1
102
RTVSPropertyOp37
 70
     1
102
RTVSPropertyOp38
 70
     1
102
RTVSPropertyOp39
 70
     1
102
RTVSPropertyOp40
 70
     1
102
RTVSPropertyOp41
 70
     1
102
RTVSPropertyOp42
 70
     1
102
RTVSPropertyOp43
 70
     1
102
RTVSPropertyOp44
 70
     1
102
RTVSPropertyOp45
 70
     1
102
RTVSPropertyOp46
 70
     1
102
RTVSPropertyOp47
 70
     1
102
RTVSPropertyOp48
 70
     1
102
RTVSPropertyOp49
 70
     1
102
RTVSPropertyOp50
 70
     1
102
RTVSPropertyOp51
 70
     0
102
RTVSPropertyOp52
 70
     0
102
RTVSPropertyOp53
 70
     1
102
RTVSPropertyOp54
 70
     1
102
RTVSPropertyOp55
 70
     1
102
RTVSPropertyOp56
 70
     1
102
RTVSPropertyOp57
 70
     1
102
RTVSPost2010Prop28
280
     0
102
RTVSPost2010PropOp28
 70
     1
102
RTVSPost2010Prop29
280
     1
102
RTVSPost2010PropOp29
 70
     1
102
RTVSPost2010Prop30
280
     1
102
RTVSPost2010PropOp30
 70
     1
102
RTVSPost2010Prop31
280
     0
102
RTVSPost2010PropOp31
 70
     1
102
RTVSPost2010Prop32
280
     0
102
RTVSPost2010PropOp32
 70
     1
102
RTVSPost2010Prop33
280
     0
102
RTVSPost2010PropOp33
 70
     1
102
RTVSPost2010Prop34
280
     0
102
RTVSPost2010PropOp34
 70
     1
102
RTVSPost2010Prop35
280
     0
102
RTVSPost2010PropOp35
 70
     1
102
RTVSPost2010Prop36
280
     0
102
RTVSPost2010PropOp36
 70
     1
102
RTVSPost2010Prop37
 90
       50
102
RTVSPost2010PropOp37
 70
     1
102
RTVSPost2010Prop38
140
0.0
102
RTVSPost2010PropOp38
 70
     1
102
RTVSPost2010Prop39
140
1.0
102
RTVSPost2010PropOp39
 70
     1
102
RTVSPost2010Prop40
 90
        0
102
RTVSPost2010PropOp40
 70
     1
102
RTVSPost2010Prop41ColorIndex
 90
       18
102
RTVSPost2010Prop41ColorRGB
 90
        0
102
RTVSPost2010PropOp41
 70
     1
102
RTVSPost2010Prop42
 90
       50
102
RTVSPost2010PropOp42
 70
     1
102
RTVSPost2010Prop43
 90
        3
102
RTVSPost2010PropOp43
 70
     1
102
RTVSPost2010Prop44ColorIndex
 90
        5
102
RTVSPost2010Prop44ColorRGB
 90
      255
102
RTVSPost2010PropOp44
 70
     1
102
RTVSPost2010Prop45
280
     0
102
RTVSPost2010PropOp45
 70
     1
102
RTVSPost2010Prop46
 90
       50
102
RTVSPost2010PropOp46
 70
     1
102
RTVSPost2010Prop47
 90
       50
102
RTVSPost2010PropOp47
 70
     1
102
RTVSPost2010Prop48
 90
       50
102
RTVSPost2010PropOp48
 70
     1
102
RTVSPost2010Prop49
280
     0
102
RTVSPost2010PropOp49
 70
     1
102
RTVSPost2010Prop50
 90
       50
102
RTVSPost2010PropOp50
 70
     1
102
RTVSPost2010Prop51ColorIndex
 90
      256
102
RTVSPost2010Prop51ColorRGB
 90
-16777216
102
RTVSPost2010PropOp51
 70
     0
102
RTVSPost2010Prop52
140
1.0
102
RTVSPost2010PropOp52
 70
     0
102
RTVSPost2010Prop53
 90
        2
102
RTVSPost2010PropOp53
 70
     1
102
RTVSPost2010Prop54
  1
strokes_ogs.tif
102
RTVSPost2010PropOp54
 70
     1
102
RTVSPost2010Prop55
280
     0
102
RTVSPost2010PropOp55
 70
     1
102
RTVSPost2010Prop56
140
1.0
102
RTVSPost2010PropOp56
 70
     1
102
RTVSPost2010Prop57
140
1.0
102
RTVSPost2010PropOp57
 70
     1
  0
XRECORD
  5
2A6
102
{ACAD_REACTORS
330
2A5
102
}
330
2A5
100
AcDbXrecord
280
     1
102
RTVSPropertyOp0
 70
     1
102
RTVSPropertyOp1
 70
     1
102
RTVSPropertyOp2
 70
     1
102
RTVSPropertyOp3
 70
     1
102
RTVSPropertyOp4
 70
     1
102
RTVSPropertyOp5
 70
     1
102
RTVSPropertyOp6
 70
     1
102
RTVSPropertyOp7
 70
     1
102
RTVSPropertyOp8
 70
     1
102
RTVSPropertyOp9
 70
     1
102
RTVSPropertyOp10
 70
     1
102
RTVSPropertyOp11
 70
     1
102
RTVSPropertyOp12
 70
     1
102
RTVSPropertyOp13
 70
     1
102
RTVSPropertyOp14
 70
     1
102
RTVSPropertyOp15
 70
     1
102
RTVSPropertyOp16
 70
     1
102
RTVSPropertyOp17
 70
     1
102
RTVSPropertyOp18
 70
     1
102
RTVSPropertyOp19
 70
     1
102
RTVSPropertyOp20
 70
     1
102
RTVSPropertyOp21
 70
     1
102
RTVSPropertyOp22
 70
     1
102
RTVSPropertyOp23
 70
     1
102
RTVSPropertyOp24
 70
     1
102
RTVSPropertyOp25
 70
     1
102
RTVSPropertyOp26
 70
     1
102
RTVSPropertyOp27
 70
     1
102
RTVSPropertyOp28
 70
     1
102
RTVSPropertyOp29
 70
     1
102
RTVSPropertyOp30
 70
     1
102
RTVSPropertyOp31
 70
     1
102
RTVSPropertyOp32
 70
     1
102
RTVSPropertyOp33
 70
     1
102
RTVSPropertyOp34
 70
     1
102
RTVSPropertyOp35
 70
     1
102
RTVSPropertyOp36
 70
     1
102
RTVSPropertyOp37
 70
     1
102
RTVSPropertyOp38
 70
     1
102
RTVSPropertyOp39
 70
     1
102
RTVSPropertyOp40
 70
     1
102
RTVSPropertyOp41
 70
     1
102
RTVSPropertyOp42
 70
     1
102
RTVSPropertyOp43
 70
     1
102
RTVSPropertyOp44
 70
     1
102
RTVSPropertyOp45
 70
     1
102
RTVSPropertyOp46
 70
     1
102
RTVSPropertyOp47
 70
     1
102
RTVSPropertyOp48
 70
     1
102
RTVSPropertyOp49
 70
     1
102
RTVSPropertyOp50
 70
     1
102
RTVSPropertyOp51
 70
     0
102
RTVSPropertyOp52
 70
     0
102
RTVSPropertyOp53
 70
     1
102
RTVSPropertyOp54
 70
     1
102
RTVSPropertyOp55
 70
     1
102
RTVSPropertyOp56
 70
     1
102
RTVSPropertyOp57
 70
     1
102
RTVSPost2010Prop28
280
     0
102
RTVSPost2010PropOp28
 70
     1
102
RTVSPost2010Prop29
280
     1
102
RTVSPost2010PropOp29
 70
     1
102
RTVSPost2010Prop30
280
     1
102
RTVSPost2010PropOp30
 70
     1
102
RTVSPost2010Prop31
280
     0
102
RTVSPost2010PropOp31
 70
     1
102
RTVSPost2010Prop32
280
     0
102
RTVSPost2010PropOp32
 70
     1
102
RTVSPost2010Prop33
280
     0
102
RTVSPost2010PropOp33
 70
     1
102
RTVSPost2010Prop34
280
     0
102
RTVSPost2010PropOp34
 70
     1
102
RTVSPost2010Prop35
280
     0
102
RTVSPost2010PropOp35
 70
     1
102
RTVSPost2010Prop36
280
     0
102
RTVSPost2010PropOp36
 70
     1
102
RTVSPost2010Prop37
 90
       50
102
RTVSPost2010PropOp37
 70
     1
102
RTVSPost2010Prop38
140
0.0
102
RTVSPost2010PropOp38
 70
     1
102
RTVSPost2010Prop39
140
1.0
102
RTVSPost2010PropOp39
 70
     1
102
RTVSPost2010Prop40
 90
        0
102
RTVSPost2010PropOp40
 70
     1
102
RTVSPost2010Prop41ColorIndex
 90
       18
102
RTVSPost2010Prop41ColorRGB
 90
        0
102
RTVSPost2010PropOp41
 70
     1
102
RTVSPost2010Prop42
 90
       50
102
RTVSPost2010PropOp42
 70
     1
102
RTVSPost2010Prop43
 90
        3
102
RTVSPost2010PropOp43
 70
     1
102
RTVSPost2010Prop44ColorIndex
 90
        5
102
RTVSPost2010Prop44ColorRGB
 90
      255
102
RTVSPost2010PropOp44
 70
     1
102
RTVSPost2010Prop45
280
     0
102
RTVSPost2010PropOp45
 70
     1
102
RTVSPost2010Prop46
 90
       50
102
RTVSPost2010PropOp46
 70
     1
102
RTVSPost2010Prop47
 90
       50
102
RTVSPost2010PropOp47
 70
     1
102
RTVSPost2010Prop48
 90
       50
102
RTVSPost2010PropOp48
 70
     1
102
RTVSPost2010Prop49
280
     0
102
RTVSPost2010PropOp49
 70
     1
102
RTVSPost2010Prop50
 90
       50
102
RTVSPost2010PropOp50
 70
     1
102
RTVSPost2010Prop51ColorIndex
 90
      256
102
RTVSPost2010Prop51ColorRGB
 90
-16777216
102
RTVSPost2010PropOp51
 70
     0
102
RTVSPost2010Prop52
140
1.0
102
RTVSPost2010PropOp52
 70
     0
102
RTVSPost2010Prop53
 90
        2
102
RTVSPost2010PropOp53
 70
     1
102
RTVSPost2010Prop54
  1
strokes_ogs.tif
102
RTVSPost2010PropOp54
 70
     1
102
RTVSPost2010Prop55
280
     0
102
RTVSPost2010PropOp55
 70
     1
102
RTVSPost2010Prop56
140
1.0
102
RTVSPost2010PropOp56
 70
     1
102
RTVSPost2010Prop57
140
1.0
102
RTVSPost2010PropOp57
 70
     1
  0
XRECORD
  5
2A8
102
{ACAD_REACTORS
330
2A7
102
}
330
2A7
100
AcDbXrecord
280
     1
102
RTVSPropertyOp0
 70
     1
102
RTVSPropertyOp1
 70
     1
102
RTVSPropertyOp2
 70
     1
102
RTVSPropertyOp3
 70
     1
102
RTVSPropertyOp4
 70
     1
102
RTVSPropertyOp5
 70
     1
102
RTVSPropertyOp6
 70
     1
102
RTVSPropertyOp7
 70
     1
102
RTVSPropertyOp8
 70
     1
102
RTVSPropertyOp9
 70
     1
102
RTVSPropertyOp10
 70
     1
102
RTVSPropertyOp11
 70
     1
102
RTVSPropertyOp12
 70
     1
102
RTVSPropertyOp13
 70
     1
102
RTVSPropertyOp14
 70
     1
102
RTVSPropertyOp15
 70
     1
102
RTVSPropertyOp16
 70
     1
102
RTVSPropertyOp17
 70
     1
102
RTVSPropertyOp18
 70
     1
102
RTVSPropertyOp19
 70
     1
102
RTVSPropertyOp20
 70
     1
102
RTVSPropertyOp21
 70
     1
102
RTVSPropertyOp22
 70
     1
102
RTVSPropertyOp23
 70
     1
102
RTVSPropertyOp24
 70
     1
102
RTVSPropertyOp25
 70
     1
102
RTVSPropertyOp26
 70
     1
102
RTVSPropertyOp27
 70
     1
102
RTVSPropertyOp28
 70
     1
102
RTVSPropertyOp29
 70
     1
102
RTVSPropertyOp30
 70
     1
102
RTVSPropertyOp31
 70
     1
102
RTVSPropertyOp32
 70
     1
102
RTVSPropertyOp33
 70
     1
102
RTVSPropertyOp34
 70
     1
102
RTVSPropertyOp35
 70
     1
102
RTVSPropertyOp36
 70
     1
102
RTVSPropertyOp37
 70
     1
102
RTVSPropertyOp38
 70
     1
102
RTVSPropertyOp39
 70
     1
102
RTVSPropertyOp40
 70
     1
102
RTVSPropertyOp41
 70
     1
102
RTVSPropertyOp42
 70
     1
102
RTVSPropertyOp43
 70
     1
102
RTVSPropertyOp44
 70
     1
102
RTVSPropertyOp45
 70
     1
102
RTVSPropertyOp46
 70
     1
102
RTVSPropertyOp47
 70
     1
102
RTVSPropertyOp48
 70
     1
102
RTVSPropertyOp49
 70
     1
102
RTVSPropertyOp50
 70
     1
102
RTVSPropertyOp51
 70
     0
102
RTVSPropertyOp52
 70
     0
102
RTVSPropertyOp53
 70
     1
102
RTVSPropertyOp54
 70
     1
102
RTVSPropertyOp55
 70
     1
102
RTVSPropertyOp56
 70
     1
102
RTVSPropertyOp57
 70
     1
102
RTVSPost2010Prop28
280
     0
102
RTVSPost2010PropOp28
 70
     1
102
RTVSPost2010Prop29
280
     1
102
RTVSPost2010PropOp29
 70
     1
102
RTVSPost2010Prop30
280
     1
102
RTVSPost2010PropOp30
 70
     1
102
RTVSPost2010Prop31
280
     0
102
RTVSPost2010PropOp31
 70
     1
102
RTVSPost2010Prop32
280
     0
102
RTVSPost2010PropOp32
 70
     1
102
RTVSPost2010Prop33
280
     0
102
RTVSPost2010PropOp33
 70
     1
102
RTVSPost2010Prop34
280
     0
102
RTVSPost2010PropOp34
 70
     1
102
RTVSPost2010Prop35
280
     0
102
RTVSPost2010PropOp35
 70
     1
102
RTVSPost2010Prop36
280
     0
102
RTVSPost2010PropOp36
 70
     1
102
RTVSPost2010Prop37
 90
       50
102
RTVSPost2010PropOp37
 70
     1
102
RTVSPost2010Prop38
140
0.0
102
RTVSPost2010PropOp38
 70
     1
102
RTVSPost2010Prop39
140
1.0
102
RTVSPost2010PropOp39
 70
     1
102
RTVSPost2010Prop40
 90
        0
102
RTVSPost2010PropOp40
 70
     1
102
RTVSPost2010Prop41ColorIndex
 90
       18
102
RTVSPost2010Prop41ColorRGB
 90
        0
102
RTVSPost2010PropOp41
 70
     1
102
RTVSPost2010Prop42
 90
       50
102
RTVSPost2010PropOp42
 70
     1
102
RTVSPost2010Prop43
 90
        3
102
RTVSPost2010PropOp43
 70
     1
102
RTVSPost2010Prop44ColorIndex
 90
        5
102
RTVSPost2010Prop44ColorRGB
 90
      255
102
RTVSPost2010PropOp44
 70
     1
102
RTVSPost2010Prop45
280
     0
102
RTVSPost2010PropOp45
 70
     1
102
RTVSPost2010Prop46
 90
       50
102
RTVSPost2010PropOp46
 70
     1
102
RTVSPost2010Prop47
 90
       50
102
RTVSPost2010PropOp47
 70
     1
102
RTVSPost2010Prop48
 90
       50
102
RTVSPost2010PropOp48
 70
     1
102
RTVSPost2010Prop49
280
     0
102
RTVSPost2010PropOp49
 70
     1
102
RTVSPost2010Prop50
 90
       50
102
RTVSPost2010PropOp50
 70
     1
102
RTVSPost2010Prop51ColorIndex
 90
      256
102
RTVSPost2010Prop51ColorRGB
 90
-16777216
102
RTVSPost2010PropOp51
 70
     0
102
RTVSPost2010Prop52
140
1.0
102
RTVSPost2010PropOp52
 70
     0
102
RTVSPost2010Prop53
 90
        2
102
RTVSPost2010PropOp53
 70
     1
102
RTVSPost2010Prop54
  1
strokes_ogs.tif
102
RTVSPost2010PropOp54
 70
     1
102
RTVSPost2010Prop55
280
     0
102
RTVSPost2010PropOp55
 70
     1
102
RTVSPost2010Prop56
140
1.0
102
RTVSPost2010PropOp56
 70
     1
102
RTVSPost2010Prop57
140
1.0
102
RTVSPost2010PropOp57
 70
     1
  0
XRECORD
  5
2AA
102
{ACAD_REACTORS
330
2A9
102
}
330
2A9
100
AcDbXrecord
280
     1
102
RTVSPropertyOp0
 70
     1
102
RTVSPropertyOp1
 70
     1
102
RTVSPropertyOp2
 70
     1
102
RTVSPropertyOp3
 70
     1
102
RTVSPropertyOp4
 70
     1
102
RTVSPropertyOp5
 70
     1
102
RTVSPropertyOp6
 70
     1
102
RTVSPropertyOp7
 70
     1
102
RTVSPropertyOp8
 70
     1
102
RTVSPropertyOp9
 70
     1
102
RTVSPropertyOp10
 70
     1
102
RTVSPropertyOp11
 70
     1
102
RTVSPropertyOp12
 70
     1
102
RTVSPropertyOp13
 70
     1
102
RTVSPropertyOp14
 70
     1
102
RTVSPropertyOp15
 70
     1
102
RTVSPropertyOp16
 70
     1
102
RTVSPropertyOp17
 70
     1
102
RTVSPropertyOp18
 70
     1
102
RTVSPropertyOp19
 70
     1
102
RTVSPropertyOp20
 70
     1
102
RTVSPropertyOp21
 70
     1
102
RTVSPropertyOp22
 70
     1
102
RTVSPropertyOp23
 70
     1
102
RTVSPropertyOp24
 70
     1
102
RTVSPropertyOp25
 70
     1
102
RTVSPropertyOp26
 70
     1
102
RTVSPropertyOp27
 70
     1
102
RTVSPropertyOp28
 70
     1
102
RTVSPropertyOp29
 70
     1
102
RTVSPropertyOp30
 70
     1
102
RTVSPropertyOp31
 70
     1
102
RTVSPropertyOp32
 70
     1
102
RTVSPropertyOp33
 70
     1
102
RTVSPropertyOp34
 70
     1
102
RTVSPropertyOp35
 70
     1
102
RTVSPropertyOp36
 70
     1
102
RTVSPropertyOp37
 70
     1
102
RTVSPropertyOp38
 70
     1
102
RTVSPropertyOp39
 70
     1
102
RTVSPropertyOp40
 70
     1
102
RTVSPropertyOp41
 70
     1
102
RTVSPropertyOp42
 70
     1
102
RTVSPropertyOp43
 70
     1
102
RTVSPropertyOp44
 70
     1
102
RTVSPropertyOp45
 70
     1
102
RTVSPropertyOp46
 70
     1
102
RTVSPropertyOp47
 70
     1
102
RTVSPropertyOp48
 70
     1
102
RTVSPropertyOp49
 70
     1
102
RTVSPropertyOp50
 70
     1
102
RTVSPropertyOp51
 70
     0
102
RTVSPropertyOp52
 70
     0
102
RTVSPropertyOp53
 70
     1
102
RTVSPropertyOp54
 70
     1
102
RTVSPropertyOp55
 70
     1
102
RTVSPropertyOp56
 70
     1
102
RTVSPropertyOp57
 70
     1
102
RTVSPost2010Prop28
280
     0
102
RTVSPost2010PropOp28
 70
     1
102
RTVSPost2010Prop29
280
     1
102
RTVSPost2010PropOp29
 70
     1
102
RTVSPost2010Prop30
280
     1
102
RTVSPost2010PropOp30
 70
     1
102
RTVSPost2010Prop31
280
     0
102
RTVSPost2010PropOp31
 70
     1
102
RTVSPost2010Prop32
280
     0
102
RTVSPost2010PropOp32
 70
     1
102
RTVSPost2010Prop33
280
     0
102
RTVSPost2010PropOp33
 70
     1
102
RTVSPost2010Prop34
280
     0
102
RTVSPost2010PropOp34
 70
     1
102
RTVSPost2010Prop35
280
     0
102
RTVSPost2010PropOp35
 70
     1
102
RTVSPost2010Prop36
280
     0
102
RTVSPost2010PropOp36
 70
     1
102
RTVSPost2010Prop37
 90
       50
102
RTVSPost2010PropOp37
 70
     1
102
RTVSPost2010Prop38
140
0.0
102
RTVSPost2010PropOp38
 70
     1
102
RTVSPost2010Prop39
140
1.0
102
RTVSPost2010PropOp39
 70
     1
102
RTVSPost2010Prop40
 90
        0
102
RTVSPost2010PropOp40
 70
     1
102
RTVSPost2010Prop41ColorIndex
 90
       18
102
RTVSPost2010Prop41ColorRGB
 90
        0
102
RTVSPost2010PropOp41
 70
     1
102
RTVSPost2010Prop42
 90
       50
102
RTVSPost2010PropOp42
 70
     1
102
RTVSPost2010Prop43
 90
        3
102
RTVSPost2010PropOp43
 70
     1
102
RTVSPost2010Prop44ColorIndex
 90
        5
102
RTVSPost2010Prop44ColorRGB
 90
      255
102
RTVSPost2010PropOp44
 70
     1
102
RTVSPost2010Prop45
280
     0
102
RTVSPost2010PropOp45
 70
     1
102
RTVSPost2010Prop46
 90
       50
102
RTVSPost2010PropOp46
 70
     1
102
RTVSPost2010Prop47
 90
       50
102
RTVSPost2010PropOp47
 70
     1
102
RTVSPost2010Prop48
 90
       50
102
RTVSPost2010PropOp48
 70
     1
102
RTVSPost2010Prop49
280
     0
102
RTVSPost2010PropOp49
 70
     1
102
RTVSPost2010Prop50
 90
       50
102
RTVSPost2010PropOp50
 70
     1
102
RTVSPost2010Prop51ColorIndex
 90
      256
102
RTVSPost2010Prop51ColorRGB
 90
-16777216
102
RTVSPost2010PropOp51
 70
     0
102
RTVSPost2010Prop52
140
1.0
102
RTVSPost2010PropOp52
 70
     0
102
RTVSPost2010Prop53
 90
        2
102
RTVSPost2010PropOp53
 70
     1
102
RTVSPost2010Prop54
  1
strokes_ogs.tif
102
RTVSPost2010PropOp54
 70
     1
102
RTVSPost2010Prop55
280
     0
102
RTVSPost2010PropOp55
 70
     1
102
RTVSPost2010Prop56
140
1.0
102
RTVSPost2010PropOp56
 70
     1
102
RTVSPost2010Prop57
140
1.0
102
RTVSPost2010PropOp57
 70
     1
  0
XRECORD
  5
2B0
102
{ACAD_REACTORS
330
2AF
102
}
330
2AF
100
AcDbXrecord
280
     1
102
RTVSPropertyOp0
 70
     1
102
RTVSPropertyOp1
 70
     1
102
RTVSPropertyOp2
 70
     1
102
RTVSPropertyOp3
 70
     1
102
RTVSPropertyOp4
 70
     1
102
RTVSPropertyOp5
 70
     1
102
RTVSPropertyOp6
 70
     1
102
RTVSPropertyOp7
 70
     1
102
RTVSPropertyOp8
 70
     1
102
RTVSPropertyOp9
 70
     1
102
RTVSPropertyOp10
 70
     1
102
RTVSPropertyOp11
 70
     1
102
RTVSPropertyOp12
 70
     1
102
RTVSPropertyOp13
 70
     1
102
RTVSPropertyOp14
 70
     1
102
RTVSPropertyOp15
 70
     1
102
RTVSPropertyOp16
 70
     1
102
RTVSPropertyOp17
 70
     1
102
RTVSPropertyOp18
 70
     1
102
RTVSPropertyOp19
 70
     1
102
RTVSPropertyOp20
 70
     1
102
RTVSPropertyOp21
 70
     1
102
RTVSPropertyOp22
 70
     1
102
RTVSPropertyOp23
 70
     1
102
RTVSPropertyOp24
 70
     1
102
RTVSPropertyOp25
 70
     1
102
RTVSPropertyOp26
 70
     1
102
RTVSPropertyOp27
 70
     1
102
RTVSPropertyOp28
 70
     1
102
RTVSPropertyOp29
 70
     1
102
RTVSPropertyOp30
 70
     1
102
RTVSPropertyOp31
 70
     1
102
RTVSPropertyOp32
 70
     1
102
RTVSPropertyOp33
 70
     1
102
RTVSPropertyOp34
 70
     1
102
RTVSPropertyOp35
 70
     1
102
RTVSPropertyOp36
 70
     1
102
RTVSPropertyOp37
 70
     1
102
RTVSPropertyOp38
 70
     1
102
RTVSPropertyOp39
 70
     1
102
RTVSPropertyOp40
 70
     1
102
RTVSPropertyOp41
 70
     1
102
RTVSPropertyOp42
 70
     1
102
RTVSPropertyOp43
 70
     1
102
RTVSPropertyOp44
 70
     1
102
RTVSPropertyOp45
 70
     1
102
RTVSPropertyOp46
 70
     1
102
RTVSPropertyOp47
 70
     1
102
RTVSPropertyOp48
 70
     1
102
RTVSPropertyOp49
 70
     1
102
RTVSPropertyOp50
 70
     1
102
RTVSPropertyOp51
 70
     0
102
RTVSPropertyOp52
 70
     0
102
RTVSPropertyOp53
 70
     1
102
RTVSPropertyOp54
 70
     1
102
RTVSPropertyOp55
 70
     1
102
RTVSPropertyOp56
 70
     1
102
RTVSPropertyOp57
 70
     1
102
RTVSPost2010Prop28
280
     0
102
RTVSPost2010PropOp28
 70
     1
102
RTVSPost2010Prop29
280
     1
102
RTVSPost2010PropOp29
 70
     1
102
RTVSPost2010Prop30
280
     1
102
RTVSPost2010PropOp30
 70
     1
102
RTVSPost2010Prop31
280
     0
102
RTVSPost2010PropOp31
 70
     1
102
RTVSPost2010Prop32
280
     0
102
RTVSPost2010PropOp32
 70
     1
102
RTVSPost2010Prop33
280
     0
102
RTVSPost2010PropOp33
 70
     1
102
RTVSPost2010Prop34
280
     0
102
RTVSPost2010PropOp34
 70
     1
102
RTVSPost2010Prop35
280
     0
102
RTVSPost2010PropOp35
 70
     1
102
RTVSPost2010Prop36
280
     0
102
RTVSPost2010PropOp36
 70
     1
102
RTVSPost2010Prop37
 90
       50
102
RTVSPost2010PropOp37
 70
     1
102
RTVSPost2010Prop38
140
0.0
102
RTVSPost2010PropOp38
 70
     1
102
RTVSPost2010Prop39
140
1.0
102
RTVSPost2010PropOp39
 70
     1
102
RTVSPost2010Prop40
 90
        0
102
RTVSPost2010PropOp40
 70
     1
102
RTVSPost2010Prop41ColorIndex
 90
       18
102
RTVSPost2010Prop41ColorRGB
 90
        0
102
RTVSPost2010PropOp41
 70
     1
102
RTVSPost2010Prop42
 90
       50
102
RTVSPost2010PropOp42
 70
     1
102
RTVSPost2010Prop43
 90
        3
102
RTVSPost2010PropOp43
 70
     1
102
RTVSPost2010Prop44ColorIndex
 90
        5
102
RTVSPost2010Prop44ColorRGB
 90
      255
102
RTVSPost2010PropOp44
 70
     1
102
RTVSPost2010Prop45
280
     0
102
RTVSPost2010PropOp45
 70
     1
102
RTVSPost2010Prop46
 90
       50
102
RTVSPost2010PropOp46
 70
     1
102
RTVSPost2010Prop47
 90
       50
102
RTVSPost2010PropOp47
 70
     1
102
RTVSPost2010Prop48
 90
       50
102
RTVSPost2010PropOp48
 70
     1
102
RTVSPost2010Prop49
280
     0
102
RTVSPost2010PropOp49
 70
     1
102
RTVSPost2010Prop50
 90
       50
102
RTVSPost2010PropOp50
 70
     1
102
RTVSPost2010Prop51ColorIndex
 90
      256
102
RTVSPost2010Prop51ColorRGB
 90
-16777216
102
RTVSPost2010PropOp51
 70
     0
102
RTVSPost2010Prop52
140
1.0
102
RTVSPost2010PropOp52
 70
     0
102
RTVSPost2010Prop53
 90
        2
102
RTVSPost2010PropOp53
 70
     1
102
RTVSPost2010Prop54
  1
strokes_ogs.tif
102
RTVSPost2010PropOp54
 70
     1
102
RTVSPost2010Prop55
280
     0
102
RTVSPost2010PropOp55
 70
     1
102
RTVSPost2010Prop56
140
1.0
102
RTVSPost2010PropOp56
 70
     1
102
RTVSPost2010Prop57
140
1.0
102
RTVSPost2010PropOp57
 70
     1
  0
XRECORD
  5
2C4
102
{ACAD_REACTORS
330
2C3
102
}
330
2C3
100
AcDbXrecord
280
     1
102
RTVSPropertyOp0
 70
     0
102
RTVSPropertyOp1
 70
     0
102
RTVSPropertyOp2
 70
     0
102
RTVSPropertyOp3
 70
     0
102
RTVSPropertyOp4
 70
     0
102
RTVSPropertyOp5
 70
     0
102
RTVSPropertyOp6
 70
     0
102
RTVSPropertyOp7
 70
     0
102
RTVSPropertyOp8
 70
     0
102
RTVSPropertyOp9
 70
     0
102
RTVSPropertyOp10
 70
     0
102
RTVSPropertyOp11
 70
     0
102
RTVSPropertyOp12
 70
     0
102
RTVSPropertyOp13
 70
     0
102
RTVSPropertyOp14
 70
     2
102
RTVSPropertyOp15
 70
     0
102
RTVSPropertyOp16
 70
     0
102
RTVSPropertyOp17
 70
     0
102
RTVSPropertyOp18
 70
     0
102
RTVSPropertyOp19
 70
     0
102
RTVSPropertyOp20
 70
     0
102
RTVSPropertyOp21
 70
     0
102
RTVSPropertyOp22
 70
     0
102
RTVSPropertyOp23
 70
     0
102
RTVSPropertyOp24
 70
     0
102
RTVSPropertyOp25
 70
     0
102
RTVSPropertyOp26
 70
     0
102
RTVSPropertyOp27
 70
     0
102
RTVSPropertyOp28
 70
     0
102
RTVSPropertyOp29
 70
     0
102
RTVSPropertyOp30
 70
     0
102
RTVSPropertyOp31
 70
     0
102
RTVSPropertyOp32
 70
     0
102
RTVSPropertyOp33
 70
     0
102
RTVSPropertyOp34
 70
     0
102
RTVSPropertyOp35
 70
     0
102
RTVSPropertyOp36
 70
     0
102
RTVSPropertyOp37
 70
     0
102
RTVSPropertyOp38
 70
     0
102
RTVSPropertyOp39
 70
     0
102
RTVSPropertyOp40
 70
     0
102
RTVSPropertyOp41
 70
     0
102
RTVSPropertyOp42
 70
     0
102
RTVSPropertyOp43
 70
     0
102
RTVSPropertyOp44
 70
     0
102
RTVSPropertyOp45
 70
     0
102
RTVSPropertyOp46
 70
     0
102
RTVSPropertyOp47
 70
     0
102
RTVSPropertyOp48
 70
     0
102
RTVSPropertyOp49
 70
     0
102
RTVSPropertyOp50
 70
     0
102
RTVSPropertyOp51
 70
     0
102
RTVSPropertyOp52
 70
     0
102
RTVSPropertyOp53
 70
     0
102
RTVSPropertyOp54
 70
     0
102
RTVSPropertyOp55
 70
     0
102
RTVSPropertyOp56
 70
     0
102
RTVSPropertyOp57
 70
     0
102
RTVSPost2010Prop28
280
     0
102
RTVSPost2010PropOp28
 70
     0
102
RTVSPost2010Prop29
280
     1
102
RTVSPost2010PropOp29
 70
     0
102
RTVSPost2010Prop30
280
     1
102
RTVSPost2010PropOp30
 70
     0
102
RTVSPost2010Prop31
280
     0
102
RTVSPost2010PropOp31
 70
     0
102
RTVSPost2010Prop32
280
     0
102
RTVSPost2010PropOp32
 70
     0
102
RTVSPost2010Prop33
280
     0
102
RTVSPost2010PropOp33
 70
     0
102
RTVSPost2010Prop34
280
     0
102
RTVSPost2010PropOp34
 70
     0
102
RTVSPost2010Prop35
280
     0
102
RTVSPost2010PropOp35
 70
     0
102
RTVSPost2010Prop36
280
     0
102
RTVSPost2010PropOp36
 70
     0
102
RTVSPost2010Prop37
 90
       50
102
RTVSPost2010PropOp37
 70
     0
102
RTVSPost2010Prop38
140
0.0
102
RTVSPost2010PropOp38
 70
     0
102
RTVSPost2010Prop39
140
1.0
102
RTVSPost2010PropOp39
 70
     0
102
RTVSPost2010Prop40
 90
        0
102
RTVSPost2010PropOp40
 70
     0
102
RTVSPost2010Prop41ColorIndex
 90
       18
102
RTVSPost2010Prop41ColorRGB
 90
        0
102
RTVSPost2010PropOp41
 70
     0
102
RTVSPost2010Prop42
 90
       50
102
RTVSPost2010PropOp42
 70
     0
102
RTVSPost2010Prop43
 90
        3
102
RTVSPost2010PropOp43
 70
     0
102
RTVSPost2010Prop44ColorIndex
 90
        5
102
RTVSPost2010Prop44ColorRGB
 90
      255
102
RTVSPost2010PropOp44
 70
     0
102
RTVSPost2010Prop45
280
     0
102
RTVSPost2010PropOp45
 70
     0
102
RTVSPost2010Prop46
 90
       50
102
RTVSPost2010PropOp46
 70
     0
102
RTVSPost2010Prop47
 90
       50
102
RTVSPost2010PropOp47
 70
     0
102
RTVSPost2010Prop48
 90
       50
102
RTVSPost2010PropOp48
 70
     0
102
RTVSPost2010Prop49
280
     0
102
RTVSPost2010PropOp49
 70
     0
102
RTVSPost2010Prop50
 90
       50
102
RTVSPost2010PropOp50
 70
     0
102
RTVSPost2010Prop51ColorIndex
 90
      256
102
RTVSPost2010Prop51ColorRGB
 90
-16777216
102
RTVSPost2010PropOp51
 70
     0
102
RTVSPost2010Prop52
140
1.0
102
RTVSPost2010PropOp52
 70
     0
102
RTVSPost2010Prop53
 90
        2
102
RTVSPost2010PropOp53
 70
     0
102
RTVSPost2010Prop54
  1
strokes_ogs.tif
102
RTVSPost2010PropOp54
 70
     0
102
RTVSPost2010Prop55
280
     0
102
RTVSPost2010PropOp55
 70
     0
102
RTVSPost2010Prop56
140
1.0
102
RTVSPost2010PropOp56
 70
     0
102
RTVSPost2010Prop57
140
1.0
102
RTVSPost2010PropOp57
 70
     0
  0
XRECORD
  5
2BE
102
{ACAD_REACTORS
330
2BD
102
}
330
2BD
100
AcDbXrecord
280
     1
102
RTVSPropertyOp0
 70
     1
102
RTVSPropertyOp1
 70
     1
102
RTVSPropertyOp2
 70
     1
102
RTVSPropertyOp3
 70
     1
102
RTVSPropertyOp4
 70
     1
102
RTVSPropertyOp5
 70
     1
102
RTVSPropertyOp6
 70
     1
102
RTVSPropertyOp7
 70
     1
102
RTVSPropertyOp8
 70
     1
102
RTVSPropertyOp9
 70
     1
102
RTVSPropertyOp10
 70
     1
102
RTVSPropertyOp11
 70
     1
102
RTVSPropertyOp12
 70
     1
102
RTVSPropertyOp13
 70
     1
102
RTVSPropertyOp14
 70
     1
102
RTVSPropertyOp15
 70
     1
102
RTVSPropertyOp16
 70
     1
102
RTVSPropertyOp17
 70
     1
102
RTVSPropertyOp18
 70
     1
102
RTVSPropertyOp19
 70
     1
102
RTVSPropertyOp20
 70
     1
102
RTVSPropertyOp21
 70
     1
102
RTVSPropertyOp22
 70
     1
102
RTVSPropertyOp23
 70
     1
102
RTVSPropertyOp24
 70
     1
102
RTVSPropertyOp25
 70
     1
102
RTVSPropertyOp26
 70
     1
102
RTVSPropertyOp27
 70
     1
102
RTVSPropertyOp28
 70
     1
102
RTVSPropertyOp29
 70
     1
102
RTVSPropertyOp30
 70
     1
102
RTVSPropertyOp31
 70
     1
102
RTVSPropertyOp32
 70
     1
102
RTVSPropertyOp33
 70
     1
102
RTVSPropertyOp34
 70
     1
102
RTVSPropertyOp35
 70
     1
102
RTVSPropertyOp36
 70
     1
102
RTVSPropertyOp37
 70
     1
102
RTVSPropertyOp38
 70
     1
102
RTVSPropertyOp39
 70
     1
102
RTVSPropertyOp40
 70
     1
102
RTVSPropertyOp41
 70
     1
102
RTVSPropertyOp42
 70
     1
102
RTVSPropertyOp43
 70
     1
102
RTVSPropertyOp44
 70
     1
102
RTVSPropertyOp45
 70
     1
102
RTVSPropertyOp46
 70
     1
102
RTVSPropertyOp47
 70
     1
102
RTVSPropertyOp48
 70
     1
102
RTVSPropertyOp49
 70
     1
102
RTVSPropertyOp50
 70
     1
102
RTVSPropertyOp51
 70
     0
102
RTVSPropertyOp52
 70
     0
102
RTVSPropertyOp53
 70
     1
102
RTVSPropertyOp54
 70
     1
102
RTVSPropertyOp55
 70
     1
102
RTVSPropertyOp56
 70
     1
102
RTVSPropertyOp57
 70
     1
102
RTVSPost2010Prop28
280
     0
102
RTVSPost2010PropOp28
 70
     1
102
RTVSPost2010Prop29
280
     1
102
RTVSPost2010PropOp29
 70
     1
102
RTVSPost2010Prop30
280
     1
102
RTVSPost2010PropOp30
 70
     1
102
RTVSPost2010Prop31
280
     0
102
RTVSPost2010PropOp31
 70
     1
102
RTVSPost2010Prop32
280
     0
102
RTVSPost2010PropOp32
 70
     1
102
RTVSPost2010Prop33
280
     0
102
RTVSPost2010PropOp33
 70
     1
102
RTVSPost2010Prop34
280
     0
102
RTVSPost2010PropOp34
 70
     1
102
RTVSPost2010Prop35
280
     0
102
RTVSPost2010PropOp35
 70
     1
102
RTVSPost2010Prop36
280
     0
102
RTVSPost2010PropOp36
 70
     1
102
RTVSPost2010Prop37
 90
       50
102
RTVSPost2010PropOp37
 70
     1
102
RTVSPost2010Prop38
140
0.0
102
RTVSPost2010PropOp38
 70
     1
102
RTVSPost2010Prop39
140
1.0
102
RTVSPost2010PropOp39
 70
     1
102
RTVSPost2010Prop40
 90
        0
102
RTVSPost2010PropOp40
 70
     1
102
RTVSPost2010Prop41ColorIndex
 90
       18
102
RTVSPost2010Prop41ColorRGB
 90
        0
102
RTVSPost2010PropOp41
 70
     1
102
RTVSPost2010Prop42
 90
       50
102
RTVSPost2010PropOp42
 70
     1
102
RTVSPost2010Prop43
 90
        3
102
RTVSPost2010PropOp43
 70
     1
102
RTVSPost2010Prop44ColorIndex
 90
        5
102
RTVSPost2010Prop44ColorRGB
 90
      255
102
RTVSPost2010PropOp44
 70
     1
102
RTVSPost2010Prop45
280
     0
102
RTVSPost2010PropOp45
 70
     1
102
RTVSPost2010Prop46
 90
       50
102
RTVSPost2010PropOp46
 70
     1
102
RTVSPost2010Prop47
 90
       50
102
RTVSPost2010PropOp47
 70
     1
102
RTVSPost2010Prop48
 90
       50
102
RTVSPost2010PropOp48
 70
     1
102
RTVSPost2010Prop49
280
     0
102
RTVSPost2010PropOp49
 70
     1
102
RTVSPost2010Prop50
 90
       50
102
RTVSPost2010PropOp50
 70
     1
102
RTVSPost2010Prop51ColorIndex
 90
      256
102
RTVSPost2010Prop51ColorRGB
 90
-16777216
102
RTVSPost2010PropOp51
 70
     0
102
RTVSPost2010Prop52
140
1.0
102
RTVSPost2010PropOp52
 70
     0
102
RTVSPost2010Prop53
 90
        2
102
RTVSPost2010PropOp53
 70
     1
102
RTVSPost2010Prop54
  1
strokes_ogs.tif
102
RTVSPost2010PropOp54
 70
     1
102
RTVSPost2010Prop55
280
     0
102
RTVSPost2010PropOp55
 70
     1
102
RTVSPost2010Prop56
140
1.0
102
RTVSPost2010PropOp56
 70
     1
102
RTVSPost2010Prop57
140
1.0
102
RTVSPost2010PropOp57
 70
     1
  0
XRECORD
  5
2C6
102
{ACAD_REACTORS
330
2C5
102
}
330
2C5
100
AcDbXrecord
280
     1
102
RTVSPropertyOp0
 70
     0
102
RTVSPropertyOp1
 70
     0
102
RTVSPropertyOp2
 70
     0
102
RTVSPropertyOp3
 70
     0
102
RTVSPropertyOp4
 70
     0
102
RTVSPropertyOp5
 70
     0
102
RTVSPropertyOp6
 70
     0
102
RTVSPropertyOp7
 70
     0
102
RTVSPropertyOp8
 70
     0
102
RTVSPropertyOp9
 70
     0
102
RTVSPropertyOp10
 70
     0
102
RTVSPropertyOp11
 70
     0
102
RTVSPropertyOp12
 70
     0
102
RTVSPropertyOp13
 70
     0
102
RTVSPropertyOp14
 70
     2
102
RTVSPropertyOp15
 70
     0
102
RTVSPropertyOp16
 70
     0
102
RTVSPropertyOp17
 70
     0
102
RTVSPropertyOp18
 70
     0
102
RTVSPropertyOp19
 70
     0
102
RTVSPropertyOp20
 70
     0
102
RTVSPropertyOp21
 70
     0
102
RTVSPropertyOp22
 70
     0
102
RTVSPropertyOp23
 70
     0
102
RTVSPropertyOp24
 70
     0
102
RTVSPropertyOp25
 70
     0
102
RTVSPropertyOp26
 70
     0
102
RTVSPropertyOp27
 70
     0
102
RTVSPropertyOp28
 70
     0
102
RTVSPropertyOp29
 70
     0
102
RTVSPropertyOp30
 70
     0
102
RTVSPropertyOp31
 70
     0
102
RTVSPropertyOp32
 70
     0
102
RTVSPropertyOp33
 70
     0
102
RTVSPropertyOp34
 70
     0
102
RTVSPropertyOp35
 70
     0
102
RTVSPropertyOp36
 70
     0
102
RTVSPropertyOp37
 70
     0
102
RTVSPropertyOp38
 70
     0
102
RTVSPropertyOp39
 70
     0
102
RTVSPropertyOp40
 70
     0
102
RTVSPropertyOp41
 70
     0
102
RTVSPropertyOp42
 70
     0
102
RTVSPropertyOp43
 70
     0
102
RTVSPropertyOp44
 70
     0
102
RTVSPropertyOp45
 70
     0
102
RTVSPropertyOp46
 70
     0
102
RTVSPropertyOp47
 70
     0
102
RTVSPropertyOp48
 70
     0
102
RTVSPropertyOp49
 70
     0
102
RTVSPropertyOp50
 70
     0
102
RTVSPropertyOp51
 70
     0
102
RTVSPropertyOp52
 70
     0
102
RTVSPropertyOp53
 70
     0
102
RTVSPropertyOp54
 70
     0
102
RTVSPropertyOp55
 70
     0
102
RTVSPropertyOp56
 70
     0
102
RTVSPropertyOp57
 70
     0
102
RTVSPost2010Prop28
280
     0
102
RTVSPost2010PropOp28
 70
     0
102
RTVSPost2010Prop29
280
     1
102
RTVSPost2010PropOp29
 70
     0
102
RTVSPost2010Prop30
280
     1
102
RTVSPost2010PropOp30
 70
     0
102
RTVSPost2010Prop31
280
     0
102
RTVSPost2010PropOp31
 70
     0
102
RTVSPost2010Prop32
280
     0
102
RTVSPost2010PropOp32
 70
     0
102
RTVSPost2010Prop33
280
     0
102
RTVSPost2010PropOp33
 70
     0
102
RTVSPost2010Prop34
280
     0
102
RTVSPost2010PropOp34
 70
     0
102
RTVSPost2010Prop35
280
     0
102
RTVSPost2010PropOp35
 70
     0
102
RTVSPost2010Prop36
280
     0
102
RTVSPost2010PropOp36
 70
     0
102
RTVSPost2010Prop37
 90
       50
102
RTVSPost2010PropOp37
 70
     0
102
RTVSPost2010Prop38
140
0.0
102
RTVSPost2010PropOp38
 70
     0
102
RTVSPost2010Prop39
140
1.0
102
RTVSPost2010PropOp39
 70
     0
102
RTVSPost2010Prop40
 90
        0
102
RTVSPost2010PropOp40
 70
     0
102
RTVSPost2010Prop41ColorIndex
 90
       18
102
RTVSPost2010Prop41ColorRGB
 90
        0
102
RTVSPost2010PropOp41
 70
     0
102
RTVSPost2010Prop42
 90
       50
102
RTVSPost2010PropOp42
 70
     0
102
RTVSPost2010Prop43
 90
        3
102
RTVSPost2010PropOp43
 70
     0
102
RTVSPost2010Prop44ColorIndex
 90
        5
102
RTVSPost2010Prop44ColorRGB
 90
      255
102
RTVSPost2010PropOp44
 70
     0
102
RTVSPost2010Prop45
280
     0
102
RTVSPost2010PropOp45
 70
     0
102
RTVSPost2010Prop46
 90
       50
102
RTVSPost2010PropOp46
 70
     0
102
RTVSPost2010Prop47
 90
       50
102
RTVSPost2010PropOp47
 70
     0
102
RTVSPost2010Prop48
 90
       50
102
RTVSPost2010PropOp48
 70
     0
102
RTVSPost2010Prop49
280
     0
102
RTVSPost2010PropOp49
 70
     0
102
RTVSPost2010Prop50
 90
       50
102
RTVSPost2010PropOp50
 70
     0
102
RTVSPost2010Prop51ColorIndex
 90
      256
102
RTVSPost2010Prop51ColorRGB
 90
-16777216
102
RTVSPost2010PropOp51
 70
     0
102
RTVSPost2010Prop52
140
1.0
102
RTVSPost2010PropOp52
 70
     0
102
RTVSPost2010Prop53
 90
        2
102
RTVSPost2010PropOp53
 70
     0
102
RTVSPost2010Prop54
  1
strokes_ogs.tif
102
RTVSPost2010PropOp54
 70
     0
102
RTVSPost2010Prop55
280
     0
102
RTVSPost2010PropOp55
 70
     0
102
RTVSPost2010Prop56
140
1.0
102
RTVSPost2010PropOp56
 70
     0
102
RTVSPost2010Prop57
140
1.0
102
RTVSPost2010PropOp57
 70
     0
  0
XRECORD
  5
2B4
102
{ACAD_REACTORS
330
2B3
102
}
330
2B3
100
AcDbXrecord
280
     1
102
RTVSPropertyOp0
 70
     1
102
RTVSPropertyOp1
 70
     1
102
RTVSPropertyOp2
 70
     1
102
RTVSPropertyOp3
 70
     1
102
RTVSPropertyOp4
 70
     1
102
RTVSPropertyOp5
 70
     1
102
RTVSPropertyOp6
 70
     1
102
RTVSPropertyOp7
 70
     1
102
RTVSPropertyOp8
 70
     1
102
RTVSPropertyOp9
 70
     1
102
RTVSPropertyOp10
 70
     1
102
RTVSPropertyOp11
 70
     1
102
RTVSPropertyOp12
 70
     1
102
RTVSPropertyOp13
 70
     1
102
RTVSPropertyOp14
 70
     1
102
RTVSPropertyOp15
 70
     1
102
RTVSPropertyOp16
 70
     1
102
RTVSPropertyOp17
 70
     1
102
RTVSPropertyOp18
 70
     1
102
RTVSPropertyOp19
 70
     1
102
RTVSPropertyOp20
 70
     1
102
RTVSPropertyOp21
 70
     1
102
RTVSPropertyOp22
 70
     1
102
RTVSPropertyOp23
 70
     1
102
RTVSPropertyOp24
 70
     1
102
RTVSPropertyOp25
 70
     1
102
RTVSPropertyOp26
 70
     1
102
RTVSPropertyOp27
 70
     1
102
RTVSPropertyOp28
 70
     1
102
RTVSPropertyOp29
 70
     1
102
RTVSPropertyOp30
 70
     1
102
RTVSPropertyOp31
 70
     1
102
RTVSPropertyOp32
 70
     1
102
RTVSPropertyOp33
 70
     1
102
RTVSPropertyOp34
 70
     1
102
RTVSPropertyOp35
 70
     1
102
RTVSPropertyOp36
 70
     1
102
RTVSPropertyOp37
 70
     1
102
RTVSPropertyOp38
 70
     1
102
RTVSPropertyOp39
 70
     1
102
RTVSPropertyOp40
 70
     1
102
RTVSPropertyOp41
 70
     1
102
RTVSPropertyOp42
 70
     1
102
RTVSPropertyOp43
 70
     1
102
RTVSPropertyOp44
 70
     1
102
RTVSPropertyOp45
 70
     1
102
RTVSPropertyOp46
 70
     1
102
RTVSPropertyOp47
 70
     1
102
RTVSPropertyOp48
 70
     1
102
RTVSPropertyOp49
 70
     1
102
RTVSPropertyOp50
 70
     1
102
RTVSPropertyOp51
 70
     0
102
RTVSPropertyOp52
 70
     0
102
RTVSPropertyOp53
 70
     1
102
RTVSPropertyOp54
 70
     1
102
RTVSPropertyOp55
 70
     1
102
RTVSPropertyOp56
 70
     1
102
RTVSPropertyOp57
 70
     1
102
RTVSPost2010Prop28
280
     0
102
RTVSPost2010PropOp28
 70
     1
102
RTVSPost2010Prop29
280
     1
102
RTVSPost2010PropOp29
 70
     1
102
RTVSPost2010Prop30
280
     1
102
RTVSPost2010PropOp30
 70
     1
102
RTVSPost2010Prop31
280
     0
102
RTVSPost2010PropOp31
 70
     1
102
RTVSPost2010Prop32
280
     0
102
RTVSPost2010PropOp32
 70
     1
102
RTVSPost2010Prop33
280
     0
102
RTVSPost2010PropOp33
 70
     1
102
RTVSPost2010Prop34
280
     0
102
RTVSPost2010PropOp34
 70
     1
102
RTVSPost2010Prop35
280
     0
102
RTVSPost2010PropOp35
 70
     1
102
RTVSPost2010Prop36
280
     0
102
RTVSPost2010PropOp36
 70
     1
102
RTVSPost2010Prop37
 90
       50
102
RTVSPost2010PropOp37
 70
     1
102
RTVSPost2010Prop38
140
0.0
102
RTVSPost2010PropOp38
 70
     1
102
RTVSPost2010Prop39
140
1.0
102
RTVSPost2010PropOp39
 70
     1
102
RTVSPost2010Prop40
 90
        0
102
RTVSPost2010PropOp40
 70
     1
102
RTVSPost2010Prop41ColorIndex
 90
       18
102
RTVSPost2010Prop41ColorRGB
 90
        0
102
RTVSPost2010PropOp41
 70
     1
102
RTVSPost2010Prop42
 90
       50
102
RTVSPost2010PropOp42
 70
     1
102
RTVSPost2010Prop43
 90
        3
102
RTVSPost2010PropOp43
 70
     1
102
RTVSPost2010Prop44ColorIndex
 90
        5
102
RTVSPost2010Prop44ColorRGB
 90
      255
102
RTVSPost2010PropOp44
 70
     1
102
RTVSPost2010Prop45
280
     0
102
RTVSPost2010PropOp45
 70
     1
102
RTVSPost2010Prop46
 90
       50
102
RTVSPost2010PropOp46
 70
     1
102
RTVSPost2010Prop47
 90
       50
102
RTVSPost2010PropOp47
 70
     1
102
RTVSPost2010Prop48
 90
       50
102
RTVSPost2010PropOp48
 70
     1
102
RTVSPost2010Prop49
280
     0
102
RTVSPost2010PropOp49
 70
     1
102
RTVSPost2010Prop50
 90
       50
102
RTVSPost2010PropOp50
 70
     1
102
RTVSPost2010Prop51ColorIndex
 90
      256
102
RTVSPost2010Prop51ColorRGB
 90
-16777216
102
RTVSPost2010PropOp51
 70
     0
102
RTVSPost2010Prop52
140
1.0
102
RTVSPost2010PropOp52
 70
     0
102
RTVSPost2010Prop53
 90
        2
102
RTVSPost2010PropOp53
 70
     1
102
RTVSPost2010Prop54
  1
strokes_ogs.tif
102
RTVSPost2010PropOp54
 70
     1
102
RTVSPost2010Prop55
280
     0
102
RTVSPost2010PropOp55
 70
     1
102
RTVSPost2010Prop56
140
1.0
102
RTVSPost2010PropOp56
 70
     1
102
RTVSPost2010Prop57
140
1.0
102
RTVSPost2010PropOp57
 70
     1
  0
XRECORD
  5
2D2
102
{ACAD_REACTORS
330
2D1
102
}
330
2D1
100
AcDbXrecord
280
     1
102
RTVSPropertyOp0
 70
     1
102
RTVSPropertyOp1
 70
     1
102
RTVSPropertyOp2
 70
     1
102
RTVSPropertyOp3
 70
     1
102
RTVSPropertyOp4
 70
     1
102
RTVSPropertyOp5
 70
     1
102
RTVSPropertyOp6
 70
     1
102
RTVSPropertyOp7
 70
     1
102
RTVSPropertyOp8
 70
     1
102
RTVSPropertyOp9
 70
     1
102
RTVSPropertyOp10
 70
     1
102
RTVSPropertyOp11
 70
     1
102
RTVSPropertyOp12
 70
     1
102
RTVSPropertyOp13
 70
     1
102
RTVSPropertyOp14
 70
     1
102
RTVSPropertyOp15
 70
     1
102
RTVSPropertyOp16
 70
     1
102
RTVSPropertyOp17
 70
     1
102
RTVSPropertyOp18
 70
     1
102
RTVSPropertyOp19
 70
     1
102
RTVSPropertyOp20
 70
     1
102
RTVSPropertyOp21
 70
     1
102
RTVSPropertyOp22
 70
     1
102
RTVSPropertyOp23
 70
     1
102
RTVSPropertyOp24
 70
     1
102
RTVSPropertyOp25
 70
     1
102
RTVSPropertyOp26
 70
     1
102
RTVSPropertyOp27
 70
     1
102
RTVSPropertyOp28
 70
     1
102
RTVSPropertyOp29
 70
     1
102
RTVSPropertyOp30
 70
     1
102
RTVSPropertyOp31
 70
     1
102
RTVSPropertyOp32
 70
     1
102
RTVSPropertyOp33
 70
     1
102
RTVSPropertyOp34
 70
     1
102
RTVSPropertyOp35
 70
     1
102
RTVSPropertyOp36
 70
     1
102
RTVSPropertyOp37
 70
     1
102
RTVSPropertyOp38
 70
     1
102
RTVSPropertyOp39
 70
     1
102
RTVSPropertyOp40
 70
     1
102
RTVSPropertyOp41
 70
     1
102
RTVSPropertyOp42
 70
     1
102
RTVSPropertyOp43
 70
     1
102
RTVSPropertyOp44
 70
     1
102
RTVSPropertyOp45
 70
     1
102
RTVSPropertyOp46
 70
     1
102
RTVSPropertyOp47
 70
     1
102
RTVSPropertyOp48
 70
     1
102
RTVSPropertyOp49
 70
     1
102
RTVSPropertyOp50
 70
     1
102
RTVSPropertyOp51
 70
     0
102
RTVSPropertyOp52
 70
     0
102
RTVSPropertyOp53
 70
     1
102
RTVSPropertyOp54
 70
     1
102
RTVSPropertyOp55
 70
     1
102
RTVSPropertyOp56
 70
     1
102
RTVSPropertyOp57
 70
     1
102
RTVSPost2010Prop28
280
     0
102
RTVSPost2010PropOp28
 70
     1
102
RTVSPost2010Prop29
280
     1
102
RTVSPost2010PropOp29
 70
     1
102
RTVSPost2010Prop30
280
     1
102
RTVSPost2010PropOp30
 70
     1
102
RTVSPost2010Prop31
280
     0
102
RTVSPost2010PropOp31
 70
     1
102
RTVSPost2010Prop32
280
     0
102
RTVSPost2010PropOp32
 70
     1
102
RTVSPost2010Prop33
280
     0
102
RTVSPost2010PropOp33
 70
     1
102
RTVSPost2010Prop34
280
     0
102
RTVSPost2010PropOp34
 70
     1
102
RTVSPost2010Prop35
280
     0
102
RTVSPost2010PropOp35
 70
     1
102
RTVSPost2010Prop36
280
     0
102
RTVSPost2010PropOp36
 70
     1
102
RTVSPost2010Prop37
 90
       50
102
RTVSPost2010PropOp37
 70
     1
102
RTVSPost2010Prop38
140
0.0
102
RTVSPost2010PropOp38
 70
     1
102
RTVSPost2010Prop39
140
1.0
102
RTVSPost2010PropOp39
 70
     1
102
RTVSPost2010Prop40
 90
        0
102
RTVSPost2010PropOp40
 70
     1
102
RTVSPost2010Prop41ColorIndex
 90
       18
102
RTVSPost2010Prop41ColorRGB
 90
        0
102
RTVSPost2010PropOp41
 70
     1
102
RTVSPost2010Prop42
 90
       50
102
RTVSPost2010PropOp42
 70
     1
102
RTVSPost2010Prop43
 90
        3
102
RTVSPost2010PropOp43
 70
     1
102
RTVSPost2010Prop44ColorIndex
 90
        5
102
RTVSPost2010Prop44ColorRGB
 90
      255
102
RTVSPost2010PropOp44
 70
     1
102
RTVSPost2010Prop45
280
     0
102
RTVSPost2010PropOp45
 70
     1
102
RTVSPost2010Prop46
 90
       50
102
RTVSPost2010PropOp46
 70
     1
102
RTVSPost2010Prop47
 90
       50
102
RTVSPost2010PropOp47
 70
     1
102
RTVSPost2010Prop48
 90
       50
102
RTVSPost2010PropOp48
 70
     1
102
RTVSPost2010Prop49
280
     0
102
RTVSPost2010PropOp49
 70
     1
102
RTVSPost2010Prop50
 90
       50
102
RTVSPost2010PropOp50
 70
     1
102
RTVSPost2010Prop51ColorIndex
 90
      256
102
RTVSPost2010Prop51ColorRGB
 90
-16777216
102
RTVSPost2010PropOp51
 70
     0
102
RTVSPost2010Prop52
140
1.0
102
RTVSPost2010PropOp52
 70
     0
102
RTVSPost2010Prop53
 90
        2
102
RTVSPost2010PropOp53
 70
     1
102
RTVSPost2010Prop54
  1
strokes_ogs.tif
102
RTVSPost2010PropOp54
 70
     1
102
RTVSPost2010Prop55
280
     0
102
RTVSPost2010PropOp55
 70
     1
102
RTVSPost2010Prop56
140
1.0
102
RTVSPost2010PropOp56
 70
     1
102
RTVSPost2010Prop57
140
1.0
102
RTVSPost2010PropOp57
 70
     1
  0
XRECORD
  5
2D0
102
{ACAD_REACTORS
330
2CF
102
}
330
2CF
100
AcDbXrecord
280
     1
102
RTVSPropertyOp0
 70
     1
102
RTVSPropertyOp1
 70
     1
102
RTVSPropertyOp2
 70
     1
102
RTVSPropertyOp3
 70
     1
102
RTVSPropertyOp4
 70
     1
102
RTVSPropertyOp5
 70
     1
102
RTVSPropertyOp6
 70
     1
102
RTVSPropertyOp7
 70
     1
102
RTVSPropertyOp8
 70
     1
102
RTVSPropertyOp9
 70
     1
102
RTVSPropertyOp10
 70
     1
102
RTVSPropertyOp11
 70
     1
102
RTVSPropertyOp12
 70
     1
102
RTVSPropertyOp13
 70
     1
102
RTVSPropertyOp14
 70
     1
102
RTVSPropertyOp15
 70
     1
102
RTVSPropertyOp16
 70
     1
102
RTVSPropertyOp17
 70
     1
102
RTVSPropertyOp18
 70
     1
102
RTVSPropertyOp19
 70
     1
102
RTVSPropertyOp20
 70
     1
102
RTVSPropertyOp21
 70
     1
102
RTVSPropertyOp22
 70
     1
102
RTVSPropertyOp23
 70
     1
102
RTVSPropertyOp24
 70
     1
102
RTVSPropertyOp25
 70
     1
102
RTVSPropertyOp26
 70
     1
102
RTVSPropertyOp27
 70
     1
102
RTVSPropertyOp28
 70
     1
102
RTVSPropertyOp29
 70
     1
102
RTVSPropertyOp30
 70
     1
102
RTVSPropertyOp31
 70
     1
102
RTVSPropertyOp32
 70
     1
102
RTVSPropertyOp33
 70
     1
102
RTVSPropertyOp34
 70
     1
102
RTVSPropertyOp35
 70
     1
102
RTVSPropertyOp36
 70
     1
102
RTVSPropertyOp37
 70
     1
102
RTVSPropertyOp38
 70
     1
102
RTVSPropertyOp39
 70
     1
102
RTVSPropertyOp40
 70
     1
102
RTVSPropertyOp41
 70
     1
102
RTVSPropertyOp42
 70
     1
102
RTVSPropertyOp43
 70
     1
102
RTVSPropertyOp44
 70
     1
102
RTVSPropertyOp45
 70
     1
102
RTVSPropertyOp46
 70
     1
102
RTVSPropertyOp47
 70
     1
102
RTVSPropertyOp48
 70
     1
102
RTVSPropertyOp49
 70
     1
102
RTVSPropertyOp50
 70
     1
102
RTVSPropertyOp51
 70
     0
102
RTVSPropertyOp52
 70
     0
102
RTVSPropertyOp53
 70
     1
102
RTVSPropertyOp54
 70
     1
102
RTVSPropertyOp55
 70
     1
102
RTVSPropertyOp56
 70
     1
102
RTVSPropertyOp57
 70
     1
102
RTVSPost2010Prop28
280
     0
102
RTVSPost2010PropOp28
 70
     1
102
RTVSPost2010Prop29
280
     1
102
RTVSPost2010PropOp29
 70
     1
102
RTVSPost2010Prop30
280
     1
102
RTVSPost2010PropOp30
 70
     1
102
RTVSPost2010Prop31
280
     0
102
RTVSPost2010PropOp31
 70
     1
102
RTVSPost2010Prop32
280
     0
102
RTVSPost2010PropOp32
 70
     1
102
RTVSPost2010Prop33
280
     0
102
RTVSPost2010PropOp33
 70
     1
102
RTVSPost2010Prop34
280
     0
102
RTVSPost2010PropOp34
 70
     1
102
RTVSPost2010Prop35
280
     0
102
RTVSPost2010PropOp35
 70
     1
102
RTVSPost2010Prop36
280
     0
102
RTVSPost2010PropOp36
 70
     1
102
RTVSPost2010Prop37
 90
       50
102
RTVSPost2010PropOp37
 70
     1
102
RTVSPost2010Prop38
140
0.0
102
RTVSPost2010PropOp38
 70
     1
102
RTVSPost2010Prop39
140
1.0
102
RTVSPost2010PropOp39
 70
     1
102
RTVSPost2010Prop40
 90
        0
102
RTVSPost2010PropOp40
 70
     1
102
RTVSPost2010Prop41ColorIndex
 90
       18
102
RTVSPost2010Prop41ColorRGB
 90
        0
102
RTVSPost2010PropOp41
 70
     1
102
RTVSPost2010Prop42
 90
       50
102
RTVSPost2010PropOp42
 70
     1
102
RTVSPost2010Prop43
 90
        3
102
RTVSPost2010PropOp43
 70
     1
102
RTVSPost2010Prop44ColorIndex
 90
        5
102
RTVSPost2010Prop44ColorRGB
 90
      255
102
RTVSPost2010PropOp44
 70
     1
102
RTVSPost2010Prop45
280
     0
102
RTVSPost2010PropOp45
 70
     1
102
RTVSPost2010Prop46
 90
       50
102
RTVSPost2010PropOp46
 70
     1
102
RTVSPost2010Prop47
 90
       50
102
RTVSPost2010PropOp47
 70
     1
102
RTVSPost2010Prop48
 90
       50
102
RTVSPost2010PropOp48
 70
     1
102
RTVSPost2010Prop49
280
     0
102
RTVSPost2010PropOp49
 70
     1
102
RTVSPost2010Prop50
 90
       50
102
RTVSPost2010PropOp50
 70
     1
102
RTVSPost2010Prop51ColorIndex
 90
      256
102
RTVSPost2010Prop51ColorRGB
 90
-16777216
102
RTVSPost2010PropOp51
 70
     0
102
RTVSPost2010Prop52
140
1.0
102
RTVSPost2010PropOp52
 70
     0
102
RTVSPost2010Prop53
 90
        2
102
RTVSPost2010PropOp53
 70
     1
102
RTVSPost2010Prop54
  1
strokes_ogs.tif
102
RTVSPost2010PropOp54
 70
     1
102
RTVSPost2010Prop55
280
     0
102
RTVSPost2010PropOp55
 70
     1
102
RTVSPost2010Prop56
140
1.0
102
RTVSPost2010PropOp56
 70
     1
102
RTVSPost2010Prop57
140
1.0
102
RTVSPost2010PropOp57
 70
     1
  0
XRECORD
  5
2CA
102
{ACAD_REACTORS
330
2C9
102
}
330
2C9
100
AcDbXrecord
280
     1
102
RTVSPropertyOp0
 70
     1
102
RTVSPropertyOp1
 70
     1
102
RTVSPropertyOp2
 70
     1
102
RTVSPropertyOp3
 70
     1
102
RTVSPropertyOp4
 70
     1
102
RTVSPropertyOp5
 70
     1
102
RTVSPropertyOp6
 70
     1
102
RTVSPropertyOp7
 70
     1
102
RTVSPropertyOp8
 70
     1
102
RTVSPropertyOp9
 70
     1
102
RTVSPropertyOp10
 70
     1
102
RTVSPropertyOp11
 70
     1
102
RTVSPropertyOp12
 70
     1
102
RTVSPropertyOp13
 70
     1
102
RTVSPropertyOp14
 70
     1
102
RTVSPropertyOp15
 70
     1
102
RTVSPropertyOp16
 70
     1
102
RTVSPropertyOp17
 70
     1
102
RTVSPropertyOp18
 70
     1
102
RTVSPropertyOp19
 70
     1
102
RTVSPropertyOp20
 70
     1
102
RTVSPropertyOp21
 70
     1
102
RTVSPropertyOp22
 70
     1
102
RTVSPropertyOp23
 70
     1
102
RTVSPropertyOp24
 70
     1
102
RTVSPropertyOp25
 70
     1
102
RTVSPropertyOp26
 70
     1
102
RTVSPropertyOp27
 70
     1
102
RTVSPropertyOp28
 70
     1
102
RTVSPropertyOp29
 70
     1
102
RTVSPropertyOp30
 70
     1
102
RTVSPropertyOp31
 70
     1
102
RTVSPropertyOp32
 70
     1
102
RTVSPropertyOp33
 70
     1
102
RTVSPropertyOp34
 70
     1
102
RTVSPropertyOp35
 70
     1
102
RTVSPropertyOp36
 70
     1
102
RTVSPropertyOp37
 70
     1
102
RTVSPropertyOp38
 70
     1
102
RTVSPropertyOp39
 70
     1
102
RTVSPropertyOp40
 70
     1
102
RTVSPropertyOp41
 70
     1
102
RTVSPropertyOp42
 70
     1
102
RTVSPropertyOp43
 70
     1
102
RTVSPropertyOp44
 70
     1
102
RTVSPropertyOp45
 70
     1
102
RTVSPropertyOp46
 70
     1
102
RTVSPropertyOp47
 70
     1
102
RTVSPropertyOp48
 70
     1
102
RTVSPropertyOp49
 70
     1
102
RTVSPropertyOp50
 70
     1
102
RTVSPropertyOp51
 70
     0
102
RTVSPropertyOp52
 70
     0
102
RTVSPropertyOp53
 70
     1
102
RTVSPropertyOp54
 70
     1
102
RTVSPropertyOp55
 70
     1
102
RTVSPropertyOp56
 70
     1
102
RTVSPropertyOp57
 70
     1
102
RTVSPost2010Prop28
280
     0
102
RTVSPost2010PropOp28
 70
     1
102
RTVSPost2010Prop29
280
     1
102
RTVSPost2010PropOp29
 70
     1
102
RTVSPost2010Prop30
280
     1
102
RTVSPost2010PropOp30
 70
     1
102
RTVSPost2010Prop31
280
     0
102
RTVSPost2010PropOp31
 70
     1
102
RTVSPost2010Prop32
280
     0
102
RTVSPost2010PropOp32
 70
     1
102
RTVSPost2010Prop33
280
     0
102
RTVSPost2010PropOp33
 70
     1
102
RTVSPost2010Prop34
280
     0
102
RTVSPost2010PropOp34
 70
     1
102
RTVSPost2010Prop35
280
     0
102
RTVSPost2010PropOp35
 70
     1
102
RTVSPost2010Prop36
280
     0
102
RTVSPost2010PropOp36
 70
     1
102
RTVSPost2010Prop37
 90
       50
102
RTVSPost2010PropOp37
 70
     1
102
RTVSPost2010Prop38
140
0.0
102
RTVSPost2010PropOp38
 70
     1
102
RTVSPost2010Prop39
140
1.0
102
RTVSPost2010PropOp39
 70
     1
102
RTVSPost2010Prop40
 90
        0
102
RTVSPost2010PropOp40
 70
     1
102
RTVSPost2010Prop41ColorIndex
 90
       18
102
RTVSPost2010Prop41ColorRGB
 90
        0
102
RTVSPost2010PropOp41
 70
     1
102
RTVSPost2010Prop42
 90
       50
102
RTVSPost2010PropOp42
 70
     1
102
RTVSPost2010Prop43
 90
        3
102
RTVSPost2010PropOp43
 70
     1
102
RTVSPost2010Prop44ColorIndex
 90
        5
102
RTVSPost2010Prop44ColorRGB
 90
      255
102
RTVSPost2010PropOp44
 70
     1
102
RTVSPost2010Prop45
280
     0
102
RTVSPost2010PropOp45
 70
     1
102
RTVSPost2010Prop46
 90
       50
102
RTVSPost2010PropOp46
 70
     1
102
RTVSPost2010Prop47
 90
       50
102
RTVSPost2010PropOp47
 70
     1
102
RTVSPost2010Prop48
 90
       50
102
RTVSPost2010PropOp48
 70
     1
102
RTVSPost2010Prop49
280
     0
102
RTVSPost2010PropOp49
 70
     1
102
RTVSPost2010Prop50
 90
       50
102
RTVSPost2010PropOp50
 70
     1
102
RTVSPost2010Prop51ColorIndex
 90
      256
102
RTVSPost2010Prop51ColorRGB
 90
-16777216
102
RTVSPost2010PropOp51
 70
     0
102
RTVSPost2010Prop52
140
1.0
102
RTVSPost2010PropOp52
 70
     0
102
RTVSPost2010Prop53
 90
        2
102
RTVSPost2010PropOp53
 70
     1
102
RTVSPost2010Prop54
  1
strokes_ogs.tif
102
RTVSPost2010PropOp54
 70
     1
102
RTVSPost2010Prop55
280
     0
102
RTVSPost2010PropOp55
 70
     1
102
RTVSPost2010Prop56
140
1.0
102
RTVSPost2010PropOp56
 70
     1
102
RTVSPost2010Prop57
140
1.0
102
RTVSPost2010PropOp57
 70
     1
  0
XRECORD
  5
2CC
102
{ACAD_REACTORS
330
2CB
102
}
330
2CB
100
AcDbXrecord
280
     1
102
RTVSPropertyOp0
 70
     1
102
RTVSPropertyOp1
 70
     1
102
RTVSPropertyOp2
 70
     1
102
RTVSPropertyOp3
 70
     1
102
RTVSPropertyOp4
 70
     1
102
RTVSPropertyOp5
 70
     1
102
RTVSPropertyOp6
 70
     1
102
RTVSPropertyOp7
 70
     1
102
RTVSPropertyOp8
 70
     1
102
RTVSPropertyOp9
 70
     1
102
RTVSPropertyOp10
 70
     1
102
RTVSPropertyOp11
 70
     1
102
RTVSPropertyOp12
 70
     1
102
RTVSPropertyOp13
 70
     1
102
RTVSPropertyOp14
 70
     1
102
RTVSPropertyOp15
 70
     1
102
RTVSPropertyOp16
 70
     1
102
RTVSPropertyOp17
 70
     1
102
RTVSPropertyOp18
 70
     1
102
RTVSPropertyOp19
 70
     1
102
RTVSPropertyOp20
 70
     1
102
RTVSPropertyOp21
 70
     1
102
RTVSPropertyOp22
 70
     1
102
RTVSPropertyOp23
 70
     1
102
RTVSPropertyOp24
 70
     1
102
RTVSPropertyOp25
 70
     1
102
RTVSPropertyOp26
 70
     1
102
RTVSPropertyOp27
 70
     1
102
RTVSPropertyOp28
 70
     1
102
RTVSPropertyOp29
 70
     1
102
RTVSPropertyOp30
 70
     1
102
RTVSPropertyOp31
 70
     1
102
RTVSPropertyOp32
 70
     1
102
RTVSPropertyOp33
 70
     1
102
RTVSPropertyOp34
 70
     1
102
RTVSPropertyOp35
 70
     1
102
RTVSPropertyOp36
 70
     1
102
RTVSPropertyOp37
 70
     1
102
RTVSPropertyOp38
 70
     1
102
RTVSPropertyOp39
 70
     1
102
RTVSPropertyOp40
 70
     1
102
RTVSPropertyOp41
 70
     1
102
RTVSPropertyOp42
 70
     1
102
RTVSPropertyOp43
 70
     1
102
RTVSPropertyOp44
 70
     1
102
RTVSPropertyOp45
 70
     1
102
RTVSPropertyOp46
 70
     1
102
RTVSPropertyOp47
 70
     1
102
RTVSPropertyOp48
 70
     1
102
RTVSPropertyOp49
 70
     1
102
RTVSPropertyOp50
 70
     1
102
RTVSPropertyOp51
 70
     0
102
RTVSPropertyOp52
 70
     0
102
RTVSPropertyOp53
 70
     1
102
RTVSPropertyOp54
 70
     1
102
RTVSPropertyOp55
 70
     1
102
RTVSPropertyOp56
 70
     1
102
RTVSPropertyOp57
 70
     1
102
RTVSPost2010Prop28
280
     0
102
RTVSPost2010PropOp28
 70
     1
102
RTVSPost2010Prop29
280
     1
102
RTVSPost2010PropOp29
 70
     1
102
RTVSPost2010Prop30
280
     1
102
RTVSPost2010PropOp30
 70
     1
102
RTVSPost2010Prop31
280
     0
102
RTVSPost2010PropOp31
 70
     1
102
RTVSPost2010Prop32
280
     0
102
RTVSPost2010PropOp32
 70
     1
102
RTVSPost2010Prop33
280
     0
102
RTVSPost2010PropOp33
 70
     1
102
RTVSPost2010Prop34
280
     0
102
RTVSPost2010PropOp34
 70
     1
102
RTVSPost2010Prop35
280
     0
102
RTVSPost2010PropOp35
 70
     1
102
RTVSPost2010Prop36
280
     0
102
RTVSPost2010PropOp36
 70
     1
102
RTVSPost2010Prop37
 90
       50
102
RTVSPost2010PropOp37
 70
     1
102
RTVSPost2010Prop38
140
0.0
102
RTVSPost2010PropOp38
 70
     1
102
RTVSPost2010Prop39
140
1.0
102
RTVSPost2010PropOp39
 70
     1
102
RTVSPost2010Prop40
 90
        0
102
RTVSPost2010PropOp40
 70
     1
102
RTVSPost2010Prop41ColorIndex
 90
       18
102
RTVSPost2010Prop41ColorRGB
 90
        0
102
RTVSPost2010PropOp41
 70
     1
102
RTVSPost2010Prop42
 90
       50
102
RTVSPost2010PropOp42
 70
     1
102
RTVSPost2010Prop43
 90
        3
102
RTVSPost2010PropOp43
 70
     1
102
RTVSPost2010Prop44ColorIndex
 90
        5
102
RTVSPost2010Prop44ColorRGB
 90
      255
102
RTVSPost2010PropOp44
 70
     1
102
RTVSPost2010Prop45
280
     0
102
RTVSPost2010PropOp45
 70
     1
102
RTVSPost2010Prop46
 90
       50
102
RTVSPost2010PropOp46
 70
     1
102
RTVSPost2010Prop47
 90
       50
102
RTVSPost2010PropOp47
 70
     1
102
RTVSPost2010Prop48
 90
       50
102
RTVSPost2010PropOp48
 70
     1
102
RTVSPost2010Prop49
280
     0
102
RTVSPost2010PropOp49
 70
     1
102
RTVSPost2010Prop50
 90
       50
102
RTVSPost2010PropOp50
 70
     1
102
RTVSPost2010Prop51ColorIndex
 90
      256
102
RTVSPost2010Prop51ColorRGB
 90
-16777216
102
RTVSPost2010PropOp51
 70
     0
102
RTVSPost2010Prop52
140
1.0
102
RTVSPost2010PropOp52
 70
     0
102
RTVSPost2010Prop53
 90
        2
102
RTVSPost2010PropOp53
 70
     1
102
RTVSPost2010Prop54
  1
strokes_ogs.tif
102
RTVSPost2010PropOp54
 70
     1
102
RTVSPost2010Prop55
280
     0
102
RTVSPost2010PropOp55
 70
     1
102
RTVSPost2010Prop56
140
1.0
102
RTVSPost2010PropOp56
 70
     1
102
RTVSPost2010Prop57
140
1.0
102
RTVSPost2010PropOp57
 70
     1
  0
XRECORD
  5
2BC
102
{ACAD_REACTORS
330
2BB
102
}
330
2BB
100
AcDbXrecord
280
     1
102
RTVSPropertyOp0
 70
     1
102
RTVSPropertyOp1
 70
     1
102
RTVSPropertyOp2
 70
     1
102
RTVSPropertyOp3
 70
     1
102
RTVSPropertyOp4
 70
     1
102
RTVSPropertyOp5
 70
     1
102
RTVSPropertyOp6
 70
     1
102
RTVSPropertyOp7
 70
     1
102
RTVSPropertyOp8
 70
     1
102
RTVSPropertyOp9
 70
     1
102
RTVSPropertyOp10
 70
     1
102
RTVSPropertyOp11
 70
     1
102
RTVSPropertyOp12
 70
     1
102
RTVSPropertyOp13
 70
     1
102
RTVSPropertyOp14
 70
     1
102
RTVSPropertyOp15
 70
     1
102
RTVSPropertyOp16
 70
     1
102
RTVSPropertyOp17
 70
     1
102
RTVSPropertyOp18
 70
     1
102
RTVSPropertyOp19
 70
     1
102
RTVSPropertyOp20
 70
     1
102
RTVSPropertyOp21
 70
     1
102
RTVSPropertyOp22
 70
     1
102
RTVSPropertyOp23
 70
     1
102
RTVSPropertyOp24
 70
     1
102
RTVSPropertyOp25
 70
     1
102
RTVSPropertyOp26
 70
     1
102
RTVSPropertyOp27
 70
     1
102
RTVSPropertyOp28
 70
     1
102
RTVSPropertyOp29
 70
     1
102
RTVSPropertyOp30
 70
     1
102
RTVSPropertyOp31
 70
     1
102
RTVSPropertyOp32
 70
     1
102
RTVSPropertyOp33
 70
     1
102
RTVSPropertyOp34
 70
     1
102
RTVSPropertyOp35
 70
     1
102
RTVSPropertyOp36
 70
     1
102
RTVSPropertyOp37
 70
     1
102
RTVSPropertyOp38
 70
     1
102
RTVSPropertyOp39
 70
     1
102
RTVSPropertyOp40
 70
     1
102
RTVSPropertyOp41
 70
     1
102
RTVSPropertyOp42
 70
     1
102
RTVSPropertyOp43
 70
     1
102
RTVSPropertyOp44
 70
     1
102
RTVSPropertyOp45
 70
     1
102
RTVSPropertyOp46
 70
     1
102
RTVSPropertyOp47
 70
     1
102
RTVSPropertyOp48
 70
     1
102
RTVSPropertyOp49
 70
     1
102
RTVSPropertyOp50
 70
     1
102
RTVSPropertyOp51
 70
     0
102
RTVSPropertyOp52
 70
     0
102
RTVSPropertyOp53
 70
     1
102
RTVSPropertyOp54
 70
     1
102
RTVSPropertyOp55
 70
     1
102
RTVSPropertyOp56
 70
     1
102
RTVSPropertyOp57
 70
     1
102
RTVSPost2010Prop28
280
     0
102
RTVSPost2010PropOp28
 70
     1
102
RTVSPost2010Prop29
280
     1
102
RTVSPost2010PropOp29
 70
     1
102
RTVSPost2010Prop30
280
     1
102
RTVSPost2010PropOp30
 70
     1
102
RTVSPost2010Prop31
280
     0
102
RTVSPost2010PropOp31
 70
     1
102
RTVSPost2010Prop32
280
     0
102
RTVSPost2010PropOp32
 70
     1
102
RTVSPost2010Prop33
280
     0
102
RTVSPost2010PropOp33
 70
     1
102
RTVSPost2010Prop34
280
     0
102
RTVSPost2010PropOp34
 70
     1
102
RTVSPost2010Prop35
280
     0
102
RTVSPost2010PropOp35
 70
     1
102
RTVSPost2010Prop36
280
     0
102
RTVSPost2010PropOp36
 70
     1
102
RTVSPost2010Prop37
 90
       50
102
RTVSPost2010PropOp37
 70
     1
102
RTVSPost2010Prop38
140
0.0
102
RTVSPost2010PropOp38
 70
     1
102
RTVSPost2010Prop39
140
1.0
102
RTVSPost2010PropOp39
 70
     1
102
RTVSPost2010Prop40
 90
        0
102
RTVSPost2010PropOp40
 70
     1
102
RTVSPost2010Prop41ColorIndex
 90
       18
102
RTVSPost2010Prop41ColorRGB
 90
        0
102
RTVSPost2010PropOp41
 70
     1
102
RTVSPost2010Prop42
 90
       50
102
RTVSPost2010PropOp42
 70
     1
102
RTVSPost2010Prop43
 90
        3
102
RTVSPost2010PropOp43
 70
     1
102
RTVSPost2010Prop44ColorIndex
 90
        5
102
RTVSPost2010Prop44ColorRGB
 90
      255
102
RTVSPost2010PropOp44
 70
     1
102
RTVSPost2010Prop45
280
     0
102
RTVSPost2010PropOp45
 70
     1
102
RTVSPost2010Prop46
 90
       50
102
RTVSPost2010PropOp46
 70
     1
102
RTVSPost2010Prop47
 90
       50
102
RTVSPost2010PropOp47
 70
     1
102
RTVSPost2010Prop48
 90
       50
102
RTVSPost2010PropOp48
 70
     1
102
RTVSPost2010Prop49
280
     0
102
RTVSPost2010PropOp49
 70
     1
102
RTVSPost2010Prop50
 90
       50
102
RTVSPost2010PropOp50
 70
     1
102
RTVSPost2010Prop51ColorIndex
 90
      256
102
RTVSPost2010Prop51ColorRGB
 90
-16777216
102
RTVSPost2010PropOp51
 70
     0
102
RTVSPost2010Prop52
140
1.0
102
RTVSPost2010PropOp52
 70
     0
102
RTVSPost2010Prop53
 90
        2
102
RTVSPost2010PropOp53
 70
     1
102
RTVSPost2010Prop54
  1
strokes_ogs.tif
102
RTVSPost2010PropOp54
 70
     1
102
RTVSPost2010Prop55
280
     0
102
RTVSPost2010PropOp55
 70
     1
102
RTVSPost2010Prop56
140
1.0
102
RTVSPost2010PropOp56
 70
     1
102
RTVSPost2010Prop57
140
1.0
102
RTVSPost2010PropOp57
 70
     1
  0
XRECORD
  5
2AE
102
{ACAD_REACTORS
330
2AD
102
}
330
2AD
100
AcDbXrecord
280
     1
102
RTVSPropertyOp0
 70
     1
102
RTVSPropertyOp1
 70
     1
102
RTVSPropertyOp2
 70
     1
102
RTVSPropertyOp3
 70
     1
102
RTVSPropertyOp4
 70
     1
102
RTVSPropertyOp5
 70
     1
102
RTVSPropertyOp6
 70
     1
102
RTVSPropertyOp7
 70
     1
102
RTVSPropertyOp8
 70
     1
102
RTVSPropertyOp9
 70
     1
102
RTVSPropertyOp10
 70
     1
102
RTVSPropertyOp11
 70
     1
102
RTVSPropertyOp12
 70
     1
102
RTVSPropertyOp13
 70
     1
102
RTVSPropertyOp14
 70
     1
102
RTVSPropertyOp15
 70
     1
102
RTVSPropertyOp16
 70
     1
102
RTVSPropertyOp17
 70
     1
102
RTVSPropertyOp18
 70
     1
102
RTVSPropertyOp19
 70
     1
102
RTVSPropertyOp20
 70
     1
102
RTVSPropertyOp21
 70
     1
102
RTVSPropertyOp22
 70
     1
102
RTVSPropertyOp23
 70
     1
102
RTVSPropertyOp24
 70
     1
102
RTVSPropertyOp25
 70
     1
102
RTVSPropertyOp26
 70
     1
102
RTVSPropertyOp27
 70
     1
102
RTVSPropertyOp28
 70
     1
102
RTVSPropertyOp29
 70
     1
102
RTVSPropertyOp30
 70
     1
102
RTVSPropertyOp31
 70
     1
102
RTVSPropertyOp32
 70
     1
102
RTVSPropertyOp33
 70
     1
102
RTVSPropertyOp34
 70
     1
102
RTVSPropertyOp35
 70
     1
102
RTVSPropertyOp36
 70
     1
102
RTVSPropertyOp37
 70
     1
102
RTVSPropertyOp38
 70
     1
102
RTVSPropertyOp39
 70
     1
102
RTVSPropertyOp40
 70
     1
102
RTVSPropertyOp41
 70
     1
102
RTVSPropertyOp42
 70
     1
102
RTVSPropertyOp43
 70
     1
102
RTVSPropertyOp44
 70
     1
102
RTVSPropertyOp45
 70
     1
102
RTVSPropertyOp46
 70
     1
102
RTVSPropertyOp47
 70
     1
102
RTVSPropertyOp48
 70
     1
102
RTVSPropertyOp49
 70
     1
102
RTVSPropertyOp50
 70
     1
102
RTVSPropertyOp51
 70
     0
102
RTVSPropertyOp52
 70
     0
102
RTVSPropertyOp53
 70
     1
102
RTVSPropertyOp54
 70
     1
102
RTVSPropertyOp55
 70
     1
102
RTVSPropertyOp56
 70
     1
102
RTVSPropertyOp57
 70
     1
102
RTVSPost2010Prop28
280
     0
102
RTVSPost2010PropOp28
 70
     1
102
RTVSPost2010Prop29
280
     1
102
RTVSPost2010PropOp29
 70
     1
102
RTVSPost2010Prop30
280
     1
102
RTVSPost2010PropOp30
 70
     1
102
RTVSPost2010Prop31
280
     0
102
RTVSPost2010PropOp31
 70
     1
102
RTVSPost2010Prop32
280
     0
102
RTVSPost2010PropOp32
 70
     1
102
RTVSPost2010Prop33
280
     0
102
RTVSPost2010PropOp33
 70
     1
102
RTVSPost2010Prop34
280
     0
102
RTVSPost2010PropOp34
 70
     1
102
RTVSPost2010Prop35
280
     0
102
RTVSPost2010PropOp35
 70
     1
102
RTVSPost2010Prop36
280
     0
102
RTVSPost2010PropOp36
 70
     1
102
RTVSPost2010Prop37
 90
       50
102
RTVSPost2010PropOp37
 70
     1
102
RTVSPost2010Prop38
140
0.0
102
RTVSPost2010PropOp38
 70
     1
102
RTVSPost2010Prop39
140
1.0
102
RTVSPost2010PropOp39
 70
     1
102
RTVSPost2010Prop40
 90
        0
102
RTVSPost2010PropOp40
 70
     1
102
RTVSPost2010Prop41ColorIndex
 90
       18
102
RTVSPost2010Prop41ColorRGB
 90
        0
102
RTVSPost2010PropOp41
 70
     1
102
RTVSPost2010Prop42
 90
       50
102
RTVSPost2010PropOp42
 70
     1
102
RTVSPost2010Prop43
 90
        3
102
RTVSPost2010PropOp43
 70
     1
102
RTVSPost2010Prop44ColorIndex
 90
        5
102
RTVSPost2010Prop44ColorRGB
 90
      255
102
RTVSPost2010PropOp44
 70
     1
102
RTVSPost2010Prop45
280
     0
102
RTVSPost2010PropOp45
 70
     1
102
RTVSPost2010Prop46
 90
       50
102
RTVSPost2010PropOp46
 70
     1
102
RTVSPost2010Prop47
 90
       50
102
RTVSPost2010PropOp47
 70
     1
102
RTVSPost2010Prop48
 90
       50
102
RTVSPost2010PropOp48
 70
     1
102
RTVSPost2010Prop49
280
     0
102
RTVSPost2010PropOp49
 70
     1
102
RTVSPost2010Prop50
 90
       50
102
RTVSPost2010PropOp50
 70
     1
102
RTVSPost2010Prop51ColorIndex
 90
      256
102
RTVSPost2010Prop51ColorRGB
 90
-16777216
102
RTVSPost2010PropOp51
 70
     0
102
RTVSPost2010Prop52
140
1.0
102
RTVSPost2010PropOp52
 70
     0
102
RTVSPost2010Prop53
 90
        2
102
RTVSPost2010PropOp53
 70
     1
102
RTVSPost2010Prop54
  1
strokes_ogs.tif
102
RTVSPost2010PropOp54
 70
     1
102
RTVSPost2010Prop55
280
     0
102
RTVSPost2010PropOp55
 70
     1
102
RTVSPost2010Prop56
140
1.0
102
RTVSPost2010PropOp56
 70
     1
102
RTVSPost2010Prop57
140
1.0
102
RTVSPost2010PropOp57
 70
     1
  0
XRECORD
  5
2CE
102
{ACAD_REACTORS
330
2CD
102
}
330
2CD
100
AcDbXrecord
280
     1
102
RTVSPropertyOp0
 70
     1
102
RTVSPropertyOp1
 70
     1
102
RTVSPropertyOp2
 70
     1
102
RTVSPropertyOp3
 70
     1
102
RTVSPropertyOp4
 70
     1
102
RTVSPropertyOp5
 70
     1
102
RTVSPropertyOp6
 70
     1
102
RTVSPropertyOp7
 70
     1
102
RTVSPropertyOp8
 70
     1
102
RTVSPropertyOp9
 70
     1
102
RTVSPropertyOp10
 70
     1
102
RTVSPropertyOp11
 70
     1
102
RTVSPropertyOp12
 70
     1
102
RTVSPropertyOp13
 70
     1
102
RTVSPropertyOp14
 70
     1
102
RTVSPropertyOp15
 70
     1
102
RTVSPropertyOp16
 70
     1
102
RTVSPropertyOp17
 70
     1
102
RTVSPropertyOp18
 70
     1
102
RTVSPropertyOp19
 70
     1
102
RTVSPropertyOp20
 70
     1
102
RTVSPropertyOp21
 70
     1
102
RTVSPropertyOp22
 70
     1
102
RTVSPropertyOp23
 70
     1
102
RTVSPropertyOp24
 70
     1
102
RTVSPropertyOp25
 70
     1
102
RTVSPropertyOp26
 70
     1
102
RTVSPropertyOp27
 70
     1
102
RTVSPropertyOp28
 70
     1
102
RTVSPropertyOp29
 70
     1
102
RTVSPropertyOp30
 70
     1
102
RTVSPropertyOp31
 70
     1
102
RTVSPropertyOp32
 70
     1
102
RTVSPropertyOp33
 70
     1
102
RTVSPropertyOp34
 70
     1
102
RTVSPropertyOp35
 70
     1
102
RTVSPropertyOp36
 70
     1
102
RTVSPropertyOp37
 70
     1
102
RTVSPropertyOp38
 70
     1
102
RTVSPropertyOp39
 70
     1
102
RTVSPropertyOp40
 70
     1
102
RTVSPropertyOp41
 70
     1
102
RTVSPropertyOp42
 70
     1
102
RTVSPropertyOp43
 70
     1
102
RTVSPropertyOp44
 70
     1
102
RTVSPropertyOp45
 70
     1
102
RTVSPropertyOp46
 70
     1
102
RTVSPropertyOp47
 70
     1
102
RTVSPropertyOp48
 70
     1
102
RTVSPropertyOp49
 70
     1
102
RTVSPropertyOp50
 70
     1
102
RTVSPropertyOp51
 70
     0
102
RTVSPropertyOp52
 70
     0
102
RTVSPropertyOp53
 70
     1
102
RTVSPropertyOp54
 70
     1
102
RTVSPropertyOp55
 70
     1
102
RTVSPropertyOp56
 70
     1
102
RTVSPropertyOp57
 70
     1
102
RTVSPost2010Prop28
280
     0
102
RTVSPost2010PropOp28
 70
     1
102
RTVSPost2010Prop29
280
     1
102
RTVSPost2010PropOp29
 70
     1
102
RTVSPost2010Prop30
280
     1
102
RTVSPost2010PropOp30
 70
     1
102
RTVSPost2010Prop31
280
     0
102
RTVSPost2010PropOp31
 70
     1
102
RTVSPost2010Prop32
280
     0
102
RTVSPost2010PropOp32
 70
     1
102
RTVSPost2010Prop33
280
     0
102
RTVSPost2010PropOp33
 70
     1
102
RTVSPost2010Prop34
280
     0
102
RTVSPost2010PropOp34
 70
     1
102
RTVSPost2010Prop35
280
     0
102
RTVSPost2010PropOp35
 70
     1
102
RTVSPost2010Prop36
280
     0
102
RTVSPost2010PropOp36
 70
     1
102
RTVSPost2010Prop37
 90
       50
102
RTVSPost2010PropOp37
 70
     1
102
RTVSPost2010Prop38
140
0.0
102
RTVSPost2010PropOp38
 70
     1
102
RTVSPost2010Prop39
140
1.0
102
RTVSPost2010PropOp39
 70
     1
102
RTVSPost2010Prop40
 90
        0
102
RTVSPost2010PropOp40
 70
     1
102
RTVSPost2010Prop41ColorIndex
 90
       18
102
RTVSPost2010Prop41ColorRGB
 90
        0
102
RTVSPost2010PropOp41
 70
     1
102
RTVSPost2010Prop42
 90
       50
102
RTVSPost2010PropOp42
 70
     1
102
RTVSPost2010Prop43
 90
        3
102
RTVSPost2010PropOp43
 70
     1
102
RTVSPost2010Prop44ColorIndex
 90
        5
102
RTVSPost2010Prop44ColorRGB
 90
      255
102
RTVSPost2010PropOp44
 70
     1
102
RTVSPost2010Prop45
280
     0
102
RTVSPost2010PropOp45
 70
     1
102
RTVSPost2010Prop46
 90
       50
102
RTVSPost2010PropOp46
 70
     1
102
RTVSPost2010Prop47
 90
       50
102
RTVSPost2010PropOp47
 70
     1
102
RTVSPost2010Prop48
 90
       50
102
RTVSPost2010PropOp48
 70
     1
102
RTVSPost2010Prop49
280
     0
102
RTVSPost2010PropOp49
 70
     1
102
RTVSPost2010Prop50
 90
       50
102
RTVSPost2010PropOp50
 70
     1
102
RTVSPost2010Prop51ColorIndex
 90
      256
102
RTVSPost2010Prop51ColorRGB
 90
-16777216
102
RTVSPost2010PropOp51
 70
     0
102
RTVSPost2010Prop52
140
1.0
102
RTVSPost2010PropOp52
 70
     0
102
RTVSPost2010Prop53
 90
        2
102
RTVSPost2010PropOp53
 70
     1
102
RTVSPost2010Prop54
  1
strokes_ogs.tif
102
RTVSPost2010PropOp54
 70
     1
102
RTVSPost2010Prop55
280
     0
102
RTVSPost2010PropOp55
 70
     1
102
RTVSPost2010Prop56
140
1.0
102
RTVSPost2010PropOp56
 70
     1
102
RTVSPost2010Prop57
140
1.0
102
RTVSPost2010PropOp57
 70
     1
  0
ENDSEC
  0
EOF
