  0
SECTION
  2
HEADER
  9
$ACADVER
  1
AC1021
  9
$ACADMAINTVER
 70
    25
  9
$DWGCODEPAGE
  3
ANSI_1252
  9
$INSBASE
 10
0.0
 20
0.0
 30
0.0
  9
$EXTMIN
 10
1.000000000000000E+20
 20
1.000000000000000E+20
 30
1.000000000000000E+20
  9
$EXTMAX
 10
-1.000000000000000E+20
 20
-1.000000000000000E+20
 30
-1.000000000000000E+20
  9
$LIMMIN
 10
0.0
 20
0.0
  9
$LIMMAX
 10
12.0
 20
9.0
  9
$ORTHOMODE
 70
     0
  9
$REGENMODE
 70
     1
  9
$FILLMODE
 70
     1
  9
$QTEXTMODE
 70
     0
  9
$MIRRTEXT
 70
     1
  9
$LTSCALE
 40
137.5
  9
$ATTMODE
 70
     1
  9
$TEXTSIZE
 40
0.2
  9
$TRACEWID
 40
0.05
  9
$TEXTSTYLE
  7
Standard
  9
$CLAYER
  8
FISHER_PAYKEL
  9
$CELTYPE
  6
ByLayer
  9
$CECOLOR
 62
   256
  9
$CELTSCALE
 40
1.0
  9
$DISPSILH
 70
     0
  9
$DIMSCALE
 40
1.0
  9
$DIMASZ
 40
0.18
  9
$DIMEXO
 40
0.0625
  9
$DIMDLI
 40
0.38
  9
$DIMRND
 40
0.0
  9
$DIMDLE
 40
0.0
  9
$DIMEXE
 40
0.18
  9
$DIMTP
 40
0.0
  9
$DIMTM
 40
0.0
  9
$DIMTXT
 40
0.18
  9
$DIMCEN
 40
0.09
  9
$DIMTSZ
 40
0.0
  9
$DIMTOL
 70
     0
  9
$DIMLIM
 70
     0
  9
$DIMTIH
 70
     1
  9
$DIMTOH
 70
     1
  9
$DIMSE1
 70
     0
  9
$DIMSE2
 70
     0
  9
$DIMTAD
 70
     0
  9
$DIMZIN
 70
     0
  9
$DIMBLK
  1

  9
$DIMASO
 70
     1
  9
$DIMSHO
 70
     1
  9
$DIMPOST
  1

  9
$DIMAPOST
  1

  9
$DIMALT
 70
     0
  9
$DIMALTD
 70
     2
  9
$DIMALTF
 40
25.4
  9
$DIMLFAC
 40
1.0
  9
$DIMTOFL
 70
     0
  9
$DIMTVP
 40
0.0
  9
$DIMTIX
 70
     0
  9
$DIMSOXD
 70
     0
  9
$DIMSAH
 70
     0
  9
$DIMBLK1
  1

  9
$DIMBLK2
  1

  9
$DIMSTYLE
  2
STANDARD_ACAD
  9
$DIMCLRD
 70
     0
  9
$DIMCLRE
 70
     0
  9
$DIMCLRT
 70
     0
  9
$DIMTFAC
 40
1.0
  9
$DIMGAP
 40
0.09
  9
$DIMJUST
 70
     0
  9
$DIMSD1
 70
     0
  9
$DIMSD2
 70
     0
  9
$DIMTOLJ
 70
     1
  9
$DIMTZIN
 70
     0
  9
$DIMALTZ
 70
     0
  9
$DIMALTTZ
 70
     0
  9
$DIMUPT
 70
     0
  9
$DIMDEC
 70
     4
  9
$DIMTDEC
 70
     4
  9
$DIMALTU
 70
     2
  9
$DIMALTTD
 70
     2
  9
$DIMTXSTY
  7
Standard
  9
$DIMAUNIT
 70
     0
  9
$DIMADEC
 70
     0
  9
$DIMALTRND
 40
0.0
  9
$DIMAZIN
 70
     0
  9
$DIMDSEP
 70
    46
  9
$DIMATFIT
 70
     3
  9
$DIMFRAC
 70
     0
  9
$DIMLDRBLK
  1

  9
$DIMLUNIT
 70
     2
  9
$DIMLWD
 70
    -2
  9
$DIMLWE
 70
    -2
  9
$DIMTMOVE
 70
     2
  9
$DIMFXL
 40
1.0
  9
$DIMFXLON
 70
     0
  9
$DIMJOGANG
 40
0.7853981633974483
  9
$DIMTFILL
 70
     0
  9
$DIMTFILLCLR
 70
     0
  9
$DIMARCSYM
 70
     0
  9
$DIMLTYPE
  6

  9
$DIMLTEX1
  6

  9
$DIMLTEX2
  6

  9
$LUNITS
 70
     2
  9
$LUPREC
 70
     3
  9
$SKETCHINC
 40
0.1
  9
$FILLETRAD
 40
0.5
  9
$AUNITS
 70
     0
  9
$AUPREC
 70
     0
  9
$MENU
  1
.
  9
$ELEVATION
 40
0.0
  9
$PELEVATION
 40
0.0
  9
$THICKNESS
 40
0.0
  9
$LIMCHECK
 70
     0
  9
$CHAMFERA
 40
0.0
  9
$CHAMFERB
 40
0.0
  9
$CHAMFERC
 40
0.0
  9
$CHAMFERD
 40
0.0
  9
$SKPOLY
 70
     0
  9
$TDCREATE
 40
2460194.465335116
  9
$TDUCREATE
 40
2460193.965335116
  9
$TDUPDATE
 40
2460194.465349224
  9
$TDUUPDATE
 40
2460193.965349224
  9
$TDINDWG
 40
0.0000000116
  9
$TDUSRTIMER
 40
0.0000000116
  9
$USRTIMER
 70
     1
  9
$ANGBASE
 50
0.0
  9
$ANGDIR
 70
     0
  9
$PDMODE
 70
     0
  9
$PDSIZE
 40
0.0
  9
$PLINEWID
 40
0.0
  9
$SPLFRAME
 70
     0
  9
$SPLINETYPE
 70
     6
  9
$SPLINESEGS
 70
     8
  9
$HANDSEED
  5
2F6
  9
$SURFTAB1
 70
     6
  9
$SURFTAB2
 70
     6
  9
$SURFTYPE
 70
     6
  9
$SURFU
 70
     6
  9
$SURFV
 70
     6
  9
$UCSBASE
  2

  9
$UCSNAME
  2

  9
$UCSORG
 10
0.0
 20
0.0
 30
0.0
  9
$UCSXDIR
 10
1.0
 20
0.0
 30
0.0
  9
$UCSYDIR
 10
0.0
 20
1.0
 30
0.0
  9
$UCSORTHOREF
  2

  9
$UCSORTHOVIEW
 70
     0
  9
$UCSORGTOP
 10
0.0
 20
0.0
 30
0.0
  9
$UCSORGBOTTOM
 10
0.0
 20
0.0
 30
0.0
  9
$UCSORGLEFT
 10
0.0
 20
0.0
 30
0.0
  9
$UCSORGRIGHT
 10
0.0
 20
0.0
 30
0.0
  9
$UCSORGFRONT
 10
0.0
 20
0.0
 30
0.0
  9
$UCSORGBACK
 10
0.0
 20
0.0
 30
0.0
  9
$PUCSBASE
  2

  9
$PUCSNAME
  2

  9
$PUCSORG
 10
0.0
 20
0.0
 30
0.0
  9
$PUCSXDIR
 10
1.0
 20
0.0
 30
0.0
  9
$PUCSYDIR
 10
0.0
 20
1.0
 30
0.0
  9
$PUCSORTHOREF
  2

  9
$PUCSORTHOVIEW
 70
     0
  9
$PUCSORGTOP
 10
0.0
 20
0.0
 30
0.0
  9
$PUCSORGBOTTOM
 10
0.0
 20
0.0
 30
0.0
  9
$PUCSORGLEFT
 10
0.0
 20
0.0
 30
0.0
  9
$PUCSORGRIGHT
 10
0.0
 20
0.0
 30
0.0
  9
$PUCSORGFRONT
 10
0.0
 20
0.0
 30
0.0
  9
$PUCSORGBACK
 10
0.0
 20
0.0
 30
0.0
  9
$USERI1
 70
     0
  9
$USERI2
 70
     0
  9
$USERI3
 70
     0
  9
$USERI4
 70
     0
  9
$USERI5
 70
     0
  9
$USERR1
 40
0.0
  9
$USERR2
 40
0.0
  9
$USERR3
 40
0.0
  9
$USERR4
 40
0.0
  9
$USERR5
 40
0.0
  9
$WORLDVIEW
 70
     1
  9
$SHADEDGE
 70
     3
  9
$SHADEDIF
 70
    70
  9
$TILEMODE
 70
     1
  9
$MAXACTVP
 70
    64
  9
$PINSBASE
 10
0.0
 20
0.0
 30
0.0
  9
$PLIMCHECK
 70
     0
  9
$PEXTMIN
 10
1.000000000000000E+20
 20
1.000000000000000E+20
 30
1.000000000000000E+20
  9
$PEXTMAX
 10
-1.000000000000000E+20
 20
-1.000000000000000E+20
 30
-1.000000000000000E+20
  9
$PLIMMIN
 10
0.0
 20
0.0
  9
$PLIMMAX
 10
12.0
 20
9.0
  9
$UNITMODE
 70
     0
  9
$VISRETAIN
 70
     1
  9
$PLINEGEN
 70
     0
  9
$PSLTSCALE
 70
     1
  9
$TREEDEPTH
 70
  3020
  9
$CMLSTYLE
  2
Standard
  9
$CMLJUST
 70
     0
  9
$CMLSCALE
 40
1.0
  9
$PROXYGRAPHICS
 70
     1
  9
$MEASUREMENT
 70
     1
  9
$CELWEIGHT
370
    -1
  9
$ENDCAPS
280
     0
  9
$JOINSTYLE
280
     0
  9
$LWDISPLAY
290
     0
  9
$INSUNITS
 70
     4
  9
$HYPERLINKBASE
  1

  9
$STYLESHEET
  1

  9
$XEDIT
290
     1
  9
$CEPSNTYPE
380
     0
  9
$PSTYLEMODE
290
     1
  9
$FINGERPRINTGUID
  2
{620d7f2f-45af-4a2f-b920-fdb42ce689d6}
  9
$VERSIONGUID
  2
{FAEB1C32-E019-11D5-929B-00C0DF256EC4}
  9
$EXTNAMES
290
     1
  9
$PSVPSCALE
 40
0.0
  9
$OLESTARTUP
290
     0
  9
$SORTENTS
280
   127
  9
$INDEXCTL
280
     0
  9
$HIDETEXT
280
     1
  9
$XCLIPFRAME
290
     0
  9
$HALOGAP
280
     0
  9
$OBSCOLOR
 70
   257
  9
$OBSLTYPE
280
     0
  9
$INTERSECTIONDISPLAY
280
     0
  9
$INTERSECTIONCOLOR
 70
   257
  9
$DIMASSOC
280
     2
  9
$PROJECTNAME
  1

  9
$CAMERADISPLAY
290
     0
  9
$LENSLENGTH
 40
50.0
  9
$CAMERAHEIGHT
 40
0.0
  9
$STEPSPERSEC
 40
2.0
  9
$STEPSIZE
 40
6.0
  9
$3DDWFPREC
 40
2.0
  9
$PSOLWIDTH
 40
0.25
  9
$PSOLHEIGHT
 40
4.0
  9
$LOFTANG1
 40
1.570796326794897
  9
$LOFTANG2
 40
1.570796326794897
  9
$LOFTMAG1
 40
0.0
  9
$LOFTMAG2
 40
0.0
  9
$LOFTPARAM
 70
     7
  9
$LOFTNORMALS
280
     1
  9
$LATITUDE
 40
37.795
  9
$LONGITUDE
 40
-122.394
  9
$NORTHDIRECTION
 40
0.0
  9
$TIMEZONE
 70
 -8000
  9
$LIGHTGLYPHDISPLAY
280
     1
  9
$TILEMODELIGHTSYNCH
280
     1
  9
$CMATERIAL
347
44
  9
$SOLIDHIST
280
     0
  9
$SHOWHIST
280
     1
  9
$DWFFRAME
280
     2
  9
$DGNFRAME
280
     2
  9
$REALWORLDSCALE
290
     1
  9
$INTERFERECOLOR
 62
   256
  9
$CSHADOW
280
     0
  9
$SHADOWPLANELOCATION
 40
0.0
  0
ENDSEC
  0
SECTION
  2
CLASSES
  0
CLASS
  1
ACDBDICTIONARYWDFLT
  2
AcDbDictionaryWithDefault
  3
ObjectDBX Classes
 90
        0
 91
        3
280
     0
281
     0
  0
CLASS
  1
VISUALSTYLE
  2
AcDbVisualStyle
  3
ObjectDBX Classes
 90
     4095
 91
        3
280
     0
281
     0
  0
CLASS
  1
MATERIAL
  2
AcDbMaterial
  3
ObjectDBX Classes
 90
     1153
 91
        3
280
     0
281
     0
  0
CLASS
  1
SCALE
  2
AcDbScale
  3
ObjectDBX Classes
 90
     1153
 91
        3
280
     0
281
     0
  0
CLASS
  1
TABLESTYLE
  2
AcDbTableStyle
  3
ObjectDBX Classes
 90
     4095
 91
        3
280
     0
281
     0
  0
CLASS
  1
MLEADERSTYLE
  2
AcDbMLeaderStyle
  3
ACDB_MLEADERSTYLE_CLASS
 90
     4095
 91
        3
280
     0
281
     0
  0
CLASS
  1
SUN
  2
AcDbSun
  3
SCENEOE
 90
     1153
 91
        3
280
     0
281
     0
  0
CLASS
  1
DICTIONARYVAR
  2
AcDbDictionaryVar
  3
ObjectDBX Classes
 90
        0
 91
        3
280
     0
281
     0
  0
CLASS
  1
CELLSTYLEMAP
  2
AcDbCellStyleMap
  3
ObjectDBX Classes
 90
     1152
 91
        3
280
     0
281
     0
  0
ENDSEC
  0
SECTION
  2
TABLES
  0
TABLE
  2
VPORT
  5
8
330
0
100
AcDbSymbolTable
 70
     1
  0
VPORT
  5
29
330
8
100
AcDbSymbolTableRecord
100
AcDbViewportTableRecord
  2
*Active
 70
     0
 10
0.0
 20
0.0
 11
1.0
 21
1.0
 12
10.42990654205607
 22
4.5
 13
0.0
 23
0.0
 14
0.5
 24
0.5
 15
0.5
 25
0.5
 16
0.0
 26
0.0
 36
1.0
 17
0.0
 27
0.0
 37
0.0
 40
9.0
 41
1.972972972850329
 42
50.0
 43
0.0
 44
0.0
 50
0.0
 51
0.0
 71
     0
 72
   100
 73
     1
 74
     3
 75
     0
 76
     0
 77
     0
 78
     0
281
     0
 65
     1
110
0.0
120
0.0
130
0.0
111
1.0
121
0.0
131
0.0
112
0.0
122
1.0
132
0.0
 79
     0
146
0.0
348
2F
 60
     3
 61
     5
292
     1
282
     1
141
0.0
142
0.0
 63
   250
361
6D
  0
ENDTAB
  0
TABLE
  2
LTYPE
  5
5
330
0
100
AcDbSymbolTable
 70
     1
  0
LTYPE
  5
14
330
5
100
AcDbSymbolTableRecord
100
AcDbLinetypeTableRecord
  2
ByBlock
 70
     0
  3

 72
    65
 73
     0
 40
0.0
  0
LTYPE
  5
15
330
5
100
AcDbSymbolTableRecord
100
AcDbLinetypeTableRecord
  2
ByLayer
 70
     0
  3

 72
    65
 73
     0
 40
0.0
  0
LTYPE
  5
16
330
5
100
AcDbSymbolTableRecord
100
AcDbLinetypeTableRecord
  2
Continuous
 70
     0
  3
Solid line
 72
    65
 73
     0
 40
0.0
  0
ENDTAB
  0
TABLE
  2
LAYER
  5
2
330
0
100
AcDbSymbolTable
 70
     2
  0
LAYER
  5
10
330
2
100
AcDbSymbolTableRecord
100
AcDbLayerTableRecord
  2
0
 70
     0
 62
    18
420
        0
  6
Continuous
370
    -3
390
F
347
46
  0
LAYER
  5
6E
330
2
100
AcDbSymbolTableRecord
100
AcDbLayerTableRecord
  2
FISHER_PAYKEL
 70
     0
 62
    18
420
        0
  6
Continuous
370
    -3
390
F
347
46
  0
ENDTAB
  0
TABLE
  2
STYLE
  5
3
330
0
100
AcDbSymbolTable
 70
     1
  0
STYLE
  5
11
330
3
100
AcDbSymbolTableRecord
100
AcDbTextStyleTableRecord
  2
Standard
 70
     0
 40
0.0
 41
1.0
 50
0.0
 71
     0
 42
0.2
  3
txt
  4

  0
ENDTAB
  0
TABLE
  2
VIEW
  5
6
330
0
100
AcDbSymbolTable
 70
     0
  0
ENDTAB
  0
TABLE
  2
UCS
  5
7
330
0
100
AcDbSymbolTable
 70
     0
  0
ENDTAB
  0
TABLE
  2
APPID
  5
9
330
0
100
AcDbSymbolTable
 70
     2
  0
APPID
  5
12
330
9
100
AcDbSymbolTableRecord
100
AcDbRegAppTableRecord
  2
ACAD
 70
     0
  0
APPID
  5
2EE
330
9
100
AcDbSymbolTableRecord
100
AcDbRegAppTableRecord
  2
ACAD_MLEADERVER
 70
     0
  0
ENDTAB
  0
TABLE
  2
DIMSTYLE
  5
A
330
0
100
AcDbSymbolTable
 70
     1
100
AcDbDimStyleTable
  0
DIMSTYLE
105
27
330
A
100
AcDbSymbolTableRecord
100
AcDbDimStyleTableRecord
  2
STANDARD_ACAD
 70
     0
178
     0
340
11
  0
ENDTAB
  0
TABLE
  2
BLOCK_RECORD
  5
1
330
0
100
AcDbSymbolTable
 70
     2
  0
BLOCK_RECORD
  5
1F
330
1
100
AcDbSymbolTableRecord
100
AcDbBlockTableRecord
  2
*Model_Space
340
22
 70
     0
280
     1
281
     0
  0
BLOCK_RECORD
  5
1B
330
1
100
AcDbSymbolTableRecord
100
AcDbBlockTableRecord
  2
*Paper_Space
340
1E
 70
     0
280
     1
281
     0
  0
BLOCK_RECORD
  5
23
330
1
100
AcDbSymbolTableRecord
100
AcDbBlockTableRecord
  2
*Paper_Space0
340
26
 70
     0
280
     1
281
     0
  0
BLOCK_RECORD
  5
2B1
330
1
100
AcDbSymbolTableRecord
100
AcDbBlockTableRecord
  2
_FILLED
340
0
 70
     0
280
     1
281
     0
  0
ENDTAB
  0
ENDSEC
  0
SECTION
  2
BLOCKS
  0
BLOCK
  5
20
330
1F
100
AcDbEntity
  8
0
100
AcDbBlockBegin
  2
*Model_Space
 70
     0
 10
0.0
 20
0.0
 30
0.0
  3
*Model_Space
  1

  0
ENDBLK
  5
21
330
1F
100
AcDbEntity
  8
0
100
AcDbBlockEnd
  0
BLOCK
  5
1C
330
1B
100
AcDbEntity
 67
     1
  8
0
100
AcDbBlockBegin
  2
*Paper_Space
 70
     0
 10
0.0
 20
0.0
 30
0.0
  3
*Paper_Space
  1

  0
ENDBLK
  5
1D
330
1B
100
AcDbEntity
 67
     1
  8
0
100
AcDbBlockEnd
  0
BLOCK
  5
24
330
23
100
AcDbEntity
  8
0
100
AcDbBlockBegin
  2
*Paper_Space0
 70
     0
 10
0.0
 20
0.0
 30
0.0
  3
*Paper_Space0
  1

  0
ENDBLK
  5
25
330
23
100
AcDbEntity
  8
0
100
AcDbBlockEnd
  0
BLOCK
  5
2B7
330
2B1
100
AcDbEntity
  8
0
100
AcDbBlockBegin
  2
_FILLED
 70
     0
 10
0.0
 20
0.0
 30
0.0
  3
_FILLED
  1

  0
LINE
  5
2B2
330
2B1
100
AcDbEntity
  8
0
  6
ByBlock
 62
     0
370
    -2
100
AcDbLine
 10
0.0
 20
0.0
 30
0.0
 11
-1.0
 21
0.125
 31
0.0
  0
LINE
  5
2B3
330
2B1
100
AcDbEntity
  8
0
  6
ByBlock
 62
     0
370
    -2
100
AcDbLine
 10
-1.0
 20
0.125
 30
0.0
 11
-1.0
 21
-0.125
 31
0.0
  0
LINE
  5
2B4
330
2B1
100
AcDbEntity
  8
0
  6
ByBlock
 62
     0
370
    -2
100
AcDbLine
 10
-1.0
 20
-0.125
 30
0.0
 11
0.0
 21
0.0
 31
0.0
  0
LINE
  5
2B5
330
2B1
100
AcDbEntity
  8
0
  6
ByBlock
 62
     0
370
    -2
100
AcDbLine
 10
-0.5000000000000001
 20
-0.0625
 30
0.0
 11
-1.0
 21
0.0
 31
0.0
  0
LINE
  5
2B6
330
2B1
100
AcDbEntity
  8
0
  6
ByBlock
 62
     0
370
    -2
100
AcDbLine
 10
-0.5000000000000001
 20
0.0625
 30
0.0
 11
-0.515873015873016
 21
-0.064484126984127
 31
0.0
  0
ENDBLK
  5
2B8
330
2B1
100
AcDbEntity
  8
0
100
AcDbBlockEnd
  0
ENDSEC
  0
SECTION
  2
ENTITIES
  0
POLYLINE
  5
6F
330
1F
100
AcDbEntity
  8
FISHER_PAYKEL
 62
     5
420
      255
100
AcDb2dPolyline
 66
     1
 10
0.0
 20
0.0
 30
0.0
  0
VERTEX
  5
70
330
6F
100
AcDbEntity
  8
FISHER_PAYKEL
 62
     5
420
      255
100
AcDbVertex
100
AcDb2dVertex
 10
109.9418757511999
 20
283.7283016566
 30
0.0
  0
VERTEX
  5
71
330
6F
100
AcDbEntity
  8
FISHER_PAYKEL
 62
     5
420
      255
100
AcDbVertex
100
AcDb2dVertex
 10
2457.017418581703
 20
283.7283016566
 30
0.0
  0
SEQEND
  5
72
330
6F
100
AcDbEntity
  8
FISHER_PAYKEL
 62
     5
420
      255
  0
LINE
  5
73
330
1F
100
AcDbEntity
  8
FISHER_PAYKEL
 62
   250
420
  1316376
370
     9
100
AcDbLine
 10
261.7054295364254
 20
-204.5335387915522
 30
0.0
 11
262.4956644205163
 21
-203.7503595760691
 31
0.0
  0
SPLINE
  5
74
330
1F
100
AcDbEntity
  8
FISHER_PAYKEL
 62
   250
420
  1316376
370
     9
100
AcDbSpline
210
0.0
220
0.0
230
1.0
 70
     8
 71
     3
 72
     8
 73
     4
 74
     0
 42
0.000000001
 43
0.0000000001
 40
0.3153727952756245
 40
0.3153727952756245
 40
0.3153727952756245
 40
0.3153727952756245
 40
1.315372795275624
 40
1.315372795275624
 40
1.315372795275624
 40
1.315372795275624
 10
262.4956644205163
 20
-203.7503595760691
 30
0.0
 10
263.8432971246358
 20
-205.0838809429727
 30
0.0
 10
265.402599886994
 20
-205.9305611759273
 30
0.0
 10
266.9830696551761
 20
-205.9305611759273
 30
0.0
  0
SPLINE
  5
75
330
1F
100
AcDbEntity
  8
FISHER_PAYKEL
 62
   250
420
  1316376
370
     9
100
AcDbSpline
210
0.0
220
0.0
230
1.0
 70
     8
 71
     3
 72
     8
 73
     4
 74
     0
 42
0.000000001
 43
0.0000000001
 40
1.315372795275624
 40
1.315372795275624
 40
1.315372795275624
 40
1.315372795275624
 40
2.315372795275624
 40
2.315372795275624
 40
2.315372795275624
 40
2.315372795275624
 10
266.9830696551761
 20
-205.9305611759273
 30
0.0
 10
269.3573021417532
 20
-205.9305611759273
 30
0.0
 10
271.0012729274068
 20
-204.2795347216656
 30
0.0
 10
271.0012729274068
 20
-202.2086959852309
 30
0.0
  0
LINE
  5
76
330
1F
100
AcDbEntity
  8
FISHER_PAYKEL
 62
   250
420
  1316376
370
     9
100
AcDbLine
 10
271.0012729274068
 20
-202.2086959852309
 30
0.0
 11
271.0012729274068
 21
-202.1628341392789
 31
0.0
  0
SPLINE
  5
77
330
1F
100
AcDbEntity
  8
FISHER_PAYKEL
 62
   250
420
  1316376
370
     9
100
AcDbSpline
210
0.0
220
0.0
230
1.0
 70
     8
 71
     3
 72
     8
 73
     4
 74
     0
 42
0.000000001
 43
0.0000000001
 40
2.328372795275658
 40
2.328372795275658
 40
2.328372795275658
 40
2.328372795275658
 40
3.328372795275658
 40
3.328372795275658
 40
3.328372795275658
 40
3.328372795275658
 10
271.0012729274068
 20
-202.1628341392789
 30
0.0
 10
271.0012729274068
 20
-200.1131624086679
 30
0.0
 10
269.3149681301055
 20
-198.6526390068211
 30
0.0
 10
266.8984016318807
 20
-198.6526390068211
 30
0.0
  0
SPLINE
  5
78
330
1F
100
AcDbEntity
  8
FISHER_PAYKEL
 62
   250
420
  1316376
370
     9
100
AcDbSpline
210
0.0
220
0.0
230
1.0
 70
     8
 71
     3
 72
     8
 73
     4
 74
     0
 42
0.000000001
 43
0.0000000001
 40
3.328372795275658
 40
3.328372795275658
 40
3.328372795275658
 40
3.328372795275658
 40
4.328372795275659
 40
4.328372795275659
 40
4.328372795275659
 40
4.328372795275659
 10
266.8984016318807
 20
-198.6526390068211
 30
0.0
 10
265.5084349161134
 20
-198.6526390068211
 30
0.0
 10
264.4641959621359
 20
-199.0759791232983
 30
0.0
 10
263.5222642029737
 20
-199.5875150973752
 30
0.0
  0
LINE
  5
79
330
1F
100
AcDbEntity
  8
FISHER_PAYKEL
 62
   250
420
  1316376
370
     9
100
AcDbLine
 10
263.5222642029737
 20
-199.5875150973752
 30
0.0
 11
262.6650004671071
 21
-199.0336451116507
 31
0.0
  0
LINE
  5
7A
330
1F
100
AcDbEntity
  8
FISHER_PAYKEL
 62
   250
420
  1316376
370
     9
100
AcDbLine
 10
262.6650004671071
 20
-199.0336451116507
 30
0.0
 11
263.0953962521926
 21
-191.8615579716638
 31
0.0
  0
LINE
  5
7B
330
1F
100
AcDbEntity
  8
FISHER_PAYKEL
 62
   250
420
  1316376
370
     9
100
AcDbLine
 10
263.0953962521926
 20
-191.8615579716638
 30
0.0
 11
271.4916418956599
 21
-191.8615579716638
 31
0.0
  0
LINE
  5
7C
330
1F
100
AcDbEntity
  8
FISHER_PAYKEL
 62
   250
420
  1316376
370
     9
100
AcDbLine
 10
271.4916418956599
 20
-191.8615579716638
 30
0.0
 11
271.4916418956599
 21
-192.9199082628572
 31
0.0
  0
LINE
  5
7D
330
1F
100
AcDbEntity
  8
FISHER_PAYKEL
 62
   250
420
  1316376
370
     9
100
AcDbLine
 10
271.4916418956599
 20
-192.9199082628572
 30
0.0
 11
264.0761341886983
 21
-192.9199082628572
 31
0.0
  0
LINE
  5
7E
330
1F
100
AcDbEntity
  8
FISHER_PAYKEL
 62
   250
420
  1316376
370
     9
100
AcDbLine
 10
264.0761341886983
 20
-192.9199082628572
 30
0.0
 11
263.7127672553886
 21
-198.4621359544062
 31
0.0
  0
SPLINE
  5
7F
330
1F
100
AcDbEntity
  8
FISHER_PAYKEL
 62
   250
420
  1316376
370
     9
100
AcDbSpline
210
0.0
220
0.0
230
1.0
 70
     8
 71
     3
 72
     8
 73
     4
 74
     0
 42
0.000000001
 43
0.0000000001
 40
13.01070906300447
 40
13.01070906300447
 40
13.01070906300447
 40
13.01070906300447
 40
14.01070906300447
 40
14.01070906300447
 40
14.01070906300447
 40
14.01070906300447
 10
263.7127672553886
 20
-198.4621359544062
 30
0.0
 10
264.6758660203747
 20
-197.9964618262811
 30
0.0
 10
265.6389647853605
 20
-197.6577897330992
 30
0.0
 10
267.0254036668239
 20
-197.6577897330992
 30
0.0
  0
SPLINE
  5
80
330
1F
100
AcDbEntity
  8
FISHER_PAYKEL
 62
   250
420
  1316376
370
     9
100
AcDbSpline
210
0.0
220
0.0
230
1.0
 70
     8
 71
     3
 72
     8
 73
     4
 74
     0
 42
0.000000001
 43
0.0000000001
 40
14.01070906300447
 40
14.01070906300447
 40
14.01070906300447
 40
14.01070906300447
 40
15.01070906300447
 40
15.01070906300447
 40
15.01070906300447
 40
15.01070906300447
 10
267.0254036668239
 20
-197.6577897330992
 30
0.0
 10
269.9111721274777
 20
-197.6577897330992
 30
0.0
 10
272.1548747448076
 20
-199.478152233952
 30
0.0
 10
272.1548747448076
 20
-202.1205001276312
 30
0.0
  0
LINE
  5
81
330
1F
100
AcDbEntity
  8
FISHER_PAYKEL
 62
   250
420
  1316376
370
     9
100
AcDbLine
 10
272.1548747448076
 20
-202.1205001276312
 30
0.0
 11
272.1548747448076
 21
-202.1628341392789
 31
0.0
  0
SPLINE
  5
82
330
1F
100
AcDbEntity
  8
FISHER_PAYKEL
 62
   250
420
  1316376
370
     9
100
AcDbSpline
210
0.0
220
0.0
230
1.0
 70
     8
 71
     3
 72
     8
 73
     4
 74
     0
 42
0.000000001
 43
0.0000000001
 40
15.02270906300447
 40
15.02270906300447
 40
15.02270906300447
 40
15.02270906300447
 40
16.02270906300447
 40
16.02270906300447
 40
16.02270906300447
 40
16.02270906300447
 10
272.1548747448076
 20
-202.1628341392789
 30
0.0
 10
272.1548747448076
 20
-204.9568789080295
 30
0.0
 10
269.9535061391254
 20
-206.925410449649
 30
0.0
 10
266.9407356435285
 20
-206.925410449649
 30
0.0
  0
SPLINE
  5
83
330
1F
100
AcDbEntity
  8
FISHER_PAYKEL
 62
   250
420
  1316376
370
     9
100
AcDbSpline
210
0.0
220
0.0
230
1.0
 70
     8
 71
     3
 72
     8
 73
     4
 74
     0
 42
0.000000001
 43
0.0000000001
 40
16.02270906300447
 40
16.02270906300447
 40
16.02270906300447
 40
16.02270906300447
 40
17.02270906300447
 40
17.02270906300447
 40
17.02270906300447
 40
17.02270906300447
 10
266.9407356435285
 20
-206.925410449649
 30
0.0
 10
264.9122314023742
 20
-206.925410449649
 30
0.0
 10
263.0107291356043
 20
-205.8458936673858
 30
0.0
 10
261.7054295364254
 20
-204.5335387915522
 30
0.0
  0
POLYLINE
  5
84
330
1F
100
AcDbEntity
  8
FISHER_PAYKEL
 62
   250
420
  1316376
370
     9
100
AcDb2dPolyline
 66
     1
 10
0.0
 20
0.0
 30
0.0
 70
     1
  0
VERTEX
  5
85
330
84
100
AcDbEntity
  8
FISHER_PAYKEL
 62
   250
420
  1316376
370
     9
100
AcDbVertex
100
AcDb2dVertex
 10
386.6281589408628
 20
-192.8990940404635
 30
0.0
  0
VERTEX
  5
86
330
84
100
AcDbEntity
  8
FISHER_PAYKEL
 62
   250
420
  1316376
370
     9
100
AcDbVertex
100
AcDb2dVertex
 10
383.7423904802091
 20
-193.8727763083614
 30
0.0
  0
VERTEX
  5
87
330
84
100
AcDbEntity
  8
FISHER_PAYKEL
 62
   250
420
  1316376
370
     9
100
AcDbVertex
100
AcDb2dVertex
 10
383.442524564371
 20
-193.0049290695827
 30
0.0
  0
VERTEX
  5
88
330
84
100
AcDbEntity
  8
FISHER_PAYKEL
 62
   250
420
  1316376
370
     9
100
AcDbVertex
100
AcDb2dVertex
 10
386.8609960049254
 20
-191.7560757259746
 30
0.0
  0
VERTEX
  5
89
330
84
100
AcDbEntity
  8
FISHER_PAYKEL
 62
   250
420
  1316376
370
     9
100
AcDbVertex
100
AcDb2dVertex
 10
387.7182597407923
 20
-191.7560757259746
 30
0.0
  0
VERTEX
  5
8A
330
84
100
AcDbEntity
  8
FISHER_PAYKEL
 62
   250
420
  1316376
370
     9
100
AcDbVertex
100
AcDb2dVertex
 10
387.7182597407923
 20
-206.6682313288891
 30
0.0
  0
VERTEX
  5
8B
330
84
100
AcDbEntity
  8
FISHER_PAYKEL
 62
   250
420
  1316376
370
     9
100
AcDbVertex
100
AcDb2dVertex
 10
386.6281589408629
 20
-206.6682313288891
 30
0.0
  0
SEQEND
  5
8C
330
84
100
AcDbEntity
  8
FISHER_PAYKEL
 62
   250
420
  1316376
370
     9
  0
LINE
  5
8D
330
1F
100
AcDbEntity
  8
FISHER_PAYKEL
 62
   250
420
  1316376
370
     9
100
AcDbLine
 10
391.320531348584
 20
-199.3105801045128
 30
0.0
 11
391.320531348584
 21
-199.2647182585613
 31
0.0
  0
SPLINE
  5
8E
330
1F
100
AcDbEntity
  8
FISHER_PAYKEL
 62
   250
420
  1316376
370
     9
100
AcDbSpline
210
0.0
220
0.0
230
1.0
 70
     8
 71
     3
 72
     8
 73
     4
 74
     0
 42
0.000000001
 43
0.0000000001
 40
2.012999999999977
 40
2.012999999999977
 40
2.012999999999977
 40
2.012999999999977
 40
3.012999999999977
 40
3.012999999999977
 40
3.012999999999977
 40
3.012999999999977
 10
391.320531348584
 20
-199.2647182585613
 30
0.0
 10
391.320531348584
 20
-195.1830139688589
 30
0.0
 10
393.7370978468088
 20
-191.6057899846253
 30
0.0
 10
397.5436310608009
 20
-191.6057899846253
 30
0.0
  0
SPLINE
  5
8F
330
1F
100
AcDbEntity
  8
FISHER_PAYKEL
 62
   250
420
  1316376
370
     9
100
AcDbSpline
210
0.0
220
0.0
230
1.0
 70
     8
 71
     3
 72
     8
 73
     4
 74
     0
 42
0.000000001
 43
0.0000000001
 40
3.012999999999977
 40
3.012999999999977
 40
3.012999999999977
 40
3.012999999999977
 40
4.012999999999977
 40
4.012999999999977
 40
4.012999999999977
 40
4.012999999999977
 10
397.5436310608009
 20
-191.6057899846253
 30
0.0
 10
401.346636440489
 20
-191.6057899846253
 30
0.0
 10
403.7173410927621
 20
-195.1406799572112
 30
0.0
 10
403.7173410927621
 20
-199.2259120812175
 30
0.0
  0
LINE
  5
90
330
1F
100
AcDbEntity
  8
FISHER_PAYKEL
 62
   250
420
  1316376
370
     9
100
AcDbLine
 10
403.7173410927621
 20
-199.2259120812175
 30
0.0
 11
403.7173410927621
 21
-199.2647182585613
 31
0.0
  0
SPLINE
  5
91
330
1F
100
AcDbEntity
  8
FISHER_PAYKEL
 62
   250
420
  1316376
370
     9
100
AcDbSpline
210
0.0
220
0.0
230
1.0
 70
     8
 71
     3
 72
     8
 73
     4
 74
     0
 42
0.000000001
 43
0.0000000001
 40
4.024000000000001
 40
4.024000000000001
 40
4.024000000000001
 40
4.024000000000001
 40
5.024000000000001
 40
5.024000000000001
 40
5.024000000000001
 40
5.024000000000001
 10
403.7173410927621
 20
-199.2647182585613
 30
0.0
 10
403.7173410927621
 20
-203.3499503825674
 30
0.0
 10
401.3043024288413
 20
-206.9236465324971
 30
0.0
 10
397.4977692148493
 20
-206.9236465324971
 30
0.0
  0
SPLINE
  5
92
330
1F
100
AcDbEntity
  8
FISHER_PAYKEL
 62
   250
420
  1316376
370
     9
100
AcDbSpline
210
0.0
220
0.0
230
1.0
 70
     8
 71
     3
 72
     8
 73
     4
 74
     0
 42
0.000000001
 43
0.0000000001
 40
5.024000000000001
 40
5.024000000000001
 40
5.024000000000001
 40
5.024000000000001
 40
6.024000000000001
 40
6.024000000000001
 40
6.024000000000001
 40
6.024000000000001
 10
397.4977692148493
 20
-206.9236465324971
 30
0.0
 10
393.6947638351611
 20
-206.9236465324971
 30
0.0
 10
391.320531348584
 20
-203.3922843942153
 30
0.0
 10
391.320531348584
 20
-199.3105801045128
 30
0.0
  0
LINE
  5
93
330
1F
100
AcDbEntity
  8
FISHER_PAYKEL
 62
   250
420
  1316376
370
     9
100
AcDbLine
 10
402.5637392753615
 20
-199.3105801045128
 30
0.0
 11
402.5637392753615
 21
-199.2647182585613
 31
0.0
  0
SPLINE
  5
94
330
1F
100
AcDbEntity
  8
FISHER_PAYKEL
 62
   250
420
  1316376
370
     9
100
AcDbSpline
210
0.0
220
0.0
230
1.0
 70
     8
 71
     3
 72
     8
 73
     4
 74
     0
 42
0.000000001
 43
0.0000000001
 40
0.0129999999999768
 40
0.0129999999999768
 40
0.0129999999999768
 40
0.0129999999999768
 40
1.012999999999977
 40
1.012999999999977
 40
1.012999999999977
 40
1.012999999999977
 10
402.5637392753615
 20
-199.2647182585613
 30
0.0
 10
402.5637392753615
 20
-195.8180241435748
 30
0.0
 10
400.5987355680458
 20
-192.6041670926509
 30
0.0
 10
397.4977692148493
 20
-192.6041670926509
 30
0.0
  0
SPLINE
  5
95
330
1F
100
AcDbEntity
  8
FISHER_PAYKEL
 62
   250
420
  1316376
370
     9
100
AcDbSpline
210
0.0
220
0.0
230
1.0
 70
     8
 71
     3
 72
     8
 73
     4
 74
     0
 42
0.000000001
 43
0.0000000001
 40
1.012999999999977
 40
1.012999999999977
 40
1.012999999999977
 40
1.012999999999977
 40
2.012999999999977
 40
2.012999999999977
 40
2.012999999999977
 40
2.012999999999977
 10
397.4977692148493
 20
-192.6041670926509
 30
0.0
 10
394.4003306959567
 20
-192.6041670926509
 30
0.0
 10
392.4776610002889
 20
-195.7756901319269
 30
0.0
 10
392.4776610002889
 20
-199.2259120812175
 30
0.0
  0
LINE
  5
96
330
1F
100
AcDbEntity
  8
FISHER_PAYKEL
 62
   250
420
  1316376
370
     9
100
AcDbLine
 10
392.4776610002889
 20
-199.2259120812175
 30
0.0
 11
392.4776610002889
 21
-199.2647182585613
 31
0.0
  0
SPLINE
  5
97
330
1F
100
AcDbEntity
  8
FISHER_PAYKEL
 62
   250
420
  1316376
370
     9
100
AcDbSpline
210
0.0
220
0.0
230
1.0
 70
     8
 71
     3
 72
     8
 73
     4
 74
     0
 42
0.000000001
 43
0.0000000001
 40
2.024000000000001
 40
2.024000000000001
 40
2.024000000000001
 40
2.024000000000001
 40
3.024000000000001
 40
3.024000000000001
 40
3.024000000000001
 40
3.024000000000001
 10
392.4776610002889
 20
-199.2647182585613
 30
0.0
 10
392.4776610002889
 20
-202.6937732020276
 30
0.0
 10
394.4426647076044
 20
-205.9323250930795
 30
0.0
 10
397.5436310608009
 20
-205.9323250930795
 30
0.0
  0
SPLINE
  5
98
330
1F
100
AcDbEntity
  8
FISHER_PAYKEL
 62
   250
420
  1316376
370
     9
100
AcDbSpline
210
0.0
220
0.0
230
1.0
 70
     8
 71
     3
 72
     8
 73
     4
 74
     0
 42
0.000000001
 43
0.0000000001
 40
3.024000000000001
 40
3.024000000000001
 40
3.024000000000001
 40
3.024000000000001
 40
4.024000000000001
 40
4.024000000000001
 40
4.024000000000001
 40
4.024000000000001
 10
397.5436310608009
 20
-205.9323250930795
 30
0.0
 10
400.6410695796934
 20
-205.9323250930795
 30
0.0
 10
402.5637392753615
 20
-202.7361072136755
 30
0.0
 10
402.5637392753615
 20
-199.3105801045128
 30
0.0
  0
LINE
  5
99
330
1F
100
AcDbEntity
  8
FISHER_PAYKEL
 62
   250
420
  1316376
370
     9
100
AcDbLine
 10
635.1115209249729
 20
-205.8462459360624
 30
0.0
 11
640.6890269595622
 21
-200.8543603959333
 31
0.0
  0
SPLINE
  5
9A
330
1F
100
AcDbEntity
  8
FISHER_PAYKEL
 62
   250
420
  1316376
370
     9
100
AcDbSpline
210
0.0
220
0.0
230
1.0
 70
     8
 71
     3
 72
     8
 73
     4
 74
     0
 42
0.000000001
 43
0.0000000001
 40
2.121741266036095
 40
2.121741266036095
 40
2.121741266036095
 40
2.121741266036095
 40
3.121741266036095
 40
3.121741266036095
 40
3.121741266036095
 40
3.121741266036095
 10
640.6890269595622
 20
-200.8543603959333
 30
0.0
 10
643.1443996351304
 20
-198.6318247844274
 30
0.0
 10
644.001663370997
 20
-197.3618044349955
 30
0.0
 10
644.001663370997
 20
-195.7954460040294
 30
0.0
  0
SPLINE
  5
9B
330
1F
100
AcDbEntity
  8
FISHER_PAYKEL
 62
   250
420
  1316376
370
     9
100
AcDbSpline
210
0.0
220
0.0
230
1.0
 70
     8
 71
     3
 72
     8
 73
     4
 74
     0
 42
0.000000001
 43
0.0000000001
 40
3.121741266036095
 40
3.121741266036095
 40
3.121741266036095
 40
3.121741266036095
 40
4.121741266036095
 40
4.121741266036095
 40
4.121741266036095
 40
4.121741266036095
 10
644.001663370997
 20
-195.7954460040294
 30
0.0
 10
644.001663370997
 20
-193.8727763083614
 30
0.0
 10
642.4176657685111
 20
-192.6239229647533
 30
0.0
 10
640.6219981077863
 20
-192.6239229647533
 30
0.0
  0
SPLINE
  5
9C
330
1F
100
AcDbEntity
  8
FISHER_PAYKEL
 62
   250
420
  1316376
370
     9
100
AcDbSpline
210
0.0
220
0.0
230
1.0
 70
     8
 71
     3
 72
     8
 73
     4
 74
     0
 42
0.000000001
 43
0.0000000001
 40
4.121741266036095
 40
4.121741266036095
 40
4.121741266036095
 40
4.121741266036095
 40
5.121741266036095
 40
5.121741266036095
 40
5.121741266036095
 40
5.121741266036095
 10
640.6219981077863
 20
-192.6239229647533
 30
0.0
 10
638.7204954179424
 20
-192.6239229647533
 30
0.0
 10
637.4857534115499
 20
-193.5976052326512
 30
0.0
 10
636.2439557365499
 20
-195.375633721856
 30
0.0
  0
LINE
  5
9D
330
1F
100
AcDbEntity
  8
FISHER_PAYKEL
 62
   250
420
  1316376
370
     9
100
AcDbLine
 10
636.2439557365499
 20
-195.375633721856
 30
0.0
 11
635.4113868408108
 21
-194.8252915704354
 31
0.0
  0
SPLINE
  5
9E
330
1F
100
AcDbEntity
  8
FISHER_PAYKEL
 62
   250
420
  1316376
370
     9
100
AcDbSpline
210
0.0
220
0.0
230
1.0
 70
     8
 71
     3
 72
     8
 73
     4
 74
     0
 42
0.000000001
 43
0.0000000001
 40
5.404640541397528
 40
5.404640541397528
 40
5.404640541397528
 40
5.404640541397528
 40
6.404640541397528
 40
6.404640541397528
 40
6.404640541397528
 40
6.404640541397528
 10
635.4113868408108
 20
-194.8252915704354
 30
0.0
 10
636.7131576989789
 20
-192.8567600288156
 30
0.0
 10
638.1031244147462
 20
-191.6537685311594
 30
0.0
 10
640.7313609712096
 20
-191.6537685311594
 30
0.0
  0
SPLINE
  5
9F
330
1F
100
AcDbEntity
  8
FISHER_PAYKEL
 62
   250
420
  1316376
370
     9
100
AcDbSpline
210
0.0
220
0.0
230
1.0
 70
     8
 71
     3
 72
     8
 73
     4
 74
     0
 42
0.000000001
 43
0.0000000001
 40
6.404640541397528
 40
6.404640541397528
 40
6.404640541397528
 40
6.404640541397528
 40
7.404640541397528
 40
7.404640541397528
 40
7.404640541397528
 40
7.404640541397528
 10
640.7313609712096
 20
-191.6537685311594
 30
0.0
 10
643.2714016700736
 20
-191.6537685311594
 30
0.0
 10
645.1764321942217
 20
-193.4071021802363
 30
0.0
 10
645.1764321942217
 20
-195.714305815038
 30
0.0
  0
LINE
  5
A0
330
1F
100
AcDbEntity
  8
FISHER_PAYKEL
 62
   250
420
  1316376
370
     9
100
AcDbLine
 10
645.1764321942217
 20
-195.714305815038
 30
0.0
 11
645.1764321942217
 21
-195.7566398266856
 31
0.0
  0
SPLINE
  5
A1
330
1F
100
AcDbEntity
  8
FISHER_PAYKEL
 62
   250
420
  1316376
370
     9
100
AcDbSpline
210
0.0
220
0.0
230
1.0
 70
     8
 71
     3
 72
     8
 73
     4
 74
     0
 42
0.000000001
 43
0.0000000001
 40
7.416640541397529
 40
7.416640541397529
 40
7.416640541397529
 40
7.416640541397529
 40
8.416640541397529
 40
8.416640541397529
 40
8.416640541397529
 40
8.416640541397529
 10
645.1764321942217
 20
-195.7566398266856
 30
0.0
 10
645.1764321942217
 20
-197.7886723857769
 30
0.0
 10
644.0651643884687
 20
-199.1398329242004
 30
0.0
 10
641.4369278320053
 20
-201.5105375764736
 30
0.0
  0
LINE
  5
A2
330
1F
100
AcDbEntity
  8
FISHER_PAYKEL
 62
   250
420
  1316376
370
     9
100
AcDbLine
 10
641.4369278320053
 20
-201.5105375764736
 30
0.0
 11
636.86485457405
 21
-205.6169367063037
 31
0.0
  0
LINE
  5
A3
330
1F
100
AcDbEntity
  8
FISHER_PAYKEL
 62
   250
420
  1316376
370
     9
100
AcDbLine
 10
636.86485457405
 20
-205.6169367063037
 30
0.0
 11
645.3281290692928
 21
-205.6169367063037
 31
0.0
  0
LINE
  5
A4
330
1F
100
AcDbEntity
  8
FISHER_PAYKEL
 62
   250
420
  1316376
370
     9
100
AcDbLine
 10
645.3281290692928
 20
-205.6169367063037
 30
0.0
 11
645.3281290692928
 21
-206.6682313288891
 31
0.0
  0
LINE
  5
A5
330
1F
100
AcDbEntity
  8
FISHER_PAYKEL
 62
   250
420
  1316376
370
     9
100
AcDbLine
 10
645.3281290692928
 20
-206.6682313288891
 30
0.0
 11
635.1115209249729
 21
-206.6682313288891
 31
0.0
  0
LINE
  5
A6
330
1F
100
AcDbEntity
  8
FISHER_PAYKEL
 62
   250
420
  1316376
370
     9
100
AcDbLine
 10
635.1115209249729
 20
-206.6682313288891
 30
0.0
 11
635.1115209249729
 21
-205.8462459360624
 31
0.0
  0
LINE
  5
A7
330
1F
100
AcDbEntity
  8
FISHER_PAYKEL
 62
   250
420
  1316376
370
     9
100
AcDbLine
 10
648.0463254005076
 20
-199.3105801045128
 30
0.0
 11
648.0463254005076
 21
-199.2647182585613
 31
0.0
  0
SPLINE
  5
A8
330
1F
100
AcDbEntity
  8
FISHER_PAYKEL
 62
   250
420
  1316376
370
     9
100
AcDbSpline
210
0.0
220
0.0
230
1.0
 70
     8
 71
     3
 72
     8
 73
     4
 74
     0
 42
0.000000001
 43
0.0000000001
 40
2.012999999999977
 40
2.012999999999977
 40
2.012999999999977
 40
2.012999999999977
 40
3.012999999999977
 40
3.012999999999977
 40
3.012999999999977
 40
3.012999999999977
 10
648.0463254005076
 20
-199.2647182585613
 30
0.0
 10
648.0463254005076
 20
-195.1830139688589
 30
0.0
 10
650.4628918987326
 20
-191.6057899846253
 30
0.0
 10
654.2694251127245
 20
-191.6057899846253
 30
0.0
  0
SPLINE
  5
A9
330
1F
100
AcDbEntity
  8
FISHER_PAYKEL
 62
   250
420
  1316376
370
     9
100
AcDbSpline
210
0.0
220
0.0
230
1.0
 70
     8
 71
     3
 72
     8
 73
     4
 74
     0
 42
0.000000001
 43
0.0000000001
 40
3.012999999999977
 40
3.012999999999977
 40
3.012999999999977
 40
3.012999999999977
 40
4.012999999999977
 40
4.012999999999977
 40
4.012999999999977
 40
4.012999999999977
 10
654.2694251127245
 20
-191.6057899846253
 30
0.0
 10
658.0724304924124
 20
-191.6057899846253
 30
0.0
 10
660.4431351446858
 20
-195.1406799572112
 30
0.0
 10
660.4431351446858
 20
-199.2259120812175
 30
0.0
  0
LINE
  5
AA
330
1F
100
AcDbEntity
  8
FISHER_PAYKEL
 62
   250
420
  1316376
370
     9
100
AcDbLine
 10
660.4431351446858
 20
-199.2259120812175
 30
0.0
 11
660.4431351446858
 21
-199.2647182585613
 31
0.0
  0
SPLINE
  5
AB
330
1F
100
AcDbEntity
  8
FISHER_PAYKEL
 62
   250
420
  1316376
370
     9
100
AcDbSpline
210
0.0
220
0.0
230
1.0
 70
     8
 71
     3
 72
     8
 73
     4
 74
     0
 42
0.000000001
 43
0.0000000001
 40
4.024000000000001
 40
4.024000000000001
 40
4.024000000000001
 40
4.024000000000001
 40
5.024000000000001
 40
5.024000000000001
 40
5.024000000000001
 40
5.024000000000001
 10
660.4431351446858
 20
-199.2647182585613
 30
0.0
 10
660.4431351446858
 20
-203.3499503825674
 30
0.0
 10
658.0300964807648
 20
-206.9236465324971
 30
0.0
 10
654.2235632667728
 20
-206.9236465324971
 30
0.0
  0
SPLINE
  5
AC
330
1F
100
AcDbEntity
  8
FISHER_PAYKEL
 62
   250
420
  1316376
370
     9
100
AcDbSpline
210
0.0
220
0.0
230
1.0
 70
     8
 71
     3
 72
     8
 73
     4
 74
     0
 42
0.000000001
 43
0.0000000001
 40
5.024000000000001
 40
5.024000000000001
 40
5.024000000000001
 40
5.024000000000001
 40
6.024000000000001
 40
6.024000000000001
 40
6.024000000000001
 40
6.024000000000001
 10
654.2235632667728
 20
-206.9236465324971
 30
0.0
 10
650.4205578870847
 20
-206.9236465324971
 30
0.0
 10
648.0463254005076
 20
-203.3922843942153
 30
0.0
 10
648.0463254005076
 20
-199.3105801045128
 30
0.0
  0
LINE
  5
AD
330
1F
100
AcDbEntity
  8
FISHER_PAYKEL
 62
   250
420
  1316376
370
     9
100
AcDbLine
 10
659.289533327285
 20
-199.3105801045128
 30
0.0
 11
659.289533327285
 21
-199.2647182585613
 31
0.0
  0
SPLINE
  5
AE
330
1F
100
AcDbEntity
  8
FISHER_PAYKEL
 62
   250
420
  1316376
370
     9
100
AcDbSpline
210
0.0
220
0.0
230
1.0
 70
     8
 71
     3
 72
     8
 73
     4
 74
     0
 42
0.000000001
 43
0.0000000001
 40
0.0129999999999768
 40
0.0129999999999768
 40
0.0129999999999768
 40
0.0129999999999768
 40
1.012999999999977
 40
1.012999999999977
 40
1.012999999999977
 40
1.012999999999977
 10
659.289533327285
 20
-199.2647182585613
 30
0.0
 10
659.289533327285
 20
-195.8180241435748
 30
0.0
 10
657.3210017856654
 20
-192.6041670926509
 30
0.0
 10
654.2235632667728
 20
-192.6041670926509
 30
0.0
  0
SPLINE
  5
AF
330
1F
100
AcDbEntity
  8
FISHER_PAYKEL
 62
   250
420
  1316376
370
     9
100
AcDbSpline
210
0.0
220
0.0
230
1.0
 70
     8
 71
     3
 72
     8
 73
     4
 74
     0
 42
0.000000001
 43
0.0000000001
 40
1.012999999999977
 40
1.012999999999977
 40
1.012999999999977
 40
1.012999999999977
 40
2.012999999999977
 40
2.012999999999977
 40
2.012999999999977
 40
2.012999999999977
 10
654.2235632667728
 20
-192.6041670926509
 30
0.0
 10
651.1296525821842
 20
-192.6041670926509
 30
0.0
 10
649.2034550522123
 20
-195.7756901319269
 30
0.0
 10
649.2034550522123
 20
-199.2259120812175
 30
0.0
  0
LINE
  5
B0
330
1F
100
AcDbEntity
  8
FISHER_PAYKEL
 62
   250
420
  1316376
370
     9
100
AcDbLine
 10
649.2034550522123
 20
-199.2259120812175
 30
0.0
 11
649.2034550522123
 21
-199.2647182585613
 31
0.0
  0
SPLINE
  5
B1
330
1F
100
AcDbEntity
  8
FISHER_PAYKEL
 62
   250
420
  1316376
370
     9
100
AcDbSpline
210
0.0
220
0.0
230
1.0
 70
     8
 71
     3
 72
     8
 73
     4
 74
     0
 42
0.000000001
 43
0.0000000001
 40
2.024000000000001
 40
2.024000000000001
 40
2.024000000000001
 40
2.024000000000001
 40
3.024000000000001
 40
3.024000000000001
 40
3.024000000000001
 40
3.024000000000001
 10
649.2034550522123
 20
-199.2647182585613
 30
0.0
 10
649.2034550522123
 20
-202.6937732020276
 30
0.0
 10
651.168458759528
 20
-205.9323250930795
 30
0.0
 10
654.2694251127245
 20
-205.9323250930795
 30
0.0
  0
SPLINE
  5
B2
330
1F
100
AcDbEntity
  8
FISHER_PAYKEL
 62
   250
420
  1316376
370
     9
100
AcDbSpline
210
0.0
220
0.0
230
1.0
 70
     8
 71
     3
 72
     8
 73
     4
 74
     0
 42
0.000000001
 43
0.0000000001
 40
3.024000000000001
 40
3.024000000000001
 40
3.024000000000001
 40
3.024000000000001
 40
4.024000000000001
 40
4.024000000000001
 40
4.024000000000001
 40
4.024000000000001
 10
654.2694251127245
 20
-205.9323250930795
 30
0.0
 10
657.366863631617
 20
-205.9323250930795
 30
0.0
 10
659.289533327285
 20
-202.7361072136755
 30
0.0
 10
659.289533327285
 20
-199.3105801045128
 30
0.0
  0
LINE
  5
B3
330
1F
100
AcDbEntity
  8
FISHER_PAYKEL
 62
   250
420
  1316376
370
     9
100
AcDbLine
 10
133.747351496845
 20
-199.3105801045128
 30
0.0
 11
133.747351496845
 21
-199.2647182585613
 31
0.0
  0
SPLINE
  5
B4
330
1F
100
AcDbEntity
  8
FISHER_PAYKEL
 62
   250
420
  1316376
370
     9
100
AcDbSpline
210
0.0
220
0.0
230
1.0
 70
     8
 71
     3
 72
     8
 73
     4
 74
     0
 42
0.000000001
 43
0.0000000001
 40
2.012999999999977
 40
2.012999999999977
 40
2.012999999999977
 40
2.012999999999977
 40
3.012999999999977
 40
3.012999999999977
 40
3.012999999999977
 40
3.012999999999977
 10
133.747351496845
 20
-199.2647182585613
 30
0.0
 10
133.747351496845
 20
-195.1830139688589
 30
0.0
 10
136.1639179950697
 20
-191.6057899846253
 30
0.0
 10
139.9704512090619
 20
-191.6057899846253
 30
0.0
  0
SPLINE
  5
B5
330
1F
100
AcDbEntity
  8
FISHER_PAYKEL
 62
   250
420
  1316376
370
     9
100
AcDbSpline
210
0.0
220
0.0
230
1.0
 70
     8
 71
     3
 72
     8
 73
     4
 74
     0
 42
0.000000001
 43
0.0000000001
 40
3.012999999999977
 40
3.012999999999977
 40
3.012999999999977
 40
3.012999999999977
 40
4.012999999999977
 40
4.012999999999977
 40
4.012999999999977
 40
4.012999999999977
 10
139.9704512090619
 20
-191.6057899846253
 30
0.0
 10
143.7734565887502
 20
-191.6057899846253
 30
0.0
 10
146.1441612410232
 20
-195.1406799572112
 30
0.0
 10
146.1441612410232
 20
-199.2259120812175
 30
0.0
  0
LINE
  5
B6
330
1F
100
AcDbEntity
  8
FISHER_PAYKEL
 62
   250
420
  1316376
370
     9
100
AcDbLine
 10
146.1441612410232
 20
-199.2259120812175
 30
0.0
 11
146.1441612410232
 21
-199.2647182585613
 31
0.0
  0
SPLINE
  5
B7
330
1F
100
AcDbEntity
  8
FISHER_PAYKEL
 62
   250
420
  1316376
370
     9
100
AcDbSpline
210
0.0
220
0.0
230
1.0
 70
     8
 71
     3
 72
     8
 73
     4
 74
     0
 42
0.000000001
 43
0.0000000001
 40
4.024000000000001
 40
4.024000000000001
 40
4.024000000000001
 40
4.024000000000001
 40
5.024000000000001
 40
5.024000000000001
 40
5.024000000000001
 40
5.024000000000001
 10
146.1441612410232
 20
-199.2647182585613
 30
0.0
 10
146.1441612410232
 20
-203.3499503825674
 30
0.0
 10
143.7311225771023
 20
-206.9236465324971
 30
0.0
 10
139.9245893631102
 20
-206.9236465324971
 30
0.0
  0
SPLINE
  5
B8
330
1F
100
AcDbEntity
  8
FISHER_PAYKEL
 62
   250
420
  1316376
370
     9
100
AcDbSpline
210
0.0
220
0.0
230
1.0
 70
     8
 71
     3
 72
     8
 73
     4
 74
     0
 42
0.000000001
 43
0.0000000001
 40
5.024000000000001
 40
5.024000000000001
 40
5.024000000000001
 40
5.024000000000001
 40
6.024000000000001
 40
6.024000000000001
 40
6.024000000000001
 40
6.024000000000001
 10
139.9245893631102
 20
-206.9236465324971
 30
0.0
 10
136.1215839834221
 20
-206.9236465324971
 30
0.0
 10
133.747351496845
 20
-203.3922843942153
 30
0.0
 10
133.747351496845
 20
-199.3105801045128
 30
0.0
  0
LINE
  5
B9
330
1F
100
AcDbEntity
  8
FISHER_PAYKEL
 62
   250
420
  1316376
370
     9
100
AcDbLine
 10
144.9905594236225
 20
-199.3105801045128
 30
0.0
 11
144.9905594236225
 21
-199.2647182585613
 31
0.0
  0
SPLINE
  5
BA
330
1F
100
AcDbEntity
  8
FISHER_PAYKEL
 62
   250
420
  1316376
370
     9
100
AcDbSpline
210
0.0
220
0.0
230
1.0
 70
     8
 71
     3
 72
     8
 73
     4
 74
     0
 42
0.000000001
 43
0.0000000001
 40
0.0129999999999768
 40
0.0129999999999768
 40
0.0129999999999768
 40
0.0129999999999768
 40
1.012999999999977
 40
1.012999999999977
 40
1.012999999999977
 40
1.012999999999977
 10
144.9905594236225
 20
-199.2647182585613
 30
0.0
 10
144.9905594236225
 20
-195.8180241435748
 30
0.0
 10
143.0255557163068
 20
-192.6041670926509
 30
0.0
 10
139.9245893631102
 20
-192.6041670926509
 30
0.0
  0
SPLINE
  5
BB
330
1F
100
AcDbEntity
  8
FISHER_PAYKEL
 62
   250
420
  1316376
370
     9
100
AcDbSpline
210
0.0
220
0.0
230
1.0
 70
     8
 71
     3
 72
     8
 73
     4
 74
     0
 42
0.000000001
 43
0.0000000001
 40
1.012999999999977
 40
1.012999999999977
 40
1.012999999999977
 40
1.012999999999977
 40
2.012999999999977
 40
2.012999999999977
 40
2.012999999999977
 40
2.012999999999977
 10
139.9245893631102
 20
-192.6041670926509
 30
0.0
 10
136.8271508442177
 20
-192.6041670926509
 30
0.0
 10
134.9044811485497
 20
-195.7756901319269
 30
0.0
 10
134.9044811485497
 20
-199.2259120812175
 30
0.0
  0
LINE
  5
BC
330
1F
100
AcDbEntity
  8
FISHER_PAYKEL
 62
   250
420
  1316376
370
     9
100
AcDbLine
 10
134.9044811485497
 20
-199.2259120812175
 30
0.0
 11
134.9044811485497
 21
-199.2647182585613
 31
0.0
  0
SPLINE
  5
BD
330
1F
100
AcDbEntity
  8
FISHER_PAYKEL
 62
   250
420
  1316376
370
     9
100
AcDbSpline
210
0.0
220
0.0
230
1.0
 70
     8
 71
     3
 72
     8
 73
     4
 74
     0
 42
0.000000001
 43
0.0000000001
 40
2.024000000000001
 40
2.024000000000001
 40
2.024000000000001
 40
2.024000000000001
 40
3.024000000000001
 40
3.024000000000001
 40
3.024000000000001
 40
3.024000000000001
 10
134.9044811485497
 20
-199.2647182585613
 30
0.0
 10
134.9044811485497
 20
-202.6937732020276
 30
0.0
 10
136.8694848558655
 20
-205.9323250930795
 30
0.0
 10
139.9704512090619
 20
-205.9323250930795
 30
0.0
  0
SPLINE
  5
BE
330
1F
100
AcDbEntity
  8
FISHER_PAYKEL
 62
   250
420
  1316376
370
     9
100
AcDbSpline
210
0.0
220
0.0
230
1.0
 70
     8
 71
     3
 72
     8
 73
     4
 74
     0
 42
0.000000001
 43
0.0000000001
 40
3.024000000000001
 40
3.024000000000001
 40
3.024000000000001
 40
3.024000000000001
 40
4.024000000000001
 40
4.024000000000001
 40
4.024000000000001
 40
4.024000000000001
 10
139.9704512090619
 20
-205.9323250930795
 30
0.0
 10
143.0678897279545
 20
-205.9323250930795
 30
0.0
 10
144.9905594236225
 20
-202.7361072136755
 30
0.0
 10
144.9905594236225
 20
-199.3105801045128
 30
0.0
  0
POLYLINE
  5
BF
330
1F
100
AcDbEntity
  8
FISHER_PAYKEL
 62
   250
420
  1316376
370
     9
100
AcDb2dPolyline
 66
     1
 10
0.0
 20
0.0
 30
0.0
 70
     1
  0
VERTEX
  5
C0
330
BF
100
AcDbEntity
  8
FISHER_PAYKEL
 62
   250
420
  1316376
370
     9
100
AcDbVertex
100
AcDb2dVertex
 10
663.6100719993665
 20
-241.116122173511
 30
0.0
  0
VERTEX
  5
C1
330
BF
100
AcDbEntity
  8
FISHER_PAYKEL
 62
   250
420
  1316376
370
     9
100
AcDbVertex
100
AcDb2dVertex
 10
664.7213398051197
 20
-241.116122173511
 30
0.0
  0
VERTEX
  5
C2
330
BF
100
AcDbEntity
  8
FISHER_PAYKEL
 62
   250
420
  1316376
370
     9
100
AcDbVertex
100
AcDb2dVertex
 10
664.7213398051197
 20
-255.9224427473061
 30
0.0
  0
VERTEX
  5
C3
330
BF
100
AcDbEntity
  8
FISHER_PAYKEL
 62
   250
420
  1316376
370
     9
100
AcDbVertex
100
AcDb2dVertex
 10
663.6100719993665
 20
-255.9224427473061
 30
0.0
  0
SEQEND
  5
C4
330
BF
100
AcDbEntity
  8
FISHER_PAYKEL
 62
   250
420
  1316376
370
     9
  0
LINE
  5
C5
330
1F
100
AcDbEntity
  8
FISHER_PAYKEL
 62
   250
420
  1316376
370
     9
100
AcDbLine
 10
669.0531675469742
 20
-245.1382060634762
 30
0.0
 11
670.1009343352557
 21
-245.1382060634762
 31
0.0
  0
LINE
  5
C6
330
1F
100
AcDbEntity
  8
FISHER_PAYKEL
 62
   250
420
  1316376
370
     9
100
AcDbLine
 10
670.1009343352557
 20
-245.1382060634762
 30
0.0
 11
670.1009343352557
 21
-247.1455437824397
 31
0.0
  0
SPLINE
  5
C7
330
1F
100
AcDbEntity
  8
FISHER_PAYKEL
 62
   250
420
  1316376
370
     9
100
AcDbSpline
210
0.0
220
0.0
230
1.0
 70
     8
 71
     3
 72
     8
 73
     4
 74
     0
 42
0.000000001
 43
0.0000000001
 40
0.8660000000000423
 40
0.8660000000000423
 40
0.8660000000000423
 40
0.8660000000000423
 40
1.866000000000042
 40
1.866000000000042
 40
1.866000000000042
 40
1.866000000000042
 10
670.1009343352557
 20
-247.1455437824397
 30
0.0
 10
670.827668201875
 20
-245.8755234330076
 30
0.0
 10
672.0482988710514
 20
-244.8842019935898
 30
0.0
 10
674.0309417498868
 20
-244.8842019935898
 30
0.0
  0
SPLINE
  5
C8
330
1F
100
AcDbEntity
  8
FISHER_PAYKEL
 62
   250
420
  1316376
370
     9
100
AcDbSpline
210
0.0
220
0.0
230
1.0
 70
     8
 71
     3
 72
     8
 73
     4
 74
     0
 42
0.000000001
 43
0.0000000001
 40
1.866000000000042
 40
1.866000000000042
 40
1.866000000000042
 40
1.866000000000042
 40
2.866000000000042
 40
2.866000000000042
 40
2.866000000000042
 40
2.866000000000042
 10
674.0309417498868
 20
-244.8842019935898
 30
0.0
 10
676.7861803412936
 20
-244.8842019935898
 30
0.0
 10
678.3913449496035
 20
-246.7433706717861
 30
0.0
 10
678.3913449496035
 20
-249.325745382298
 30
0.0
  0
LINE
  5
C9
330
1F
100
AcDbEntity
  8
FISHER_PAYKEL
 62
   250
420
  1316376
370
     9
100
AcDbLine
 10
678.3913449496035
 20
-249.325745382298
 30
0.0
 11
678.3913449496035
 21
-255.9263233650406
 31
0.0
  0
LINE
  5
CA
330
1F
100
AcDbEntity
  8
FISHER_PAYKEL
 62
   250
420
  1316376
370
     9
100
AcDbLine
 10
678.3913449496035
 20
-255.9263233650406
 30
0.0
 11
677.3471059956262
 21
-255.9263233650406
 31
0.0
  0
LINE
  5
CB
330
1F
100
AcDbEntity
  8
FISHER_PAYKEL
 62
   250
420
  1316376
370
     9
100
AcDbLine
 10
677.3471059956262
 20
-255.9263233650406
 30
0.0
 11
677.3471059956262
 21
-249.5162484347127
 31
0.0
  0
SPLINE
  5
CC
330
1F
100
AcDbEntity
  8
FISHER_PAYKEL
 62
   250
420
  1316376
370
     9
100
AcDbSpline
210
0.0
220
0.0
230
1.0
 70
     8
 71
     3
 72
     8
 73
     4
 74
     0
 42
0.000000001
 43
0.0000000001
 40
6.850000000000023
 40
6.850000000000023
 40
6.850000000000023
 40
6.850000000000023
 40
7.850000000000023
 40
7.850000000000023
 40
7.850000000000023
 40
7.850000000000023
 10
677.3471059956262
 20
-249.5162484347127
 30
0.0
 10
677.3471059956262
 20
-247.2937128232068
 30
0.0
 10
676.0841413148019
 20
-245.8331894213597
 30
0.0
 10
673.88277270912
 20
-245.8331894213597
 30
0.0
  0
SPLINE
  5
CD
330
1F
100
AcDbEntity
  8
FISHER_PAYKEL
 62
   250
420
  1316376
370
     9
100
AcDbSpline
210
0.0
220
0.0
230
1.0
 70
     8
 71
     3
 72
     8
 73
     4
 74
     0
 42
0.000000001
 43
0.0000000001
 40
7.850000000000023
 40
7.850000000000023
 40
7.850000000000023
 40
7.850000000000023
 40
8.850000000000023
 40
8.850000000000023
 40
8.850000000000023
 40
8.850000000000023
 10
673.88277270912
 20
-245.8331894213597
 30
0.0
 10
671.7449051209092
 20
-245.8331894213597
 30
0.0
 10
670.1009343352557
 20
-247.4418818639738
 30
0.0
 10
670.1009343352557
 20
-249.6855844813035
 30
0.0
  0
LINE
  5
CE
330
1F
100
AcDbEntity
  8
FISHER_PAYKEL
 62
   250
420
  1316376
370
     9
100
AcDbLine
 10
670.1009343352557
 20
-249.6855844813035
 30
0.0
 11
670.1009343352557
 21
-255.9263233650406
 31
0.0
  0
LINE
  5
CF
330
1F
100
AcDbEntity
  8
FISHER_PAYKEL
 62
   250
420
  1316376
370
     9
100
AcDbLine
 10
670.1009343352557
 20
-255.9263233650406
 30
0.0
 11
669.0531675469742
 21
-255.9263233650406
 31
0.0
  0
LINE
  5
D0
330
1F
100
AcDbEntity
  8
FISHER_PAYKEL
 62
   250
420
  1316376
370
     9
100
AcDbLine
 10
669.0531675469742
 20
-255.9263233650406
 30
0.0
 11
669.0531675469742
 21
-245.1382060634762
 31
0.0
  0
LINE
  5
D1
330
1F
100
AcDbEntity
  8
FISHER_PAYKEL
 62
   250
420
  1316376
370
     9
100
AcDbLine
 10
681.3730705033254
 20
-250.5745987259061
 30
0.0
 11
681.3730705033254
 21
-250.5322647142584
 31
0.0
  0
SPLINE
  5
D2
330
1F
100
AcDbEntity
  8
FISHER_PAYKEL
 62
   250
420
  1316376
370
     9
100
AcDbSpline
210
0.0
220
0.0
230
1.0
 70
     8
 71
     3
 72
     8
 73
     4
 74
     0
 42
0.000000001
 43
0.0000000001
 40
0.0120000000000005
 40
0.0120000000000005
 40
0.0120000000000005
 40
0.0120000000000005
 40
1.012
 40
1.012
 40
1.012
 40
1.012
 10
681.3730705033254
 20
-250.5322647142584
 30
0.0
 10
681.3730705033254
 20
-247.5053828814455
 30
0.0
 10
683.80727617307
 20
-244.8842019935898
 30
0.0
 10
686.9294095320904
 20
-244.8842019935898
 30
0.0
  0
SPLINE
  5
D3
330
1F
100
AcDbEntity
  8
FISHER_PAYKEL
 62
   250
420
  1316376
370
     9
100
AcDbSpline
210
0.0
220
0.0
230
1.0
 70
     8
 71
     3
 72
     8
 73
     4
 74
     0
 42
0.000000001
 43
0.0000000001
 40
1.012
 40
1.012
 40
1.012
 40
1.012
 40
2.012
 40
2.012
 40
2.012
 40
2.012
 10
686.9294095320904
 20
-244.8842019935898
 30
0.0
 10
688.9790812627016
 20
-244.8842019935898
 30
0.0
 10
690.2667407836536
 20
-245.8120224155359
 30
0.0
 10
691.2898127318072
 20
-246.8703727067293
 30
0.0
  0
LINE
  5
D4
330
1F
100
AcDbEntity
  8
FISHER_PAYKEL
 62
   250
420
  1316376
370
     9
100
AcDbLine
 10
691.2898127318072
 20
-246.8703727067293
 30
0.0
 11
690.5419118593638
 21
-247.6323849163887
 31
0.0
  0
SPLINE
  5
D5
330
1F
100
AcDbEntity
  8
FISHER_PAYKEL
 62
   250
420
  1316376
370
     9
100
AcDbSpline
210
0.0
220
0.0
230
1.0
 70
     8
 71
     3
 72
     8
 73
     4
 74
     0
 42
0.000000001
 43
0.0000000001
 40
2.31465491900843
 40
2.31465491900843
 40
2.31465491900843
 40
2.31465491900843
 40
3.31465491900843
 40
3.31465491900843
 40
3.31465491900843
 40
3.31465491900843
 10
690.5419118593638
 20
-247.6323849163887
 30
0.0
 10
689.5999801002017
 20
-246.6798696543146
 30
0.0
 10
688.5310463060966
 20
-245.8543564271836
 30
0.0
 10
686.9082425262668
 20
-245.8543564271836
 30
0.0
  0
SPLINE
  5
D6
330
1F
100
AcDbEntity
  8
FISHER_PAYKEL
 62
   250
420
  1316376
370
     9
100
AcDbSpline
210
0.0
220
0.0
230
1.0
 70
     8
 71
     3
 72
     8
 73
     4
 74
     0
 42
0.000000001
 43
0.0000000001
 40
3.31465491900843
 40
3.31465491900843
 40
3.31465491900843
 40
3.31465491900843
 40
4.314654919008429
 40
4.314654919008429
 40
4.314654919008429
 40
4.314654919008429
 10
686.9082425262668
 20
-245.8543564271836
 30
0.0
 10
684.4281750105702
 20
-245.8543564271836
 30
0.0
 10
682.5055053149024
 20
-247.9075559920989
 30
0.0
 10
682.5055053149024
 20
-250.4899307026108
 30
0.0
  0
LINE
  5
D7
330
1F
100
AcDbEntity
  8
FISHER_PAYKEL
 62
   250
420
  1316376
370
     9
100
AcDbLine
 10
682.5055053149024
 20
-250.4899307026108
 30
0.0
 11
682.5055053149024
 21
-250.5322647142584
 31
0.0
  0
SPLINE
  5
D8
330
1F
100
AcDbEntity
  8
FISHER_PAYKEL
 62
   250
420
  1316376
370
     9
100
AcDbSpline
210
0.0
220
0.0
230
1.0
 70
     8
 71
     3
 72
     8
 73
     4
 74
     0
 42
0.000000001
 43
0.0000000001
 40
4.32665491900843
 40
4.32665491900843
 40
4.32665491900843
 40
4.32665491900843
 40
5.32665491900843
 40
5.32665491900843
 40
5.32665491900843
 40
5.32665491900843
 10
682.5055053149024
 20
-250.5322647142584
 30
0.0
 10
682.5055053149024
 20
-253.1358064305939
 30
0.0
 10
684.4916760280419
 20
-255.203117332725
 30
0.0
 10
686.9929105495623
 20
-255.203117332725
 30
0.0
  0
SPLINE
  5
D9
330
1F
100
AcDbEntity
  8
FISHER_PAYKEL
 62
   250
420
  1316376
370
     9
100
AcDbSpline
210
0.0
220
0.0
230
1.0
 70
     8
 71
     3
 72
     8
 73
     4
 74
     0
 42
0.000000001
 43
0.0000000001
 40
5.32665491900843
 40
5.32665491900843
 40
5.32665491900843
 40
5.32665491900843
 40
6.32665491900843
 40
6.32665491900843
 40
6.32665491900843
 40
6.32665491900843
 10
686.9929105495623
 20
-255.203117332725
 30
0.0
 10
688.5310463060966
 20
-255.203117332725
 30
0.0
 10
689.7269821351449
 20
-254.4234659515459
 30
0.0
 10
690.6477468884834
 20
-253.4074496720002
 30
0.0
  0
LINE
  5
DA
330
1F
100
AcDbEntity
  8
FISHER_PAYKEL
 62
   250
420
  1316376
370
     9
100
AcDbLine
 10
690.6477468884834
 20
-253.4074496720002
 30
0.0
 11
691.3744807551025
 21
-254.0424598467164
 31
0.0
  0
SPLINE
  5
DB
330
1F
100
AcDbEntity
  8
FISHER_PAYKEL
 62
   250
420
  1316376
370
     9
100
AcDbSpline
210
0.0
220
0.0
230
1.0
 70
     8
 71
     3
 72
     8
 73
     4
 74
     0
 42
0.000000001
 43
0.0000000001
 40
6.600216612233169
 40
6.600216612233169
 40
6.600216612233169
 40
6.600216612233169
 40
7.600216612233169
 40
7.600216612233169
 40
7.600216612233169
 40
7.600216612233169
 10
691.3744807551025
 20
-254.0424598467164
 30
0.0
 10
690.2667407836536
 20
-255.2913131903244
 30
0.0
 10
688.9367472510539
 20
-256.1803274349268
 30
0.0
 10
686.9294095320904
 20
-256.1803274349268
 30
0.0
  0
SPLINE
  5
DC
330
1F
100
AcDbEntity
  8
FISHER_PAYKEL
 62
   250
420
  1316376
370
     9
100
AcDbSpline
210
0.0
220
0.0
230
1.0
 70
     8
 71
     3
 72
     8
 73
     4
 74
     0
 42
0.000000001
 43
0.0000000001
 40
7.600216612233169
 40
7.600216612233169
 40
7.600216612233169
 40
7.600216612233169
 40
8.600216612233169
 40
8.600216612233169
 40
8.600216612233169
 40
8.600216612233169
 10
686.9294095320904
 20
-256.1803274349268
 30
0.0
 10
683.7896370015501
 20
-256.1803274349268
 30
0.0
 10
681.3730705033254
 20
-253.5979527244151
 30
0.0
 10
681.3730705033254
 20
-250.5745987259061
 30
0.0
  0
LINE
  5
DD
330
1F
100
AcDbEntity
  8
FISHER_PAYKEL
 62
   250
420
  1316376
370
     9
100
AcDbLine
 10
694.2888246736188
 20
-240.4800536485038
 30
0.0
 11
695.3365914619003
 21
-240.4800536485038
 31
0.0
  0
LINE
  5
DE
330
1F
100
AcDbEntity
  8
FISHER_PAYKEL
 62
   250
420
  1316376
370
     9
100
AcDbLine
 10
695.3365914619003
 20
-240.4800536485038
 30
0.0
 11
695.3365914619003
 21
-247.147660483022
 31
0.0
  0
SPLINE
  5
DF
330
1F
100
AcDbEntity
  8
FISHER_PAYKEL
 62
   250
420
  1316376
370
     9
100
AcDbSpline
210
0.0
220
0.0
230
1.0
 70
     8
 71
     3
 72
     8
 73
     4
 74
     0
 42
0.000000001
 43
0.0000000001
 40
2.187000000000012
 40
2.187000000000012
 40
2.187000000000012
 40
2.187000000000012
 40
3.187000000000012
 40
3.187000000000012
 40
3.187000000000012
 40
3.187000000000012
 10
695.3365914619003
 20
-247.147660483022
 30
0.0
 10
696.0633253285196
 20
-245.874112299286
 30
0.0
 10
697.2804281633919
 20
-244.8827908598682
 30
0.0
 10
699.2665988765316
 20
-244.8827908598682
 30
0.0
  0
SPLINE
  5
E0
330
1F
100
AcDbEntity
  8
FISHER_PAYKEL
 62
   250
420
  1316376
370
     9
100
AcDbSpline
210
0.0
220
0.0
230
1.0
 70
     8
 71
     3
 72
     8
 73
     4
 74
     0
 42
0.000000001
 43
0.0000000001
 40
3.187000000000012
 40
3.187000000000012
 40
3.187000000000012
 40
3.187000000000012
 40
4.187000000000012
 40
4.187000000000012
 40
4.187000000000012
 40
4.187000000000012
 10
699.2665988765316
 20
-244.8827908598682
 30
0.0
 10
702.0253653022421
 20
-244.8827908598682
 30
0.0
 10
703.6234742419445
 20
-246.7419595380645
 30
0.0
 10
703.6234742419445
 20
-249.3278620828803
 30
0.0
  0
LINE
  5
E1
330
1F
100
AcDbEntity
  8
FISHER_PAYKEL
 62
   250
420
  1316376
370
     9
100
AcDbLine
 10
703.6234742419445
 20
-249.3278620828803
 30
0.0
 11
703.6234742419445
 21
-255.9249122313188
 31
0.0
  0
LINE
  5
E2
330
1F
100
AcDbEntity
  8
FISHER_PAYKEL
 62
   250
420
  1316376
370
     9
100
AcDbLine
 10
703.6234742419445
 20
-255.9249122313188
 30
0.0
 11
702.5792352879666
 21
-255.9249122313188
 31
0.0
  0
LINE
  5
E3
330
1F
100
AcDbEntity
  8
FISHER_PAYKEL
 62
   250
420
  1316376
370
     9
100
AcDbLine
 10
702.5792352879666
 20
-255.9249122313188
 30
0.0
 11
702.5792352879666
 21
-249.5183651352952
 31
0.0
  0
SPLINE
  5
E4
330
1F
100
AcDbEntity
  8
FISHER_PAYKEL
 62
   250
420
  1316376
370
     9
100
AcDbSpline
210
0.0
220
0.0
230
1.0
 70
     8
 71
     3
 72
     8
 73
     4
 74
     0
 42
0.000000001
 43
0.0000000001
 40
8.168999999999983
 40
8.168999999999983
 40
8.168999999999983
 40
8.168999999999983
 40
9.168999999999983
 40
9.168999999999983
 40
9.168999999999983
 40
9.168999999999983
 10
702.5792352879666
 20
-249.5183651352952
 30
0.0
 10
702.5792352879666
 20
-247.2958295237891
 30
0.0
 10
701.3162706071428
 20
-245.835306121942
 30
0.0
 10
699.1184298357646
 20
-245.835306121942
 30
0.0
  0
SPLINE
  5
E5
330
1F
100
AcDbEntity
  8
FISHER_PAYKEL
 62
   250
420
  1316376
370
     9
100
AcDbSpline
210
0.0
220
0.0
230
1.0
 70
     8
 71
     3
 72
     8
 73
     4
 74
     0
 42
0.000000001
 43
0.0000000001
 40
9.168999999999983
 40
9.168999999999983
 40
9.168999999999983
 40
9.168999999999983
 40
10.16899999999998
 40
10.16899999999998
 40
10.16899999999998
 40
10.16899999999998
 10
699.1184298357646
 20
-245.835306121942
 30
0.0
 10
696.9840900818579
 20
-245.835306121942
 30
0.0
 10
695.3365914619003
 20
-247.4439985645561
 30
0.0
 10
695.3365914619003
 20
-249.6841733475819
 30
0.0
  0
LINE
  5
E6
330
1F
100
AcDbEntity
  8
FISHER_PAYKEL
 62
   250
420
  1316376
370
     9
100
AcDbLine
 10
695.3365914619003
 20
-249.6841733475819
 30
0.0
 11
695.3365914619003
 21
-255.9249122313188
 31
0.0
  0
LINE
  5
E7
330
1F
100
AcDbEntity
  8
FISHER_PAYKEL
 62
   250
420
  1316376
370
     9
100
AcDbLine
 10
695.3365914619003
 20
-255.9249122313188
 30
0.0
 11
694.2888246736188
 21
-255.9249122313188
 31
0.0
  0
LINE
  5
E8
330
1F
100
AcDbEntity
  8
FISHER_PAYKEL
 62
   250
420
  1316376
370
     9
100
AcDbLine
 10
694.2888246736188
 20
-255.9249122313188
 30
0.0
 11
694.2888246736188
 21
-240.4800536485038
 31
0.0
  0
LINE
  5
E9
330
1F
100
AcDbEntity
  8
FISHER_PAYKEL
 62
   250
420
  1316376
370
     9
100
AcDbLine
 10
706.6069637128182
 20
-250.552373369791
 30
0.0
 11
706.6069637128182
 21
-250.5100393581433
 31
0.0
  0
SPLINE
  5
EA
330
1F
100
AcDbEntity
  8
FISHER_PAYKEL
 62
   250
420
  1316376
370
     9
100
AcDbSpline
210
0.0
220
0.0
230
1.0
 70
     8
 71
     3
 72
     8
 73
     4
 74
     0
 42
0.000000001
 43
0.0000000001
 40
2.012
 40
2.012
 40
2.012
 40
2.012
 40
3.012
 40
3.012
 40
3.012
 40
3.012
 10
706.6069637128182
 20
-250.5100393581433
 30
0.0
 10
706.6069637128182
 20
-247.377322496211
 30
0.0
 10
708.8259714900203
 20
-244.8831436432988
 30
0.0
 10
711.7752409681459
 20
-244.8831436432988
 30
0.0
  0
SPLINE
  5
EB
330
1F
100
AcDbEntity
  8
FISHER_PAYKEL
 62
   250
420
  1316376
370
     9
100
AcDbSpline
210
0.0
220
0.0
230
1.0
 70
     8
 71
     3
 72
     8
 73
     4
 74
     0
 42
0.000000001
 43
0.0000000001
 40
3.012
 40
3.012
 40
3.012
 40
3.012
 40
4.012
 40
4.012
 40
4.012
 40
4.012
 10
711.7752409681459
 20
-244.8831436432988
 30
0.0
 10
714.8374011439987
 20
-244.8831436432988
 30
0.0
 10
716.7777100111866
 20
-247.3349884845634
 30
0.0
 10
716.7777100111866
 20
-250.5347341982711
 30
0.0
  0
SPLINE
  5
EC
330
1F
100
AcDbEntity
  8
FISHER_PAYKEL
 62
   250
420
  1316376
370
     9
100
AcDbSpline
210
0.0
220
0.0
230
1.0
 70
     8
 71
     3
 72
     8
 73
     4
 74
     0
 42
0.000000001
 43
0.0000000001
 40
4.012
 40
4.012
 40
4.012
 40
4.012
 40
5.012
 40
5.012
 40
5.012
 40
5.012
 10
716.7777100111866
 20
-250.5347341982711
 30
0.0
 10
716.7777100111866
 20
-250.7217094163818
 30
0.0
 10
716.7777100111866
 20
-250.7852104338535
 30
0.0
 10
716.7565430053623
 20
-250.9545464804446
 30
0.0
  0
LINE
  5
ED
330
1F
100
AcDbEntity
  8
FISHER_PAYKEL
 62
   250
420
  1316376
370
     9
100
AcDbLine
 10
716.7565430053623
 20
-250.9545464804446
 30
0.0
 11
707.7182315185712
 21
-250.9545464804446
 31
0.0
  0
SPLINE
  5
EE
330
1F
100
AcDbEntity
  8
FISHER_PAYKEL
 62
   250
420
  1316376
370
     9
100
AcDbSpline
210
0.0
220
0.0
230
1.0
 70
     8
 71
     3
 72
     8
 73
     4
 74
     0
 42
0.000000001
 43
0.0000000001
 40
7.574000000000012
 40
7.574000000000012
 40
7.574000000000012
 40
7.574000000000012
 40
8.574000000000012
 40
8.574000000000012
 40
8.574000000000012
 40
8.574000000000012
 10
707.7182315185712
 20
-250.9545464804446
 30
0.0
 10
707.9122624052902
 20
-253.6392283857717
 30
0.0
 10
709.8525712724779
 20
-255.2055868167379
 30
0.0
 10
711.9904388606885
 20
-255.2055868167379
 30
0.0
  0
SPLINE
  5
EF
330
1F
100
AcDbEntity
  8
FISHER_PAYKEL
 62
   250
420
  1316376
370
     9
100
AcDbSpline
210
0.0
220
0.0
230
1.0
 70
     8
 71
     3
 72
     8
 73
     4
 74
     0
 42
0.000000001
 43
0.0000000001
 40
8.574000000000012
 40
8.574000000000012
 40
8.574000000000012
 40
8.574000000000012
 40
9.574000000000012
 40
9.574000000000012
 40
9.574000000000012
 40
9.574000000000012
 10
711.9904388606885
 20
-255.2055868167379
 30
0.0
 10
713.6767436579898
 20
-255.2055868167379
 30
0.0
 10
714.8374011439987
 20
-254.4682694472065
 30
0.0
 10
715.7299432229049
 20
-253.5122263508283
 30
0.0
  0
LINE
  5
F0
330
1F
100
AcDbEntity
  8
FISHER_PAYKEL
 62
   250
420
  1316376
370
     9
100
AcDbLine
 10
715.7299432229049
 20
-253.5122263508283
 30
0.0
 11
716.4566770895244
 21
-254.1507643598486
 31
0.0
  0
SPLINE
  5
F1
330
1F
100
AcDbEntity
  8
FISHER_PAYKEL
 62
   250
420
  1316376
370
     9
100
AcDbSpline
210
0.0
220
0.0
230
1.0
 70
     8
 71
     3
 72
     8
 73
     4
 74
     0
 42
0.000000001
 43
0.0000000001
 40
9.848220714024357
 40
9.848220714024357
 40
9.848220714024357
 40
9.848220714024357
 40
10.84822071402436
 40
10.84822071402436
 40
10.84822071402436
 40
10.84822071402436
 10
716.4566770895244
 20
-254.1507643598486
 30
0.0
 10
715.3454092837715
 20
-255.3325888516811
 30
0.0
 10
714.0436384256036
 20
-256.1792690846357
 30
0.0
 10
711.9481048490406
 20
-256.1792690846357
 30
0.0
  0
SPLINE
  5
F2
330
1F
100
AcDbEntity
  8
FISHER_PAYKEL
 62
   250
420
  1316376
370
     9
100
AcDbSpline
210
0.0
220
0.0
230
1.0
 70
     8
 71
     3
 72
     8
 73
     4
 74
     0
 42
0.000000001
 43
0.0000000001
 40
10.84822071402436
 40
10.84822071402436
 40
10.84822071402436
 40
10.84822071402436
 40
11.84822071402436
 40
11.84822071402436
 40
11.84822071402436
 40
11.84822071402436
 10
711.9481048490406
 20
-256.1792690846357
 30
0.0
 10
709.0870312285147
 20
-256.1792690846357
 30
0.0
 10
706.6069637128182
 20
-253.9179272957858
 30
0.0
 10
706.6069637128182
 20
-250.552373369791
 30
0.0
  0
SPLINE
  5
F3
330
1F
100
AcDbEntity
  8
FISHER_PAYKEL
 62
   250
420
  1316376
370
     9
100
AcDbSpline
210
0.0
220
0.0
230
1.0
 70
     8
 71
     3
 72
     8
 73
     4
 74
     0
 42
0.000000001
 43
0.0000000001
 40
0.0
 40
0.0
 40
0.0
 40
0.0
 40
1.0
 40
1.0
 40
1.0
 40
1.0
 10
715.6452751996096
 20
-250.0231982241944
 30
0.0
 10
715.4971061588426
 20
-247.84652445864
 30
0.0
 10
714.2376693123224
 20
-245.8356589053726
 30
0.0
 10
711.7364347908022
 20
-245.8356589053726
 30
0.0
  0
SPLINE
  5
F4
330
1F
100
AcDbEntity
  8
FISHER_PAYKEL
 62
   250
420
  1316376
370
     9
100
AcDbSpline
210
0.0
220
0.0
230
1.0
 70
     8
 71
     3
 72
     8
 73
     4
 74
     0
 42
0.000000001
 43
0.0000000001
 40
1.0
 40
1.0
 40
1.0
 40
1.0
 40
2.0
 40
2.0
 40
2.0
 40
2.0
 10
711.7364347908022
 20
-245.8356589053726
 30
0.0
 10
709.5774001967677
 20
-245.8356589053726
 30
0.0
 10
707.9122624052902
 20
-247.6313265660974
 30
0.0
 10
707.7182315185712
 20
-250.0231982241944
 30
0.0
  0
LINE
  5
F5
330
1F
100
AcDbEntity
  8
FISHER_PAYKEL
 62
   250
420
  1316376
370
     9
100
AcDbLine
 10
707.7182315185712
 20
-250.0231982241944
 30
0.0
 11
715.6452751996096
 21
-250.0231982241944
 31
0.0
  0
LINE
  5
F6
330
1F
100
AcDbEntity
  8
FISHER_PAYKEL
 62
   250
420
  1316376
370
     9
100
AcDbLine
 10
718.8594850339637
 20
-254.5709294254523
 30
0.0
 11
719.4803838714636
 21
-253.7489440326256
 31
0.0
  0
SPLINE
  5
F7
330
1F
100
AcDbEntity
  8
FISHER_PAYKEL
 62
   250
420
  1316376
370
     9
100
AcDbSpline
210
0.0
220
0.0
230
1.0
 70
     8
 71
     3
 72
     8
 73
     4
 74
     0
 42
0.000000001
 43
0.0000000001
 40
0.2920017123236627
 40
0.2920017123236627
 40
0.2920017123236627
 40
0.2920017123236627
 40
1.292001712323663
 40
1.292001712323663
 40
1.292001712323663
 40
1.292001712323663
 10
719.4803838714636
 20
-253.7489440326256
 30
0.0
 10
720.6798475348162
 20
-254.6555974487478
 30
0.0
 10
722.0027853988079
 20
-255.1636055885206
 30
0.0
 10
723.3927521145754
 20
-255.1636055885206
 30
0.0
  0
SPLINE
  5
F8
330
1F
100
AcDbEntity
  8
FISHER_PAYKEL
 62
   250
420
  1316376
370
     9
100
AcDbSpline
210
0.0
220
0.0
230
1.0
 70
     8
 71
     3
 72
     8
 73
     4
 74
     0
 42
0.000000001
 43
0.0000000001
 40
1.292001712323663
 40
1.292001712323663
 40
1.292001712323663
 40
1.292001712323663
 40
2.292001712323663
 40
2.292001712323663
 40
2.292001712323663
 40
2.292001712323663
 10
723.3927521145754
 20
-255.1636055885206
 30
0.0
 10
724.8673868536378
 20
-255.1636055885206
 30
0.0
 10
726.0174608367347
 20
-254.3592593672136
 30
0.0
 10
726.0174608367347
 20
-253.1104060236055
 30
0.0
  0
LINE
  5
F9
330
1F
100
AcDbEntity
  8
FISHER_PAYKEL
 62
   250
420
  1316376
370
     9
100
AcDbLine
 10
726.0174608367347
 20
-253.1104060236055
 30
0.0
 11
726.0174608367347
 21
-253.0680720119578
 31
0.0
  0
SPLINE
  5
FA
330
1F
100
AcDbEntity
  8
FISHER_PAYKEL
 62
   250
420
  1316376
370
     9
100
AcDbSpline
210
0.0
220
0.0
230
1.0
 70
     8
 71
     3
 72
     8
 73
     4
 74
     0
 42
0.000000001
 43
0.0000000001
 40
2.304001712323663
 40
2.304001712323663
 40
2.304001712323663
 40
2.304001712323663
 40
3.304001712323663
 40
3.304001712323663
 40
3.304001712323663
 40
3.304001712323663
 10
726.0174608367347
 20
-253.0680720119578
 30
0.0
 10
726.0174608367347
 20
-251.8015794968296
 30
0.0
 10
724.6557167953993
 20
-251.3359053687047
 30
0.0
 10
723.1352202103847
 20
-250.9125652522273
 30
0.0
  0
SPLINE
  5
FB
330
1F
100
AcDbEntity
  8
FISHER_PAYKEL
 62
   250
420
  1316376
370
     9
100
AcDbSpline
210
0.0
220
0.0
230
1.0
 70
     8
 71
     3
 72
     8
 73
     4
 74
     0
 42
0.000000001
 43
0.0000000001
 40
3.304001712323663
 40
3.304001712323663
 40
3.304001712323663
 40
3.304001712323663
 40
4.304001712323663
 40
4.304001712323663
 40
4.304001712323663
 40
4.304001712323663
 10
723.1352202103847
 20
-250.9125652522273
 30
0.0
 10
721.3607195554839
 20
-250.4010292781504
 30
0.0
 10
719.3957158481683
 20
-249.8753819668577
 30
0.0
 10
719.3957158481683
 20
-247.9491844368858
 30
0.0
  0
LINE
  5
FC
330
1F
100
AcDbEntity
  8
FISHER_PAYKEL
 62
   250
420
  1316376
370
     9
100
AcDbLine
 10
719.3957158481683
 20
-247.9491844368858
 30
0.0
 11
719.3957158481683
 21
-247.9068504252382
 31
0.0
  0
SPLINE
  5
FD
330
1F
100
AcDbEntity
  8
FISHER_PAYKEL
 62
   250
420
  1316376
370
     9
100
AcDbSpline
210
0.0
220
0.0
230
1.0
 70
     8
 71
     3
 72
     8
 73
     4
 74
     0
 42
0.000000001
 43
0.0000000001
 40
4.316001712323663
 40
4.316001712323663
 40
4.316001712323663
 40
4.316001712323663
 40
5.316001712323663
 40
5.316001712323663
 40
5.316001712323663
 40
5.316001712323663
 10
719.3957158481683
 20
-247.9068504252382
 30
0.0
 10
719.3957158481683
 20
-246.1711559476812
 30
0.0
 10
720.8703505872309
 20
-244.925830438377
 30
0.0
 10
722.9870511696176
 20
-244.925830438377
 30
0.0
  0
SPLINE
  5
FE
330
1F
100
AcDbEntity
  8
FISHER_PAYKEL
 62
   250
420
  1316376
370
     9
100
AcDbSpline
210
0.0
220
0.0
230
1.0
 70
     8
 71
     3
 72
     8
 73
     4
 74
     0
 42
0.000000001
 43
0.0000000001
 40
5.316001712323663
 40
5.316001712323663
 40
5.316001712323663
 40
5.316001712323663
 40
6.316001712323663
 40
6.316001712323663
 40
6.316001712323663
 40
6.316001712323663
 10
722.9870511696176
 20
-244.925830438377
 30
0.0
 10
724.2888220277853
 20
-244.925830438377
 30
0.0
 10
725.7634567668481
 20
-245.387976732198
 30
0.0
 10
726.8535575667775
 20
-246.1111827645134
 30
0.0
  0
LINE
  5
FF
330
1F
100
AcDbEntity
  8
FISHER_PAYKEL
 62
   250
420
  1316376
370
     9
100
AcDbLine
 10
726.8535575667775
 20
-246.1111827645134
 30
0.0
 11
726.2961597467488
 21
-246.9790300032921
 31
0.0
  0
SPLINE
  5
100
330
1F
100
AcDbEntity
  8
FISHER_PAYKEL
 62
   250
420
  1316376
370
     9
100
AcDbSpline
210
0.0
220
0.0
230
1.0
 70
     8
 71
     3
 72
     8
 73
     4
 74
     0
 42
0.000000001
 43
0.0000000001
 40
6.608371341389377
 40
6.608371341389377
 40
6.608371341389377
 40
6.608371341389377
 40
7.608371341389377
 40
7.608371341389377
 40
7.608371341389377
 40
7.608371341389377
 10
726.2961597467488
 20
-246.9790300032921
 30
0.0
 10
725.2942548044193
 20
-246.3228528227521
 30
0.0
 10
724.0947911410667
 20
-245.8959848719708
 30
0.0
 10
722.9411893236661
 20
-245.8959848719708
 30
0.0
  0
SPLINE
  5
101
330
1F
100
AcDbEntity
  8
FISHER_PAYKEL
 62
   250
420
  1316376
370
     9
100
AcDbSpline
210
0.0
220
0.0
230
1.0
 70
     8
 71
     3
 72
     8
 73
     4
 74
     0
 42
0.000000001
 43
0.0000000001
 40
7.608371341389377
 40
7.608371341389377
 40
7.608371341389377
 40
7.608371341389377
 40
8.608371341389377
 40
8.608371341389377
 40
8.608371341389377
 40
8.608371341389377
 10
722.9411893236661
 20
-245.8959848719708
 30
0.0
 10
721.4453875787794
 20
-245.8959848719708
 30
0.0
 10
720.4646496422733
 20
-246.7038589275817
 30
0.0
 10
720.4646496422733
 20
-247.779848390295
 30
0.0
  0
LINE
  5
102
330
1F
100
AcDbEntity
  8
FISHER_PAYKEL
 62
   250
420
  1316376
370
     9
100
AcDbLine
 10
720.4646496422733
 20
-247.779848390295
 30
0.0
 11
720.4646496422733
 21
-247.8257102362468
 31
0.0
  0
SPLINE
  5
103
330
1F
100
AcDbEntity
  8
FISHER_PAYKEL
 62
   250
420
  1316376
370
     9
100
AcDbSpline
210
0.0
220
0.0
230
1.0
 70
     8
 71
     3
 72
     8
 73
     4
 74
     0
 42
0.000000001
 43
0.0000000001
 40
8.62137134138941
 40
8.62137134138941
 40
8.62137134138941
 40
8.62137134138941
 40
9.62137134138941
 40
9.62137134138941
 40
9.62137134138941
 40
9.62137134138941
 10
720.4646496422733
 20
-247.8257102362468
 30
0.0
 10
720.4646496422733
 20
-249.032229568207
 30
0.0
 10
721.9392843813362
 20
-249.4732088562043
 30
0.0
 10
723.4950593093906
 20
-249.9177159785054
 30
0.0
  0
SPLINE
  5
104
330
1F
100
AcDbEntity
  8
FISHER_PAYKEL
 62
   250
420
  1316376
370
     9
100
AcDbSpline
210
0.0
220
0.0
230
1.0
 70
     8
 71
     3
 72
     8
 73
     4
 74
     0
 42
0.000000001
 43
0.0000000001
 40
9.62137134138941
 40
9.62137134138941
 40
9.62137134138941
 40
9.62137134138941
 40
10.62137134138941
 40
10.62137134138941
 40
10.62137134138941
 40
10.62137134138941
 10
723.4950593093906
 20
-249.9177159785054
 30
0.0
 10
725.2519207927714
 20
-250.4010292781504
 30
0.0
 10
727.0863946308398
 20
-251.0395672871705
 30
0.0
 10
727.0863946308398
 20
-252.9445978113185
 30
0.0
  0
LINE
  5
105
330
1F
100
AcDbEntity
  8
FISHER_PAYKEL
 62
   250
420
  1316376
370
     9
100
AcDbLine
 10
727.0863946308398
 20
-252.9445978113185
 30
0.0
 11
727.0863946308398
 21
-252.9869318229662
 31
0.0
  0
SPLINE
  5
106
330
1F
100
AcDbEntity
  8
FISHER_PAYKEL
 62
   250
420
  1316376
370
     9
100
AcDbSpline
210
0.0
220
0.0
230
1.0
 70
     8
 71
     3
 72
     8
 73
     4
 74
     0
 42
0.000000001
 43
0.0000000001
 40
10.63337134138941
 40
10.63337134138941
 40
10.63337134138941
 40
10.63337134138941
 40
11.63337134138941
 40
11.63337134138941
 40
11.63337134138941
 40
11.63337134138941
 10
727.0863946308398
 20
-252.9869318229662
 30
0.0
 10
727.0863946308398
 20
-254.9096015186342
 30
0.0
 10
725.4212568393623
 20
-256.1372878564184
 30
0.0
 10
723.3292510971035
 20
-256.1372878564184
 30
0.0
  0
SPLINE
  5
107
330
1F
100
AcDbEntity
  8
FISHER_PAYKEL
 62
   250
420
  1316376
370
     9
100
AcDbSpline
210
0.0
220
0.0
230
1.0
 70
     8
 71
     3
 72
     8
 73
     4
 74
     0
 42
0.000000001
 43
0.0000000001
 40
11.63337134138941
 40
11.63337134138941
 40
11.63337134138941
 40
11.63337134138941
 40
12.63337134138941
 40
12.63337134138941
 40
12.63337134138941
 40
12.63337134138941
 10
723.3292510971035
 20
-256.1372878564184
 30
0.0
 10
721.7452538722721
 20
-256.1372878564184
 30
0.0
 10
720.0166155099475
 20
-255.5022779844987
 30
0.0
 10
718.8594850339637
 20
-254.5709294254523
 30
0.0
  0
POLYLINE
  5
108
330
1F
100
AcDbEntity
  8
FISHER_PAYKEL
 62
   250
420
  1316376
370
     9
100
AcDb2dPolyline
 66
     1
 10
0.0
 20
0.0
 30
0.0
  0
VERTEX
  5
109
330
108
100
AcDbEntity
  8
FISHER_PAYKEL
 62
   250
420
  1316376
370
     9
100
AcDbVertex
100
AcDb2dVertex
 10
139.9432868849212
 20
-216.2709963043167
 30
0.0
  0
VERTEX
  5
10A
330
108
100
AcDbEntity
  8
FISHER_PAYKEL
 62
   250
420
  1316376
370
     9
100
AcDbVertex
100
AcDb2dVertex
 10
139.9432868849212
 20
-256.2731094771214
 30
0.0
  0
SEQEND
  5
10B
330
108
100
AcDbEntity
  8
FISHER_PAYKEL
 62
   250
420
  1316376
370
     9
  0
POLYLINE
  5
10C
330
1F
100
AcDbEntity
  8
FISHER_PAYKEL
 62
   250
420
  1316376
370
     9
100
AcDb2dPolyline
 66
     1
 10
0.0
 20
0.0
 30
0.0
 70
     1
  0
VERTEX
  5
10D
330
10C
100
AcDbEntity
  8
FISHER_PAYKEL
 62
   250
420
  1316376
370
     9
100
AcDbVertex
100
AcDb2dVertex
 10
139.9418757511997
 20
-256.2716983434
 30
0.0
  0
VERTEX
  5
10E
330
10C
100
AcDbEntity
  8
FISHER_PAYKEL
 62
   250
420
  1316376
370
     9
100
AcDbVertex
100
AcDb2dVertex
 10
266.943910694402
 20
-256.2716983434
 30
0.0
  0
VERTEX
  5
10F
330
10C
100
AcDbEntity
  8
FISHER_PAYKEL
 62
   250
420
  1316376
370
     9
100
AcDbVertex
100
AcDb2dVertex
 10
266.943910694402
 20
-241.2713468828861
 30
0.0
  0
VERTEX
  5
110
330
10C
100
AcDbEntity
  8
FISHER_PAYKEL
 62
   250
420
  1316376
370
     9
100
AcDbVertex
100
AcDb2dVertex
 10
139.9418757511997
 20
-241.2713468828861
 30
0.0
  0
SEQEND
  5
111
330
10C
100
AcDbEntity
  8
FISHER_PAYKEL
 62
   250
420
  1316376
370
     9
  0
POLYLINE
  5
112
330
1F
100
AcDbEntity
  8
FISHER_PAYKEL
 62
   250
420
  1316376
370
     9
100
AcDb2dPolyline
 66
     1
 10
0.0
 20
0.0
 30
0.0
 70
     1
  0
VERTEX
  5
113
330
112
100
AcDbEntity
  8
FISHER_PAYKEL
 62
   250
420
  1316376
370
     9
100
AcDbVertex
100
AcDb2dVertex
 10
266.943910694402
 20
-241.2713468828861
 30
0.0
  0
VERTEX
  5
114
330
112
100
AcDbEntity
  8
FISHER_PAYKEL
 62
   250
420
  1316376
370
     9
100
AcDbVertex
100
AcDb2dVertex
 10
393.9459456376045
 20
-241.2713468828861
 30
0.0
  0
VERTEX
  5
115
330
112
100
AcDbEntity
  8
FISHER_PAYKEL
 62
   250
420
  1316376
370
     9
100
AcDbVertex
100
AcDb2dVertex
 10
393.9459456376045
 20
-226.2709954223724
 30
0.0
  0
VERTEX
  5
116
330
112
100
AcDbEntity
  8
FISHER_PAYKEL
 62
   250
420
  1316376
370
     9
100
AcDbVertex
100
AcDb2dVertex
 10
266.943910694402
 20
-226.2709954223724
 30
0.0
  0
SEQEND
  5
117
330
112
100
AcDbEntity
  8
FISHER_PAYKEL
 62
   250
420
  1316376
370
     9
  0
POLYLINE
  5
118
330
1F
100
AcDbEntity
  8
FISHER_PAYKEL
 62
   250
420
  1316376
370
     9
100
AcDb2dPolyline
 66
     1
 10
0.0
 20
0.0
 30
0.0
 70
     1
  0
VERTEX
  5
119
330
118
100
AcDbEntity
  8
FISHER_PAYKEL
 62
   250
420
  1316376
370
     9
100
AcDbVertex
100
AcDb2dVertex
 10
393.9459456376045
 20
-256.2716983434
 30
0.0
  0
VERTEX
  5
11A
330
118
100
AcDbEntity
  8
FISHER_PAYKEL
 62
   250
420
  1316376
370
     9
100
AcDbVertex
100
AcDb2dVertex
 10
647.9500155240091
 20
-256.2716983434
 30
0.0
  0
VERTEX
  5
11B
330
118
100
AcDbEntity
  8
FISHER_PAYKEL
 62
   250
420
  1316376
370
     9
100
AcDbVertex
100
AcDb2dVertex
 10
647.9500155240091
 20
-241.2713468828861
 30
0.0
  0
VERTEX
  5
11C
330
118
100
AcDbEntity
  8
FISHER_PAYKEL
 62
   250
420
  1316376
370
     9
100
AcDbVertex
100
AcDb2dVertex
 10
393.9459456376045
 20
-241.2713468828861
 30
0.0
  0
SEQEND
  5
11D
330
118
100
AcDbEntity
  8
FISHER_PAYKEL
 62
   250
420
  1316376
370
     9
  0
POLYLINE
  5
11E
330
1F
100
AcDbEntity
  8
FISHER_PAYKEL
 62
   250
420
  1316376
370
     9
100
AcDb2dPolyline
 66
     1
 10
0.0
 20
0.0
 30
0.0
 70
     1
  0
VERTEX
  5
11F
330
11E
100
AcDbEntity
  8
FISHER_PAYKEL
 62
   250
420
  1316376
370
     9
100
AcDbVertex
100
AcDb2dVertex
 10
139.9418757511997
 20
-256.2716983434
 30
0.0
  0
VERTEX
  5
120
330
11E
100
AcDbEntity
  8
FISHER_PAYKEL
 62
   250
420
  1316376
370
     9
100
AcDbVertex
100
AcDb2dVertex
 10
647.9500155240091
 20
-256.2716983434
 30
0.0
  0
VERTEX
  5
121
330
11E
100
AcDbEntity
  8
FISHER_PAYKEL
 62
   250
420
  1316376
370
     9
100
AcDbVertex
100
AcDb2dVertex
 10
647.9500155240091
 20
-226.2709954223724
 30
0.0
  0
VERTEX
  5
122
330
11E
100
AcDbEntity
  8
FISHER_PAYKEL
 62
   250
420
  1316376
370
     9
100
AcDbVertex
100
AcDb2dVertex
 10
139.9418757511997
 20
-226.2709954223724
 30
0.0
  0
SEQEND
  5
123
330
11E
100
AcDbEntity
  8
FISHER_PAYKEL
 62
   250
420
  1316376
370
     9
  0
POLYLINE
  5
124
330
1F
100
AcDbEntity
  8
FISHER_PAYKEL
 62
   250
420
  1316376
370
     9
100
AcDb2dPolyline
 66
     1
 10
0.0
 20
0.0
 30
0.0
  0
VERTEX
  5
125
330
124
100
AcDbEntity
  8
FISHER_PAYKEL
 62
   250
420
  1316376
370
     9
100
AcDbVertex
100
AcDb2dVertex
 10
647.9514266577305
 20
-216.2709963043167
 30
0.0
  0
VERTEX
  5
126
330
124
100
AcDbEntity
  8
FISHER_PAYKEL
 62
   250
420
  1316376
370
     9
100
AcDbVertex
100
AcDb2dVertex
 10
647.9514266577305
 20
-256.2731094771214
 30
0.0
  0
SEQEND
  5
127
330
124
100
AcDbEntity
  8
FISHER_PAYKEL
 62
   250
420
  1316376
370
     9
  0
POLYLINE
  5
128
330
1F
100
AcDbEntity
  8
FISHER_PAYKEL
 62
   250
420
  1316376
370
     9
100
AcDb2dPolyline
 66
     1
 10
0.0
 20
0.0
 30
0.0
  0
VERTEX
  5
129
330
128
100
AcDbEntity
  8
FISHER_PAYKEL
 62
   250
420
  1316376
370
     9
100
AcDbVertex
100
AcDb2dVertex
 10
393.9473567713259
 20
-216.2709963043167
 30
0.0
  0
VERTEX
  5
12A
330
128
100
AcDbEntity
  8
FISHER_PAYKEL
 62
   250
420
  1316376
370
     9
100
AcDbVertex
100
AcDb2dVertex
 10
393.9473567713259
 20
-256.2731094771214
 30
0.0
  0
SEQEND
  5
12B
330
128
100
AcDbEntity
  8
FISHER_PAYKEL
 62
   250
420
  1316376
370
     9
  0
POLYLINE
  5
12C
330
1F
100
AcDbEntity
  8
FISHER_PAYKEL
 62
   250
420
  1316376
370
     9
100
AcDb2dPolyline
 66
     1
 10
0.0
 20
0.0
 30
0.0
  0
VERTEX
  5
12D
330
12C
100
AcDbEntity
  8
FISHER_PAYKEL
 62
   250
420
  1316376
370
     9
100
AcDbVertex
100
AcDb2dVertex
 10
266.9453218281236
 20
-216.2709963043167
 30
0.0
  0
VERTEX
  5
12E
330
12C
100
AcDbEntity
  8
FISHER_PAYKEL
 62
   250
420
  1316376
370
     9
100
AcDbVertex
100
AcDb2dVertex
 10
266.9453218281236
 20
-256.2731094771214
 30
0.0
  0
SEQEND
  5
12F
330
12C
100
AcDbEntity
  8
FISHER_PAYKEL
 62
   250
420
  1316376
370
     9
  0
POLYLINE
  5
130
330
1F
100
AcDbEntity
  8
FISHER_PAYKEL
100
AcDb2dPolyline
 66
     1
 10
0.0
 20
0.0
 30
0.0
  0
VERTEX
  5
131
330
130
100
AcDbEntity
  8
FISHER_PAYKEL
100
AcDbVertex
100
AcDb2dVertex
 10
139.9418757511997
 20
-132.8116424101482
 30
0.0
  0
VERTEX
  5
132
330
130
100
AcDbEntity
  8
FISHER_PAYKEL
100
AcDbVertex
100
AcDb2dVertex
 10
539.9418757511997
 20
-132.8116424101484
 30
0.0
  0
SEQEND
  5
133
330
130
100
AcDbEntity
  8
FISHER_PAYKEL
  0
POLYLINE
  5
134
330
1F
100
AcDbEntity
  8
FISHER_PAYKEL
 62
   250
420
  1316376
370
     9
100
AcDb2dPolyline
 66
     1
 10
0.0
 20
0.0
 30
0.0
 70
     1
  0
VERTEX
  5
135
330
134
100
AcDbEntity
  8
FISHER_PAYKEL
 62
   250
420
  1316376
370
     9
100
AcDbVertex
100
AcDb2dVertex
 10
225.0530126741356
 20
-84.43621583976858
 30
0.0
  0
VERTEX
  5
136
330
134
100
AcDbEntity
  8
FISHER_PAYKEL
 62
   250
420
  1316376
370
     9
100
AcDbVertex
100
AcDb2dVertex
 10
222.1707720477858
 20
-85.40989810766666
 30
0.0
  0
VERTEX
  5
137
330
134
100
AcDbEntity
  8
FISHER_PAYKEL
 62
   250
420
  1316376
370
     9
100
AcDbVertex
100
AcDb2dVertex
 10
221.8709061319477
 20
-84.54205086888794
 30
0.0
  0
VERTEX
  5
138
330
134
100
AcDbEntity
  8
FISHER_PAYKEL
 62
   250
420
  1316376
370
     9
100
AcDbVertex
100
AcDb2dVertex
 10
225.2858497381982
 20
-83.29319752527988
 30
0.0
  0
VERTEX
  5
139
330
134
100
AcDbEntity
  8
FISHER_PAYKEL
 62
   250
420
  1316376
370
     9
100
AcDbVertex
100
AcDb2dVertex
 10
226.1431134740648
 20
-83.29319752527988
 30
0.0
  0
VERTEX
  5
13A
330
134
100
AcDbEntity
  8
FISHER_PAYKEL
 62
   250
420
  1316376
370
     9
100
AcDbVertex
100
AcDb2dVertex
 10
226.1431134740648
 20
-98.20888096249803
 30
0.0
  0
VERTEX
  5
13B
330
134
100
AcDbEntity
  8
FISHER_PAYKEL
 62
   250
420
  1316376
370
     9
100
AcDbVertex
100
AcDb2dVertex
 10
225.0530126741356
 20
-98.20888096249803
 30
0.0
  0
SEQEND
  5
13C
330
134
100
AcDbEntity
  8
FISHER_PAYKEL
 62
   250
420
  1316376
370
     9
  0
LINE
  5
13D
330
1F
100
AcDbEntity
  8
FISHER_PAYKEL
 62
   250
420
  1316376
370
     9
100
AcDbLine
 10
229.7471489990086
 20
-90.84593798666594
 30
0.0
 11
229.7471489990086
 21
-90.80360397501829
 31
0.0
  0
SPLINE
  5
13E
330
1F
100
AcDbEntity
  8
FISHER_PAYKEL
 62
   250
420
  1316376
370
     9
100
AcDbSpline
210
0.0
220
0.0
230
1.0
 70
     8
 71
     3
 72
     8
 73
     4
 74
     0
 42
0.000000001
 43
0.0000000001
 40
2.012
 40
2.012
 40
2.012
 40
2.012
 40
3.012
 40
3.012
 40
3.012
 40
3.012
 10
229.7471489990086
 20
-90.80360397501829
 30
0.0
 10
229.7471489990086
 20
-86.72189968531609
 30
0.0
 10
232.1637154972335
 20
-83.14467570108229
 30
0.0
 10
235.9667208769216
 20
-83.14467570108229
 30
0.0
  0
SPLINE
  5
13F
330
1F
100
AcDbEntity
  8
FISHER_PAYKEL
 62
   250
420
  1316376
370
     9
100
AcDbSpline
210
0.0
220
0.0
230
1.0
 70
     8
 71
     3
 72
     8
 73
     4
 74
     0
 42
0.000000001
 43
0.0000000001
 40
3.012
 40
3.012
 40
3.012
 40
3.012
 40
4.012
 40
4.012
 40
4.012
 40
4.012
 10
235.9667208769216
 20
-83.14467570108229
 30
0.0
 10
239.7697262566097
 20
-83.14467570108229
 30
0.0
 10
242.1439587431868
 20
-86.67603783936408
 30
0.0
 10
242.1439587431868
 20
-90.76126996337064
 30
0.0
  0
LINE
  5
140
330
1F
100
AcDbEntity
  8
FISHER_PAYKEL
 62
   250
420
  1316376
370
     9
100
AcDbLine
 10
242.1439587431868
 20
-90.76126996337064
 30
0.0
 11
242.1439587431868
 21
-90.80360397501829
 31
0.0
  0
SPLINE
  5
141
330
1F
100
AcDbEntity
  8
FISHER_PAYKEL
 62
   250
420
  1316376
370
     9
100
AcDbSpline
210
0.0
220
0.0
230
1.0
 70
     8
 71
     3
 72
     8
 73
     4
 74
     0
 42
0.000000001
 43
0.0000000001
 40
4.024000000000001
 40
4.024000000000001
 40
4.024000000000001
 40
4.024000000000001
 40
5.024000000000001
 40
5.024000000000001
 40
5.024000000000001
 40
5.024000000000001
 10
242.1439587431868
 20
-90.80360397501829
 30
0.0
 10
242.1439587431868
 20
-94.88883609902462
 30
0.0
 10
239.730920079266
 20
-98.46253224895429
 30
0.0
 10
235.9243868652738
 20
-98.46253224895429
 30
0.0
  0
SPLINE
  5
142
330
1F
100
AcDbEntity
  8
FISHER_PAYKEL
 62
   250
420
  1316376
370
     9
100
AcDbSpline
210
0.0
220
0.0
230
1.0
 70
     8
 71
     3
 72
     8
 73
     4
 74
     0
 42
0.000000001
 43
0.0000000001
 40
5.024000000000001
 40
5.024000000000001
 40
5.024000000000001
 40
5.024000000000001
 40
6.024000000000001
 40
6.024000000000001
 40
6.024000000000001
 40
6.024000000000001
 10
235.9243868652738
 20
-98.46253224895429
 30
0.0
 10
232.1178536512817
 20
-98.46253224895429
 30
0.0
 10
229.7471489990086
 20
-94.92764227636837
 30
0.0
 10
229.7471489990086
 20
-90.84593798666594
 30
0.0
  0
LINE
  5
143
330
1F
100
AcDbEntity
  8
FISHER_PAYKEL
 62
   250
420
  1316376
370
     9
100
AcDbLine
 10
240.990356925786
 20
-90.84593798666594
 30
0.0
 11
240.990356925786
 21
-90.80360397501829
 31
0.0
  0
SPLINE
  5
144
330
1F
100
AcDbEntity
  8
FISHER_PAYKEL
 62
   250
420
  1316376
370
     9
100
AcDbSpline
210
0.0
220
0.0
230
1.0
 70
     8
 71
     3
 72
     8
 73
     4
 74
     0
 42
0.000000001
 43
0.0000000001
 40
0.0120000000000005
 40
0.0120000000000005
 40
0.0120000000000005
 40
0.0120000000000005
 40
1.012
 40
1.012
 40
1.012
 40
1.012
 10
240.990356925786
 20
-90.80360397501829
 30
0.0
 10
240.990356925786
 20
-87.3569098600318
 30
0.0
 10
239.0218253841664
 20
-84.13952497480398
 30
0.0
 10
235.9243868652738
 20
-84.13952497480398
 30
0.0
  0
SPLINE
  5
145
330
1F
100
AcDbEntity
  8
FISHER_PAYKEL
 62
   250
420
  1316376
370
     9
100
AcDbSpline
210
0.0
220
0.0
230
1.0
 70
     8
 71
     3
 72
     8
 73
     4
 74
     0
 42
0.000000001
 43
0.0000000001
 40
1.012
 40
1.012
 40
1.012
 40
1.012
 40
2.012
 40
2.012
 40
2.012
 40
2.012
 10
235.9243868652738
 20
-84.13952497480398
 30
0.0
 10
232.8269483463813
 20
-84.13952497480398
 30
0.0
 10
230.9042786507133
 20
-87.31457584838415
 30
0.0
 10
230.9042786507133
 20
-90.76126996337064
 30
0.0
  0
LINE
  5
146
330
1F
100
AcDbEntity
  8
FISHER_PAYKEL
 62
   250
420
  1316376
370
     9
100
AcDbLine
 10
230.9042786507133
 20
-90.76126996337064
 30
0.0
 11
230.9042786507133
 21
-90.80360397501829
 31
0.0
  0
SPLINE
  5
147
330
1F
100
AcDbEntity
  8
FISHER_PAYKEL
 62
   250
420
  1316376
370
     9
100
AcDbSpline
210
0.0
220
0.0
230
1.0
 70
     8
 71
     3
 72
     8
 73
     4
 74
     0
 42
0.000000001
 43
0.0000000001
 40
2.024000000000001
 40
2.024000000000001
 40
2.024000000000001
 40
2.024000000000001
 40
3.024000000000001
 40
3.024000000000001
 40
3.024000000000001
 40
3.024000000000001
 10
230.9042786507133
 20
-90.80360397501829
 30
0.0
 10
230.9042786507133
 20
-94.22913108418072
 30
0.0
 10
232.8692823580291
 20
-97.4676829752326
 30
0.0
 10
235.9667208769216
 20
-97.4676829752326
 30
0.0
  0
SPLINE
  5
148
330
1F
100
AcDbEntity
  8
FISHER_PAYKEL
 62
   250
420
  1316376
370
     9
100
AcDbSpline
210
0.0
220
0.0
230
1.0
 70
     8
 71
     3
 72
     8
 73
     4
 74
     0
 42
0.000000001
 43
0.0000000001
 40
3.024000000000001
 40
3.024000000000001
 40
3.024000000000001
 40
3.024000000000001
 40
4.024000000000001
 40
4.024000000000001
 40
4.024000000000001
 40
4.024000000000001
 10
235.9667208769216
 20
-97.4676829752326
 30
0.0
 10
239.0676872301181
 20
-97.4676829752326
 30
0.0
 10
240.990356925786
 20
-94.27499293013227
 30
0.0
 10
240.990356925786
 20
-90.84593798666594
 30
0.0
  0
LINE
  5
149
330
1F
100
AcDbEntity
  8
FISHER_PAYKEL
 62
   250
420
  1316376
370
     9
100
AcDbLine
 10
244.8819109465039
 20
-90.84593798666594
 30
0.0
 11
244.8819109465039
 21
-90.80360397501829
 31
0.0
  0
SPLINE
  5
14A
330
1F
100
AcDbEntity
  8
FISHER_PAYKEL
 62
   250
420
  1316376
370
     9
100
AcDbSpline
210
0.0
220
0.0
230
1.0
 70
     8
 71
     3
 72
     8
 73
     4
 74
     0
 42
0.000000001
 43
0.0000000001
 40
2.012
 40
2.012
 40
2.012
 40
2.012
 40
3.012
 40
3.012
 40
3.012
 40
3.012
 10
244.8819109465039
 20
-90.80360397501829
 30
0.0
 10
244.8819109465039
 20
-86.72189968531609
 30
0.0
 10
247.2984774447286
 20
-83.14467570108229
 30
0.0
 10
251.1050106587207
 20
-83.14467570108229
 30
0.0
  0
SPLINE
  5
14B
330
1F
100
AcDbEntity
  8
FISHER_PAYKEL
 62
   250
420
  1316376
370
     9
100
AcDbSpline
210
0.0
220
0.0
230
1.0
 70
     8
 71
     3
 72
     8
 73
     4
 74
     0
 42
0.000000001
 43
0.0000000001
 40
3.012
 40
3.012
 40
3.012
 40
3.012
 40
4.012
 40
4.012
 40
4.012
 40
4.012
 10
251.1050106587207
 20
-83.14467570108229
 30
0.0
 10
254.9080160384088
 20
-83.14467570108229
 30
0.0
 10
257.2787206906819
 20
-86.67603783936408
 30
0.0
 10
257.2787206906819
 20
-90.76126996337064
 30
0.0
  0
LINE
  5
14C
330
1F
100
AcDbEntity
  8
FISHER_PAYKEL
 62
   250
420
  1316376
370
     9
100
AcDbLine
 10
257.2787206906819
 20
-90.76126996337064
 30
0.0
 11
257.2787206906819
 21
-90.80360397501829
 31
0.0
  0
SPLINE
  5
14D
330
1F
100
AcDbEntity
  8
FISHER_PAYKEL
 62
   250
420
  1316376
370
     9
100
AcDbSpline
210
0.0
220
0.0
230
1.0
 70
     8
 71
     3
 72
     8
 73
     4
 74
     0
 42
0.000000001
 43
0.0000000001
 40
4.024000000000001
 40
4.024000000000001
 40
4.024000000000001
 40
4.024000000000001
 40
5.024000000000001
 40
5.024000000000001
 40
5.024000000000001
 40
5.024000000000001
 10
257.2787206906819
 20
-90.80360397501829
 30
0.0
 10
257.2787206906819
 20
-94.88883609902462
 30
0.0
 10
254.865682026761
 20
-98.46253224895429
 30
0.0
 10
251.0591488127691
 20
-98.46253224895429
 30
0.0
  0
SPLINE
  5
14E
330
1F
100
AcDbEntity
  8
FISHER_PAYKEL
 62
   250
420
  1316376
370
     9
100
AcDbSpline
210
0.0
220
0.0
230
1.0
 70
     8
 71
     3
 72
     8
 73
     4
 74
     0
 42
0.000000001
 43
0.0000000001
 40
5.024000000000001
 40
5.024000000000001
 40
5.024000000000001
 40
5.024000000000001
 40
6.024000000000001
 40
6.024000000000001
 40
6.024000000000001
 40
6.024000000000001
 10
251.0591488127691
 20
-98.46253224895429
 30
0.0
 10
247.256143433081
 20
-98.46253224895429
 30
0.0
 10
244.8819109465039
 20
-94.92764227636837
 30
0.0
 10
244.8819109465039
 20
-90.84593798666594
 30
0.0
  0
LINE
  5
14F
330
1F
100
AcDbEntity
  8
FISHER_PAYKEL
 62
   250
420
  1316376
370
     9
100
AcDbLine
 10
256.1251188732812
 20
-90.84593798666594
 30
0.0
 11
256.1251188732812
 21
-90.80360397501829
 31
0.0
  0
SPLINE
  5
150
330
1F
100
AcDbEntity
  8
FISHER_PAYKEL
 62
   250
420
  1316376
370
     9
100
AcDbSpline
210
0.0
220
0.0
230
1.0
 70
     8
 71
     3
 72
     8
 73
     4
 74
     0
 42
0.000000001
 43
0.0000000001
 40
0.0120000000000005
 40
0.0120000000000005
 40
0.0120000000000005
 40
0.0120000000000005
 40
1.012
 40
1.012
 40
1.012
 40
1.012
 10
256.1251188732812
 20
-90.80360397501829
 30
0.0
 10
256.1251188732812
 20
-87.3569098600318
 30
0.0
 10
254.1601151659655
 20
-84.13952497480398
 30
0.0
 10
251.0591488127691
 20
-84.13952497480398
 30
0.0
  0
SPLINE
  5
151
330
1F
100
AcDbEntity
  8
FISHER_PAYKEL
 62
   250
420
  1316376
370
     9
100
AcDbSpline
210
0.0
220
0.0
230
1.0
 70
     8
 71
     3
 72
     8
 73
     4
 74
     0
 42
0.000000001
 43
0.0000000001
 40
1.012
 40
1.012
 40
1.012
 40
1.012
 40
2.012
 40
2.012
 40
2.012
 40
2.012
 10
251.0591488127691
 20
-84.13952497480398
 30
0.0
 10
247.9652381281805
 20
-84.13952497480398
 30
0.0
 10
246.0390405982085
 20
-87.31457584838415
 30
0.0
 10
246.0390405982085
 20
-90.76126996337064
 30
0.0
  0
LINE
  5
152
330
1F
100
AcDbEntity
  8
FISHER_PAYKEL
 62
   250
420
  1316376
370
     9
100
AcDbLine
 10
246.0390405982085
 20
-90.76126996337064
 30
0.0
 11
246.0390405982085
 21
-90.80360397501829
 31
0.0
  0
SPLINE
  5
153
330
1F
100
AcDbEntity
  8
FISHER_PAYKEL
 62
   250
420
  1316376
370
     9
100
AcDbSpline
210
0.0
220
0.0
230
1.0
 70
     8
 71
     3
 72
     8
 73
     4
 74
     0
 42
0.000000001
 43
0.0000000001
 40
2.024000000000001
 40
2.024000000000001
 40
2.024000000000001
 40
2.024000000000001
 40
3.024000000000001
 40
3.024000000000001
 40
3.024000000000001
 40
3.024000000000001
 10
246.0390405982085
 20
-90.80360397501829
 30
0.0
 10
246.0390405982085
 20
-94.22913108418072
 30
0.0
 10
248.0040443055242
 20
-97.4676829752326
 30
0.0
 10
251.1050106587207
 20
-97.4676829752326
 30
0.0
  0
SPLINE
  5
154
330
1F
100
AcDbEntity
  8
FISHER_PAYKEL
 62
   250
420
  1316376
370
     9
100
AcDbSpline
210
0.0
220
0.0
230
1.0
 70
     8
 71
     3
 72
     8
 73
     4
 74
     0
 42
0.000000001
 43
0.0000000001
 40
3.024000000000001
 40
3.024000000000001
 40
3.024000000000001
 40
3.024000000000001
 40
4.024000000000001
 40
4.024000000000001
 40
4.024000000000001
 40
4.024000000000001
 10
251.1050106587207
 20
-97.4676829752326
 30
0.0
 10
254.2024491776133
 20
-97.4676829752326
 30
0.0
 10
256.1251188732812
 20
-94.27499293013227
 30
0.0
 10
256.1251188732812
 20
-90.84593798666594
 30
0.0
  0
LINE
  5
155
330
1F
100
AcDbEntity
  8
FISHER_PAYKEL
 62
   250
420
  1316376
370
     9
100
AcDbLine
 10
319.5330015192577
 20
-97.38301495193662
 30
0.0
 11
325.1105075538467
 21
-92.38760157750414
 31
0.0
  0
SPLINE
  5
156
330
1F
100
AcDbEntity
  8
FISHER_PAYKEL
 62
   250
420
  1316376
370
     9
100
AcDbSpline
210
0.0
220
0.0
230
1.0
 70
     8
 71
     3
 72
     8
 73
     4
 74
     0
 42
0.000000001
 43
0.0000000001
 40
2.122408301906088
 40
2.122408301906088
 40
2.122408301906088
 40
2.122408301906088
 40
3.122408301906088
 40
3.122408301906088
 40
3.122408301906088
 40
3.122408301906088
 10
325.1105075538467
 20
-92.38760157750414
 30
0.0
 10
327.565880229415
 20
-90.16859380030212
 30
0.0
 10
328.4231439652816
 20
-88.89857345087046
 30
0.0
 10
328.4231439652816
 20
-87.33574285420798
 30
0.0
  0
SPLINE
  5
157
330
1F
100
AcDbEntity
  8
FISHER_PAYKEL
 62
   250
420
  1316376
370
     9
100
AcDbSpline
210
0.0
220
0.0
230
1.0
 70
     8
 71
     3
 72
     8
 73
     4
 74
     0
 42
0.000000001
 43
0.0000000001
 40
3.122408301906088
 40
3.122408301906088
 40
3.122408301906088
 40
3.122408301906088
 40
4.122408301906088
 40
4.122408301906088
 40
4.122408301906088
 40
4.122408301906088
 10
328.4231439652816
 20
-87.33574285420798
 30
0.0
 10
328.4231439652816
 20
-85.40954532423609
 30
0.0
 10
326.8391463627958
 20
-84.16069198062803
 30
0.0
 10
325.043478702071
 20
-84.16069198062803
 30
0.0
  0
SPLINE
  5
158
330
1F
100
AcDbEntity
  8
FISHER_PAYKEL
 62
   250
420
  1316376
370
     9
100
AcDbSpline
210
0.0
220
0.0
230
1.0
 70
     8
 71
     3
 72
     8
 73
     4
 74
     0
 42
0.000000001
 43
0.0000000001
 40
4.122408301906088
 40
4.122408301906088
 40
4.122408301906088
 40
4.122408301906088
 40
5.122408301906088
 40
5.122408301906088
 40
5.122408301906088
 40
5.122408301906088
 10
325.043478702071
 20
-84.16069198062803
 30
0.0
 10
323.1419760122269
 20
-84.16069198062803
 30
0.0
 10
321.9072340058345
 20
-85.13437424852611
 30
0.0
 10
320.6654363308346
 20
-86.91240273773053
 30
0.0
  0
LINE
  5
159
330
1F
100
AcDbEntity
  8
FISHER_PAYKEL
 62
   250
420
  1316376
370
     9
100
AcDbLine
 10
320.6654363308346
 20
-86.91240273773053
 30
0.0
 11
319.8328674350955
 21
-86.35853275200623
 31
0.0
  0
SPLINE
  5
15A
330
1F
100
AcDbEntity
  8
FISHER_PAYKEL
 62
   250
420
  1316376
370
     9
100
AcDbSpline
210
0.0
220
0.0
230
1.0
 70
     8
 71
     3
 72
     8
 73
     4
 74
     0
 42
0.000000001
 43
0.0000000001
 40
5.405860237867048
 40
5.405860237867048
 40
5.405860237867048
 40
5.405860237867048
 40
6.405860237867048
 40
6.405860237867048
 40
6.405860237867048
 40
6.405860237867048
 10
319.8328674350955
 20
-86.35853275200623
 30
0.0
 10
321.1346382932635
 20
-84.39352904469035
 30
0.0
 10
322.5246050090308
 20
-83.18700971273017
 30
0.0
 10
325.1528415654942
 20
-83.18700971273017
 30
0.0
  0
SPLINE
  5
15B
330
1F
100
AcDbEntity
  8
FISHER_PAYKEL
 62
   250
420
  1316376
370
     9
100
AcDbSpline
210
0.0
220
0.0
230
1.0
 70
     8
 71
     3
 72
     8
 73
     4
 74
     0
 42
0.000000001
 43
0.0000000001
 40
6.405860237867048
 40
6.405860237867048
 40
6.405860237867048
 40
6.405860237867048
 40
7.405860237867048
 40
7.405860237867048
 40
7.405860237867048
 40
7.405860237867048
 10
325.1528415654942
 20
-83.18700971273017
 30
0.0
 10
327.6964100986623
 20
-83.18700971273017
 30
0.0
 10
329.6014406228103
 20
-84.94387119611099
 30
0.0
 10
329.6014406228103
 20
-87.24754699660855
 30
0.0
  0
LINE
  5
15C
330
1F
100
AcDbEntity
  8
FISHER_PAYKEL
 62
   250
420
  1316376
370
     9
100
AcDbLine
 10
329.6014406228103
 20
-87.24754699660855
 30
0.0
 11
329.6014406228103
 21
-87.29340884256032
 31
0.0
  0
SPLINE
  5
15D
330
1F
100
AcDbEntity
  8
FISHER_PAYKEL
 62
   250
420
  1316376
370
     9
100
AcDbSpline
210
0.0
220
0.0
230
1.0
 70
     8
 71
     3
 72
     8
 73
     4
 74
     0
 42
0.000000001
 43
0.0000000001
 40
7.418860237867025
 40
7.418860237867025
 40
7.418860237867025
 40
7.418860237867025
 40
8.418860237867026
 40
8.418860237867026
 40
8.418860237867026
 40
8.418860237867026
 10
329.6014406228103
 20
-87.29340884256032
 30
0.0
 10
329.6014406228103
 20
-89.32191356734768
 30
0.0
 10
328.4866449827533
 20
-90.6766019400751
 30
0.0
 10
325.8584084262899
 20
-93.04730659234826
 30
0.0
  0
LINE
  5
15E
330
1F
100
AcDbEntity
  8
FISHER_PAYKEL
 62
   250
420
  1316376
370
     9
100
AcDbLine
 10
325.8584084262899
 20
-93.04730659234826
 30
0.0
 11
321.2863351683345
 21
-97.15017788787429
 31
0.0
  0
LINE
  5
15F
330
1F
100
AcDbEntity
  8
FISHER_PAYKEL
 62
   250
420
  1316376
370
     9
100
AcDbLine
 10
321.2863351683345
 20
-97.15017788787429
 30
0.0
 11
329.7496096635774
 21
-97.15017788787429
 31
0.0
  0
LINE
  5
160
330
1F
100
AcDbEntity
  8
FISHER_PAYKEL
 62
   250
420
  1316376
370
     9
100
AcDbLine
 10
329.7496096635774
 20
-97.15017788787429
 30
0.0
 11
329.7496096635774
 21
-98.20852817906768
 31
0.0
  0
LINE
  5
161
330
1F
100
AcDbEntity
  8
FISHER_PAYKEL
 62
   250
420
  1316376
370
     9
100
AcDbLine
 10
329.7496096635774
 20
-98.20852817906768
 30
0.0
 11
319.5330015192575
 21
-98.20852817906768
 31
0.0
  0
LINE
  5
162
330
1F
100
AcDbEntity
  8
FISHER_PAYKEL
 62
   250
420
  1316376
370
     9
100
AcDbLine
 10
319.5330015192575
 20
-98.20852817906768
 30
0.0
 11
319.5330015192577
 21
-97.38301495193662
 31
0.0
  0
LINE
  5
163
330
1F
100
AcDbEntity
  8
FISHER_PAYKEL
 62
   250
420
  1316376
370
     9
100
AcDbLine
 10
332.4678059947923
 20
-90.84593798666594
 30
0.0
 11
332.4678059947923
 21
-90.80360397501829
 31
0.0
  0
SPLINE
  5
164
330
1F
100
AcDbEntity
  8
FISHER_PAYKEL
 62
   250
420
  1316376
370
     9
100
AcDbSpline
210
0.0
220
0.0
230
1.0
 70
     8
 71
     3
 72
     8
 73
     4
 74
     0
 42
0.000000001
 43
0.0000000001
 40
2.012
 40
2.012
 40
2.012
 40
2.012
 40
3.012
 40
3.012
 40
3.012
 40
3.012
 10
332.4678059947923
 20
-90.80360397501829
 30
0.0
 10
332.4678059947923
 20
-86.72189968531609
 30
0.0
 10
334.8843724930171
 20
-83.14467570108229
 30
0.0
 10
338.6909057070092
 20
-83.14467570108229
 30
0.0
  0
SPLINE
  5
165
330
1F
100
AcDbEntity
  8
FISHER_PAYKEL
 62
   250
420
  1316376
370
     9
100
AcDbSpline
210
0.0
220
0.0
230
1.0
 70
     8
 71
     3
 72
     8
 73
     4
 74
     0
 42
0.000000001
 43
0.0000000001
 40
3.012
 40
3.012
 40
3.012
 40
3.012
 40
4.012
 40
4.012
 40
4.012
 40
4.012
 10
338.6909057070092
 20
-83.14467570108229
 30
0.0
 10
342.4939110866972
 20
-83.14467570108229
 30
0.0
 10
344.8646157389704
 20
-86.67603783936408
 30
0.0
 10
344.8646157389704
 20
-90.76126996337064
 30
0.0
  0
LINE
  5
166
330
1F
100
AcDbEntity
  8
FISHER_PAYKEL
 62
   250
420
  1316376
370
     9
100
AcDbLine
 10
344.8646157389704
 20
-90.76126996337064
 30
0.0
 11
344.8646157389704
 21
-90.80360397501829
 31
0.0
  0
SPLINE
  5
167
330
1F
100
AcDbEntity
  8
FISHER_PAYKEL
 62
   250
420
  1316376
370
     9
100
AcDbSpline
210
0.0
220
0.0
230
1.0
 70
     8
 71
     3
 72
     8
 73
     4
 74
     0
 42
0.000000001
 43
0.0000000001
 40
4.024000000000001
 40
4.024000000000001
 40
4.024000000000001
 40
4.024000000000001
 40
5.024000000000001
 40
5.024000000000001
 40
5.024000000000001
 40
5.024000000000001
 10
344.8646157389704
 20
-90.80360397501829
 30
0.0
 10
344.8646157389704
 20
-94.88883609902462
 30
0.0
 10
342.4515770750494
 20
-98.46253224895429
 30
0.0
 10
338.6450438610576
 20
-98.46253224895429
 30
0.0
  0
SPLINE
  5
168
330
1F
100
AcDbEntity
  8
FISHER_PAYKEL
 62
   250
420
  1316376
370
     9
100
AcDbSpline
210
0.0
220
0.0
230
1.0
 70
     8
 71
     3
 72
     8
 73
     4
 74
     0
 42
0.000000001
 43
0.0000000001
 40
5.024000000000001
 40
5.024000000000001
 40
5.024000000000001
 40
5.024000000000001
 40
6.024000000000001
 40
6.024000000000001
 40
6.024000000000001
 40
6.024000000000001
 10
338.6450438610576
 20
-98.46253224895429
 30
0.0
 10
334.8420384813694
 20
-98.46253224895429
 30
0.0
 10
332.4678059947923
 20
-94.92764227636837
 30
0.0
 10
332.4678059947923
 20
-90.84593798666594
 30
0.0
  0
LINE
  5
169
330
1F
100
AcDbEntity
  8
FISHER_PAYKEL
 62
   250
420
  1316376
370
     9
100
AcDbLine
 10
343.7110139215696
 20
-90.84593798666594
 30
0.0
 11
343.7110139215696
 21
-90.80360397501829
 31
0.0
  0
SPLINE
  5
16A
330
1F
100
AcDbEntity
  8
FISHER_PAYKEL
 62
   250
420
  1316376
370
     9
100
AcDbSpline
210
0.0
220
0.0
230
1.0
 70
     8
 71
     3
 72
     8
 73
     4
 74
     0
 42
0.000000001
 43
0.0000000001
 40
0.0120000000000005
 40
0.0120000000000005
 40
0.0120000000000005
 40
0.0120000000000005
 40
1.012
 40
1.012
 40
1.012
 40
1.012
 10
343.7110139215696
 20
-90.80360397501829
 30
0.0
 10
343.7110139215696
 20
-87.3569098600318
 30
0.0
 10
341.7460102142539
 20
-84.13952497480398
 30
0.0
 10
338.6450438610576
 20
-84.13952497480398
 30
0.0
  0
SPLINE
  5
16B
330
1F
100
AcDbEntity
  8
FISHER_PAYKEL
 62
   250
420
  1316376
370
     9
100
AcDbSpline
210
0.0
220
0.0
230
1.0
 70
     8
 71
     3
 72
     8
 73
     4
 74
     0
 42
0.000000001
 43
0.0000000001
 40
1.012
 40
1.012
 40
1.012
 40
1.012
 40
2.012
 40
2.012
 40
2.012
 40
2.012
 10
338.6450438610576
 20
-84.13952497480398
 30
0.0
 10
335.551133176469
 20
-84.13952497480398
 30
0.0
 10
333.6249356464971
 20
-87.31457584838415
 30
0.0
 10
333.6249356464971
 20
-90.76126996337064
 30
0.0
  0
LINE
  5
16C
330
1F
100
AcDbEntity
  8
FISHER_PAYKEL
 62
   250
420
  1316376
370
     9
100
AcDbLine
 10
333.6249356464971
 20
-90.76126996337064
 30
0.0
 11
333.6249356464971
 21
-90.80360397501829
 31
0.0
  0
SPLINE
  5
16D
330
1F
100
AcDbEntity
  8
FISHER_PAYKEL
 62
   250
420
  1316376
370
     9
100
AcDbSpline
210
0.0
220
0.0
230
1.0
 70
     8
 71
     3
 72
     8
 73
     4
 74
     0
 42
0.000000001
 43
0.0000000001
 40
2.024000000000001
 40
2.024000000000001
 40
2.024000000000001
 40
2.024000000000001
 40
3.024000000000001
 40
3.024000000000001
 40
3.024000000000001
 40
3.024000000000001
 10
333.6249356464971
 20
-90.80360397501829
 30
0.0
 10
333.6249356464971
 20
-94.22913108418072
 30
0.0
 10
335.5899393538125
 20
-97.4676829752326
 30
0.0
 10
338.6909057070092
 20
-97.4676829752326
 30
0.0
  0
SPLINE
  5
16E
330
1F
100
AcDbEntity
  8
FISHER_PAYKEL
 62
   250
420
  1316376
370
     9
100
AcDbSpline
210
0.0
220
0.0
230
1.0
 70
     8
 71
     3
 72
     8
 73
     4
 74
     0
 42
0.000000001
 43
0.0000000001
 40
3.024000000000001
 40
3.024000000000001
 40
3.024000000000001
 40
3.024000000000001
 40
4.024000000000001
 40
4.024000000000001
 40
4.024000000000001
 40
4.024000000000001
 10
338.6909057070092
 20
-97.4676829752326
 30
0.0
 10
341.7883442259017
 20
-97.4676829752326
 30
0.0
 10
343.7110139215696
 20
-94.27499293013227
 30
0.0
 10
343.7110139215696
 20
-90.84593798666594
 30
0.0
  0
LINE
  5
16F
330
1F
100
AcDbEntity
  8
FISHER_PAYKEL
 62
   250
420
  1316376
370
     9
100
AcDbLine
 10
347.6057429931611
 20
-90.84593798666594
 30
0.0
 11
347.6057429931611
 21
-90.80360397501829
 31
0.0
  0
SPLINE
  5
170
330
1F
100
AcDbEntity
  8
FISHER_PAYKEL
 62
   250
420
  1316376
370
     9
100
AcDbSpline
210
0.0
220
0.0
230
1.0
 70
     8
 71
     3
 72
     8
 73
     4
 74
     0
 42
0.000000001
 43
0.0000000001
 40
2.012
 40
2.012
 40
2.012
 40
2.012
 40
3.012
 40
3.012
 40
3.012
 40
3.012
 10
347.6057429931611
 20
-90.80360397501829
 30
0.0
 10
347.6057429931611
 20
-86.72189968531609
 30
0.0
 10
350.022309491386
 20
-83.14467570108229
 30
0.0
 10
353.8288427053782
 20
-83.14467570108229
 30
0.0
  0
SPLINE
  5
171
330
1F
100
AcDbEntity
  8
FISHER_PAYKEL
 62
   250
420
  1316376
370
     9
100
AcDbSpline
210
0.0
220
0.0
230
1.0
 70
     8
 71
     3
 72
     8
 73
     4
 74
     0
 42
0.000000001
 43
0.0000000001
 40
3.012
 40
3.012
 40
3.012
 40
3.012
 40
4.012
 40
4.012
 40
4.012
 40
4.012
 10
353.8288427053782
 20
-83.14467570108229
 30
0.0
 10
357.6318480850662
 20
-83.14467570108229
 30
0.0
 10
360.0025527373393
 20
-86.67603783936408
 30
0.0
 10
360.0025527373393
 20
-90.76126996337064
 30
0.0
  0
LINE
  5
172
330
1F
100
AcDbEntity
  8
FISHER_PAYKEL
 62
   250
420
  1316376
370
     9
100
AcDbLine
 10
360.0025527373393
 20
-90.76126996337064
 30
0.0
 11
360.0025527373393
 21
-90.80360397501829
 31
0.0
  0
SPLINE
  5
173
330
1F
100
AcDbEntity
  8
FISHER_PAYKEL
 62
   250
420
  1316376
370
     9
100
AcDbSpline
210
0.0
220
0.0
230
1.0
 70
     8
 71
     3
 72
     8
 73
     4
 74
     0
 42
0.000000001
 43
0.0000000001
 40
4.024000000000001
 40
4.024000000000001
 40
4.024000000000001
 40
4.024000000000001
 40
5.024000000000001
 40
5.024000000000001
 40
5.024000000000001
 40
5.024000000000001
 10
360.0025527373393
 20
-90.80360397501829
 30
0.0
 10
360.0025527373393
 20
-94.88883609902462
 30
0.0
 10
357.5895140734184
 20
-98.46253224895429
 30
0.0
 10
353.7829808594264
 20
-98.46253224895429
 30
0.0
  0
SPLINE
  5
174
330
1F
100
AcDbEntity
  8
FISHER_PAYKEL
 62
   250
420
  1316376
370
     9
100
AcDbSpline
210
0.0
220
0.0
230
1.0
 70
     8
 71
     3
 72
     8
 73
     4
 74
     0
 42
0.000000001
 43
0.0000000001
 40
5.024000000000001
 40
5.024000000000001
 40
5.024000000000001
 40
5.024000000000001
 40
6.024000000000001
 40
6.024000000000001
 40
6.024000000000001
 40
6.024000000000001
 10
353.7829808594264
 20
-98.46253224895429
 30
0.0
 10
349.9799754797382
 20
-98.46253224895429
 30
0.0
 10
347.6057429931611
 20
-94.92764227636837
 30
0.0
 10
347.6057429931611
 20
-90.84593798666594
 30
0.0
  0
LINE
  5
175
330
1F
100
AcDbEntity
  8
FISHER_PAYKEL
 62
   250
420
  1316376
370
     9
100
AcDbLine
 10
358.8489509199386
 20
-90.84593798666594
 30
0.0
 11
358.8489509199386
 21
-90.80360397501829
 31
0.0
  0
SPLINE
  5
176
330
1F
100
AcDbEntity
  8
FISHER_PAYKEL
 62
   250
420
  1316376
370
     9
100
AcDbSpline
210
0.0
220
0.0
230
1.0
 70
     8
 71
     3
 72
     8
 73
     4
 74
     0
 42
0.000000001
 43
0.0000000001
 40
0.0120000000000005
 40
0.0120000000000005
 40
0.0120000000000005
 40
0.0120000000000005
 40
1.012
 40
1.012
 40
1.012
 40
1.012
 10
358.8489509199386
 20
-90.80360397501829
 30
0.0
 10
358.8489509199386
 20
-87.3569098600318
 30
0.0
 10
356.8839472126228
 20
-84.13952497480398
 30
0.0
 10
353.7829808594264
 20
-84.13952497480398
 30
0.0
  0
SPLINE
  5
177
330
1F
100
AcDbEntity
  8
FISHER_PAYKEL
 62
   250
420
  1316376
370
     9
100
AcDbSpline
210
0.0
220
0.0
230
1.0
 70
     8
 71
     3
 72
     8
 73
     4
 74
     0
 42
0.000000001
 43
0.0000000001
 40
1.012
 40
1.012
 40
1.012
 40
1.012
 40
2.012
 40
2.012
 40
2.012
 40
2.012
 10
353.7829808594264
 20
-84.13952497480398
 30
0.0
 10
350.6890701748379
 20
-84.13952497480398
 30
0.0
 10
348.762872644866
 20
-87.31457584838415
 30
0.0
 10
348.762872644866
 20
-90.76126996337064
 30
0.0
  0
LINE
  5
178
330
1F
100
AcDbEntity
  8
FISHER_PAYKEL
 62
   250
420
  1316376
370
     9
100
AcDbLine
 10
348.762872644866
 20
-90.76126996337064
 30
0.0
 11
348.762872644866
 21
-90.80360397501829
 31
0.0
  0
SPLINE
  5
179
330
1F
100
AcDbEntity
  8
FISHER_PAYKEL
 62
   250
420
  1316376
370
     9
100
AcDbSpline
210
0.0
220
0.0
230
1.0
 70
     8
 71
     3
 72
     8
 73
     4
 74
     0
 42
0.000000001
 43
0.0000000001
 40
2.024000000000001
 40
2.024000000000001
 40
2.024000000000001
 40
2.024000000000001
 40
3.024000000000001
 40
3.024000000000001
 40
3.024000000000001
 40
3.024000000000001
 10
348.762872644866
 20
-90.80360397501829
 30
0.0
 10
348.762872644866
 20
-94.22913108418072
 30
0.0
 10
350.7278763521815
 20
-97.4676829752326
 30
0.0
 10
353.8288427053782
 20
-97.4676829752326
 30
0.0
  0
SPLINE
  5
17A
330
1F
100
AcDbEntity
  8
FISHER_PAYKEL
 62
   250
420
  1316376
370
     9
100
AcDbSpline
210
0.0
220
0.0
230
1.0
 70
     8
 71
     3
 72
     8
 73
     4
 74
     0
 42
0.000000001
 43
0.0000000001
 40
3.024000000000001
 40
3.024000000000001
 40
3.024000000000001
 40
3.024000000000001
 40
4.024000000000001
 40
4.024000000000001
 40
4.024000000000001
 40
4.024000000000001
 10
353.8288427053782
 20
-97.4676829752326
 30
0.0
 10
356.9262812242705
 20
-97.4676829752326
 30
0.0
 10
358.8489509199386
 20
-94.27499293013227
 30
0.0
 10
358.8489509199386
 20
-90.84593798666594
 30
0.0
  0
POLYLINE
  5
17B
330
1F
100
AcDbEntity
  8
FISHER_PAYKEL
 62
   250
420
  1316376
370
     9
100
AcDb2dPolyline
 66
     1
 10
0.0
 20
0.0
 30
0.0
 70
     1
  0
VERTEX
  5
17C
330
17B
100
AcDbEntity
  8
FISHER_PAYKEL
 62
   250
420
  1316376
370
     9
100
AcDbVertex
100
AcDb2dVertex
 10
527.230718331649
 20
-94.59073410033818
 30
0.0
  0
VERTEX
  5
17D
330
17B
100
AcDbEntity
  8
FISHER_PAYKEL
 62
   250
420
  1316376
370
     9
100
AcDbVertex
100
AcDb2dVertex
 10
519.1308107697158
 20
-94.59073410033818
 30
0.0
  0
VERTEX
  5
17E
330
17B
100
AcDbEntity
  8
FISHER_PAYKEL
 62
   250
420
  1316376
370
     9
100
AcDbVertex
100
AcDb2dVertex
 10
518.7462768305824
 20
-93.76522087320734
 30
0.0
  0
VERTEX
  5
17F
330
17B
100
AcDbEntity
  8
FISHER_PAYKEL
 62
   250
420
  1316376
370
     9
100
AcDbVertex
100
AcDb2dVertex
 10
527.2942193491205
 20
-83.29460865900103
 30
0.0
  0
VERTEX
  5
180
330
17B
100
AcDbEntity
  8
FISHER_PAYKEL
 62
   250
420
  1316376
370
     9
100
AcDbVertex
100
AcDb2dVertex
 10
528.2996521257543
 20
-83.29460865900103
 30
0.0
  0
VERTEX
  5
181
330
17B
100
AcDbEntity
  8
FISHER_PAYKEL
 62
   250
420
  1316376
370
     9
100
AcDbVertex
100
AcDb2dVertex
 10
528.2996521257543
 20
-93.63821883826438
 30
0.0
  0
VERTEX
  5
182
330
17B
100
AcDbEntity
  8
FISHER_PAYKEL
 62
   250
420
  1316376
370
     9
100
AcDbVertex
100
AcDb2dVertex
 10
530.7338577954989
 20
-93.63821883826438
 30
0.0
  0
VERTEX
  5
183
330
17B
100
AcDbEntity
  8
FISHER_PAYKEL
 62
   250
420
  1316376
370
     9
100
AcDbVertex
100
AcDb2dVertex
 10
530.7338577954989
 20
-94.59073410033818
 30
0.0
  0
VERTEX
  5
184
330
17B
100
AcDbEntity
  8
FISHER_PAYKEL
 62
   250
420
  1316376
370
     9
100
AcDbVertex
100
AcDb2dVertex
 10
528.2996521257543
 20
-94.59073410033818
 30
0.0
  0
VERTEX
  5
185
330
17B
100
AcDbEntity
  8
FISHER_PAYKEL
 62
   250
420
  1316376
370
     9
100
AcDbVertex
100
AcDb2dVertex
 10
528.2996521257543
 20
-98.20676426191551
 30
0.0
  0
VERTEX
  5
186
330
17B
100
AcDbEntity
  8
FISHER_PAYKEL
 62
   250
420
  1316376
370
     9
100
AcDbVertex
100
AcDb2dVertex
 10
527.230718331649
 20
-98.20676426191551
 30
0.0
  0
SEQEND
  5
187
330
17B
100
AcDbEntity
  8
FISHER_PAYKEL
 62
   250
420
  1316376
370
     9
  0
POLYLINE
  5
188
330
1F
100
AcDbEntity
  8
FISHER_PAYKEL
 62
   250
420
  1316376
370
     9
100
AcDb2dPolyline
 66
     1
 10
0.0
 20
0.0
 30
0.0
 70
     1
  0
VERTEX
  5
189
330
188
100
AcDbEntity
  8
FISHER_PAYKEL
 62
   250
420
  1316376
370
     9
100
AcDbVertex
100
AcDb2dVertex
 10
527.230718331649
 20
-93.63821883826438
 30
0.0
  0
VERTEX
  5
18A
330
188
100
AcDbEntity
  8
FISHER_PAYKEL
 62
   250
420
  1316376
370
     9
100
AcDbVertex
100
AcDb2dVertex
 10
527.230718331649
 20
-84.88213409579123
 30
0.0
  0
VERTEX
  5
18B
330
188
100
AcDbEntity
  8
FISHER_PAYKEL
 62
   250
420
  1316376
370
     9
100
AcDbVertex
100
AcDb2dVertex
 10
520.0939095347018
 20
-93.63821883826438
 30
0.0
  0
SEQEND
  5
18C
330
188
100
AcDbEntity
  8
FISHER_PAYKEL
 62
   250
420
  1316376
370
     9
  0
LINE
  5
18D
330
1F
100
AcDbEntity
  8
FISHER_PAYKEL
 62
   250
420
  1316376
370
     9
100
AcDbLine
 10
533.2615510742991
 20
-90.84593798666594
 30
0.0
 11
533.2615510742991
 21
-90.80360397501829
 31
0.0
  0
SPLINE
  5
18E
330
1F
100
AcDbEntity
  8
FISHER_PAYKEL
 62
   250
420
  1316376
370
     9
100
AcDbSpline
210
0.0
220
0.0
230
1.0
 70
     8
 71
     3
 72
     8
 73
     4
 74
     0
 42
0.000000001
 43
0.0000000001
 40
2.012
 40
2.012
 40
2.012
 40
2.012
 40
3.012
 40
3.012
 40
3.012
 40
3.012
 10
533.2615510742991
 20
-90.80360397501829
 30
0.0
 10
533.2615510742991
 20
-86.72189968531609
 30
0.0
 10
535.6781175725238
 20
-83.14467570108229
 30
0.0
 10
539.4811229522121
 20
-83.14467570108229
 30
0.0
  0
SPLINE
  5
18F
330
1F
100
AcDbEntity
  8
FISHER_PAYKEL
 62
   250
420
  1316376
370
     9
100
AcDbSpline
210
0.0
220
0.0
230
1.0
 70
     8
 71
     3
 72
     8
 73
     4
 74
     0
 42
0.000000001
 43
0.0000000001
 40
3.012
 40
3.012
 40
3.012
 40
3.012
 40
4.012
 40
4.012
 40
4.012
 40
4.012
 10
539.4811229522121
 20
-83.14467570108229
 30
0.0
 10
543.2841283319
 20
-83.14467570108229
 30
0.0
 10
545.6583608184773
 20
-86.67603783936408
 30
0.0
 10
545.6583608184773
 20
-90.76126996337064
 30
0.0
  0
LINE
  5
190
330
1F
100
AcDbEntity
  8
FISHER_PAYKEL
 62
   250
420
  1316376
370
     9
100
AcDbLine
 10
545.6583608184773
 20
-90.76126996337064
 30
0.0
 11
545.6583608184773
 21
-90.80360397501829
 31
0.0
  0
SPLINE
  5
191
330
1F
100
AcDbEntity
  8
FISHER_PAYKEL
 62
   250
420
  1316376
370
     9
100
AcDbSpline
210
0.0
220
0.0
230
1.0
 70
     8
 71
     3
 72
     8
 73
     4
 74
     0
 42
0.000000001
 43
0.0000000001
 40
4.024000000000001
 40
4.024000000000001
 40
4.024000000000001
 40
4.024000000000001
 40
5.024000000000001
 40
5.024000000000001
 40
5.024000000000001
 40
5.024000000000001
 10
545.6583608184773
 20
-90.80360397501829
 30
0.0
 10
545.6583608184773
 20
-94.88883609902462
 30
0.0
 10
543.2453221545562
 20
-98.46253224895429
 30
0.0
 10
539.4387889405645
 20
-98.46253224895429
 30
0.0
  0
SPLINE
  5
192
330
1F
100
AcDbEntity
  8
FISHER_PAYKEL
 62
   250
420
  1316376
370
     9
100
AcDbSpline
210
0.0
220
0.0
230
1.0
 70
     8
 71
     3
 72
     8
 73
     4
 74
     0
 42
0.000000001
 43
0.0000000001
 40
5.024000000000001
 40
5.024000000000001
 40
5.024000000000001
 40
5.024000000000001
 40
6.024000000000001
 40
6.024000000000001
 40
6.024000000000001
 40
6.024000000000001
 10
539.4387889405645
 20
-98.46253224895429
 30
0.0
 10
535.6322557265722
 20
-98.46253224895429
 30
0.0
 10
533.2615510742991
 20
-94.92764227636837
 30
0.0
 10
533.2615510742991
 20
-90.84593798666594
 30
0.0
  0
LINE
  5
193
330
1F
100
AcDbEntity
  8
FISHER_PAYKEL
 62
   250
420
  1316376
370
     9
100
AcDbLine
 10
544.5047590010764
 20
-90.84593798666594
 30
0.0
 11
544.5047590010764
 21
-90.80360397501829
 31
0.0
  0
SPLINE
  5
194
330
1F
100
AcDbEntity
  8
FISHER_PAYKEL
 62
   250
420
  1316376
370
     9
100
AcDbSpline
210
0.0
220
0.0
230
1.0
 70
     8
 71
     3
 72
     8
 73
     4
 74
     0
 42
0.000000001
 43
0.0000000001
 40
0.0120000000000005
 40
0.0120000000000005
 40
0.0120000000000005
 40
0.0120000000000005
 40
1.012
 40
1.012
 40
1.012
 40
1.012
 10
544.5047590010764
 20
-90.80360397501829
 30
0.0
 10
544.5047590010764
 20
-87.3569098600318
 30
0.0
 10
542.5362274594569
 20
-84.13952497480398
 30
0.0
 10
539.4387889405645
 20
-84.13952497480398
 30
0.0
  0
SPLINE
  5
195
330
1F
100
AcDbEntity
  8
FISHER_PAYKEL
 62
   250
420
  1316376
370
     9
100
AcDbSpline
210
0.0
220
0.0
230
1.0
 70
     8
 71
     3
 72
     8
 73
     4
 74
     0
 42
0.000000001
 43
0.0000000001
 40
1.012
 40
1.012
 40
1.012
 40
1.012
 40
2.012
 40
2.012
 40
2.012
 40
2.012
 10
539.4387889405645
 20
-84.13952497480398
 30
0.0
 10
536.3413504216716
 20
-84.13952497480398
 30
0.0
 10
534.4186807260038
 20
-87.31457584838415
 30
0.0
 10
534.4186807260038
 20
-90.76126996337064
 30
0.0
  0
LINE
  5
196
330
1F
100
AcDbEntity
  8
FISHER_PAYKEL
 62
   250
420
  1316376
370
     9
100
AcDbLine
 10
534.4186807260038
 20
-90.76126996337064
 30
0.0
 11
534.4186807260038
 21
-90.80360397501829
 31
0.0
  0
SPLINE
  5
197
330
1F
100
AcDbEntity
  8
FISHER_PAYKEL
 62
   250
420
  1316376
370
     9
100
AcDbSpline
210
0.0
220
0.0
230
1.0
 70
     8
 71
     3
 72
     8
 73
     4
 74
     0
 42
0.000000001
 43
0.0000000001
 40
2.024000000000001
 40
2.024000000000001
 40
2.024000000000001
 40
2.024000000000001
 40
3.024000000000001
 40
3.024000000000001
 40
3.024000000000001
 40
3.024000000000001
 10
534.4186807260038
 20
-90.80360397501829
 30
0.0
 10
534.4186807260038
 20
-94.22913108418072
 30
0.0
 10
536.3836844333194
 20
-97.4676829752326
 30
0.0
 10
539.4811229522121
 20
-97.4676829752326
 30
0.0
  0
SPLINE
  5
198
330
1F
100
AcDbEntity
  8
FISHER_PAYKEL
 62
   250
420
  1316376
370
     9
100
AcDbSpline
210
0.0
220
0.0
230
1.0
 70
     8
 71
     3
 72
     8
 73
     4
 74
     0
 42
0.000000001
 43
0.0000000001
 40
3.024000000000001
 40
3.024000000000001
 40
3.024000000000001
 40
3.024000000000001
 40
4.024000000000001
 40
4.024000000000001
 40
4.024000000000001
 40
4.024000000000001
 10
539.4811229522121
 20
-97.4676829752326
 30
0.0
 10
542.5820893054084
 20
-97.4676829752326
 30
0.0
 10
544.5047590010764
 20
-94.27499293013227
 30
0.0
 10
544.5047590010764
 20
-90.84593798666594
 30
0.0
  0
LINE
  5
199
330
1F
100
AcDbEntity
  8
FISHER_PAYKEL
 62
   250
420
  1316376
370
     9
100
AcDbLine
 10
548.3994880726679
 20
-90.84593798666594
 30
0.0
 11
548.3994880726679
 21
-90.80360397501829
 31
0.0
  0
SPLINE
  5
19A
330
1F
100
AcDbEntity
  8
FISHER_PAYKEL
 62
   250
420
  1316376
370
     9
100
AcDbSpline
210
0.0
220
0.0
230
1.0
 70
     8
 71
     3
 72
     8
 73
     4
 74
     0
 42
0.000000001
 43
0.0000000001
 40
2.012
 40
2.012
 40
2.012
 40
2.012
 40
3.012
 40
3.012
 40
3.012
 40
3.012
 10
548.3994880726679
 20
-90.80360397501829
 30
0.0
 10
548.3994880726679
 20
-86.72189968531609
 30
0.0
 10
550.8160545708928
 20
-83.14467570108229
 30
0.0
 10
554.6190599505811
 20
-83.14467570108229
 30
0.0
  0
SPLINE
  5
19B
330
1F
100
AcDbEntity
  8
FISHER_PAYKEL
 62
   250
420
  1316376
370
     9
100
AcDbSpline
210
0.0
220
0.0
230
1.0
 70
     8
 71
     3
 72
     8
 73
     4
 74
     0
 42
0.000000001
 43
0.0000000001
 40
3.012
 40
3.012
 40
3.012
 40
3.012
 40
4.012
 40
4.012
 40
4.012
 40
4.012
 10
554.6190599505811
 20
-83.14467570108229
 30
0.0
 10
558.422065330269
 20
-83.14467570108229
 30
0.0
 10
560.796297816846
 20
-86.67603783936408
 30
0.0
 10
560.796297816846
 20
-90.76126996337064
 30
0.0
  0
LINE
  5
19C
330
1F
100
AcDbEntity
  8
FISHER_PAYKEL
 62
   250
420
  1316376
370
     9
100
AcDbLine
 10
560.796297816846
 20
-90.76126996337064
 30
0.0
 11
560.796297816846
 21
-90.80360397501829
 31
0.0
  0
SPLINE
  5
19D
330
1F
100
AcDbEntity
  8
FISHER_PAYKEL
 62
   250
420
  1316376
370
     9
100
AcDbSpline
210
0.0
220
0.0
230
1.0
 70
     8
 71
     3
 72
     8
 73
     4
 74
     0
 42
0.000000001
 43
0.0000000001
 40
4.024000000000001
 40
4.024000000000001
 40
4.024000000000001
 40
4.024000000000001
 40
5.024000000000001
 40
5.024000000000001
 40
5.024000000000001
 40
5.024000000000001
 10
560.796297816846
 20
-90.80360397501829
 30
0.0
 10
560.796297816846
 20
-94.88883609902462
 30
0.0
 10
558.3832591529252
 20
-98.46253224895429
 30
0.0
 10
554.5767259389332
 20
-98.46253224895429
 30
0.0
  0
SPLINE
  5
19E
330
1F
100
AcDbEntity
  8
FISHER_PAYKEL
 62
   250
420
  1316376
370
     9
100
AcDbSpline
210
0.0
220
0.0
230
1.0
 70
     8
 71
     3
 72
     8
 73
     4
 74
     0
 42
0.000000001
 43
0.0000000001
 40
5.024000000000001
 40
5.024000000000001
 40
5.024000000000001
 40
5.024000000000001
 40
6.024000000000001
 40
6.024000000000001
 40
6.024000000000001
 40
6.024000000000001
 10
554.5767259389332
 20
-98.46253224895429
 30
0.0
 10
550.770192724941
 20
-98.46253224895429
 30
0.0
 10
548.3994880726679
 20
-94.92764227636837
 30
0.0
 10
548.3994880726679
 20
-90.84593798666594
 30
0.0
  0
LINE
  5
19F
330
1F
100
AcDbEntity
  8
FISHER_PAYKEL
 62
   250
420
  1316376
370
     9
100
AcDbLine
 10
559.6426959994452
 20
-90.84593798666594
 30
0.0
 11
559.6426959994452
 21
-90.80360397501829
 31
0.0
  0
SPLINE
  5
1A0
330
1F
100
AcDbEntity
  8
FISHER_PAYKEL
 62
   250
420
  1316376
370
     9
100
AcDbSpline
210
0.0
220
0.0
230
1.0
 70
     8
 71
     3
 72
     8
 73
     4
 74
     0
 42
0.000000001
 43
0.0000000001
 40
0.0120000000000005
 40
0.0120000000000005
 40
0.0120000000000005
 40
0.0120000000000005
 40
1.012
 40
1.012
 40
1.012
 40
1.012
 10
559.6426959994452
 20
-90.80360397501829
 30
0.0
 10
559.6426959994452
 20
-87.3569098600318
 30
0.0
 10
557.6741644578257
 20
-84.13952497480398
 30
0.0
 10
554.5767259389332
 20
-84.13952497480398
 30
0.0
  0
SPLINE
  5
1A1
330
1F
100
AcDbEntity
  8
FISHER_PAYKEL
 62
   250
420
  1316376
370
     9
100
AcDbSpline
210
0.0
220
0.0
230
1.0
 70
     8
 71
     3
 72
     8
 73
     4
 74
     0
 42
0.000000001
 43
0.0000000001
 40
1.012
 40
1.012
 40
1.012
 40
1.012
 40
2.012
 40
2.012
 40
2.012
 40
2.012
 10
554.5767259389332
 20
-84.13952497480398
 30
0.0
 10
551.4792874200406
 20
-84.13952497480398
 30
0.0
 10
549.5566177243728
 20
-87.31457584838415
 30
0.0
 10
549.5566177243728
 20
-90.76126996337064
 30
0.0
  0
LINE
  5
1A2
330
1F
100
AcDbEntity
  8
FISHER_PAYKEL
 62
   250
420
  1316376
370
     9
100
AcDbLine
 10
549.5566177243728
 20
-90.76126996337064
 30
0.0
 11
549.5566177243728
 21
-90.80360397501829
 31
0.0
  0
SPLINE
  5
1A3
330
1F
100
AcDbEntity
  8
FISHER_PAYKEL
 62
   250
420
  1316376
370
     9
100
AcDbSpline
210
0.0
220
0.0
230
1.0
 70
     8
 71
     3
 72
     8
 73
     4
 74
     0
 42
0.000000001
 43
0.0000000001
 40
2.024000000000001
 40
2.024000000000001
 40
2.024000000000001
 40
2.024000000000001
 40
3.024000000000001
 40
3.024000000000001
 40
3.024000000000001
 40
3.024000000000001
 10
549.5566177243728
 20
-90.80360397501829
 30
0.0
 10
549.5566177243728
 20
-94.22913108418072
 30
0.0
 10
551.5216214316882
 20
-97.4676829752326
 30
0.0
 10
554.6190599505811
 20
-97.4676829752326
 30
0.0
  0
SPLINE
  5
1A4
330
1F
100
AcDbEntity
  8
FISHER_PAYKEL
 62
   250
420
  1316376
370
     9
100
AcDbSpline
210
0.0
220
0.0
230
1.0
 70
     8
 71
     3
 72
     8
 73
     4
 74
     0
 42
0.000000001
 43
0.0000000001
 40
3.024000000000001
 40
3.024000000000001
 40
3.024000000000001
 40
3.024000000000001
 40
4.024000000000001
 40
4.024000000000001
 40
4.024000000000001
 40
4.024000000000001
 10
554.6190599505811
 20
-97.4676829752326
 30
0.0
 10
557.7200263037774
 20
-97.4676829752326
 30
0.0
 10
559.6426959994452
 20
-94.27499293013227
 30
0.0
 10
559.6426959994452
 20
-90.84593798666594
 30
0.0
  0
LINE
  5
1A5
330
1F
100
AcDbEntity
  8
FISHER_PAYKEL
 62
   250
420
  1316376
370
     9
100
AcDbLine
 10
133.7445468682899
 20
-90.84593798666594
 30
0.0
 11
133.7445468682899
 21
-90.80360397501829
 31
0.0
  0
SPLINE
  5
1A6
330
1F
100
AcDbEntity
  8
FISHER_PAYKEL
 62
   250
420
  1316376
370
     9
100
AcDbSpline
210
0.0
220
0.0
230
1.0
 70
     8
 71
     3
 72
     8
 73
     4
 74
     0
 42
0.000000001
 43
0.0000000001
 40
2.012
 40
2.012
 40
2.012
 40
2.012
 40
3.012
 40
3.012
 40
3.012
 40
3.012
 10
133.7445468682899
 20
-90.80360397501829
 30
0.0
 10
133.7445468682899
 20
-86.72189968531609
 30
0.0
 10
136.1611133665147
 20
-83.14467570108229
 30
0.0
 10
139.9676465805068
 20
-83.14467570108229
 30
0.0
  0
SPLINE
  5
1A7
330
1F
100
AcDbEntity
  8
FISHER_PAYKEL
 62
   250
420
  1316376
370
     9
100
AcDbSpline
210
0.0
220
0.0
230
1.0
 70
     8
 71
     3
 72
     8
 73
     4
 74
     0
 42
0.000000001
 43
0.0000000001
 40
3.012
 40
3.012
 40
3.012
 40
3.012
 40
4.012
 40
4.012
 40
4.012
 40
4.012
 10
139.9676465805068
 20
-83.14467570108229
 30
0.0
 10
143.7706519601951
 20
-83.14467570108229
 30
0.0
 10
146.1413566124681
 20
-86.67603783936408
 30
0.0
 10
146.1413566124681
 20
-90.76126996337064
 30
0.0
  0
LINE
  5
1A8
330
1F
100
AcDbEntity
  8
FISHER_PAYKEL
 62
   250
420
  1316376
370
     9
100
AcDbLine
 10
146.1413566124681
 20
-90.76126996337064
 30
0.0
 11
146.1413566124681
 21
-90.80360397501829
 31
0.0
  0
SPLINE
  5
1A9
330
1F
100
AcDbEntity
  8
FISHER_PAYKEL
 62
   250
420
  1316376
370
     9
100
AcDbSpline
210
0.0
220
0.0
230
1.0
 70
     8
 71
     3
 72
     8
 73
     4
 74
     0
 42
0.000000001
 43
0.0000000001
 40
4.024000000000001
 40
4.024000000000001
 40
4.024000000000001
 40
4.024000000000001
 40
5.024000000000001
 40
5.024000000000001
 40
5.024000000000001
 40
5.024000000000001
 10
146.1413566124681
 20
-90.80360397501829
 30
0.0
 10
146.1413566124681
 20
-94.88883609902462
 30
0.0
 10
143.7283179485472
 20
-98.46253224895429
 30
0.0
 10
139.9217847345551
 20
-98.46253224895429
 30
0.0
  0
SPLINE
  5
1AA
330
1F
100
AcDbEntity
  8
FISHER_PAYKEL
 62
   250
420
  1316376
370
     9
100
AcDbSpline
210
0.0
220
0.0
230
1.0
 70
     8
 71
     3
 72
     8
 73
     4
 74
     0
 42
0.000000001
 43
0.0000000001
 40
5.024000000000001
 40
5.024000000000001
 40
5.024000000000001
 40
5.024000000000001
 40
6.024000000000001
 40
6.024000000000001
 40
6.024000000000001
 40
6.024000000000001
 10
139.9217847345551
 20
-98.46253224895429
 30
0.0
 10
136.118779354867
 20
-98.46253224895429
 30
0.0
 10
133.7445468682899
 20
-94.92764227636837
 30
0.0
 10
133.7445468682899
 20
-90.84593798666594
 30
0.0
  0
LINE
  5
1AB
330
1F
100
AcDbEntity
  8
FISHER_PAYKEL
 62
   250
420
  1316376
370
     9
100
AcDbLine
 10
144.9877547950674
 20
-90.84593798666594
 30
0.0
 11
144.9877547950674
 21
-90.80360397501829
 31
0.0
  0
SPLINE
  5
1AC
330
1F
100
AcDbEntity
  8
FISHER_PAYKEL
 62
   250
420
  1316376
370
     9
100
AcDbSpline
210
0.0
220
0.0
230
1.0
 70
     8
 71
     3
 72
     8
 73
     4
 74
     0
 42
0.000000001
 43
0.0000000001
 40
0.0120000000000005
 40
0.0120000000000005
 40
0.0120000000000005
 40
0.0120000000000005
 40
1.012
 40
1.012
 40
1.012
 40
1.012
 10
144.9877547950674
 20
-90.80360397501829
 30
0.0
 10
144.9877547950674
 20
-87.3569098600318
 30
0.0
 10
143.0227510877518
 20
-84.13952497480398
 30
0.0
 10
139.9217847345551
 20
-84.13952497480398
 30
0.0
  0
SPLINE
  5
1AD
330
1F
100
AcDbEntity
  8
FISHER_PAYKEL
 62
   250
420
  1316376
370
     9
100
AcDbSpline
210
0.0
220
0.0
230
1.0
 70
     8
 71
     3
 72
     8
 73
     4
 74
     0
 42
0.000000001
 43
0.0000000001
 40
1.012
 40
1.012
 40
1.012
 40
1.012
 40
2.012
 40
2.012
 40
2.012
 40
2.012
 10
139.9217847345551
 20
-84.13952497480398
 30
0.0
 10
136.8278740499667
 20
-84.13952497480398
 30
0.0
 10
134.9016765199947
 20
-87.31457584838415
 30
0.0
 10
134.9016765199947
 20
-90.76126996337064
 30
0.0
  0
LINE
  5
1AE
330
1F
100
AcDbEntity
  8
FISHER_PAYKEL
 62
   250
420
  1316376
370
     9
100
AcDbLine
 10
134.9016765199947
 20
-90.76126996337064
 30
0.0
 11
134.9016765199947
 21
-90.80360397501829
 31
0.0
  0
SPLINE
  5
1AF
330
1F
100
AcDbEntity
  8
FISHER_PAYKEL
 62
   250
420
  1316376
370
     9
100
AcDbSpline
210
0.0
220
0.0
230
1.0
 70
     8
 71
     3
 72
     8
 73
     4
 74
     0
 42
0.000000001
 43
0.0000000001
 40
2.024000000000001
 40
2.024000000000001
 40
2.024000000000001
 40
2.024000000000001
 40
3.024000000000001
 40
3.024000000000001
 40
3.024000000000001
 40
3.024000000000001
 10
134.9016765199947
 20
-90.80360397501829
 30
0.0
 10
134.9016765199947
 20
-94.22913108418072
 30
0.0
 10
136.8666802273104
 20
-97.4676829752326
 30
0.0
 10
139.9676465805068
 20
-97.4676829752326
 30
0.0
  0
SPLINE
  5
1B0
330
1F
100
AcDbEntity
  8
FISHER_PAYKEL
 62
   250
420
  1316376
370
     9
100
AcDbSpline
210
0.0
220
0.0
230
1.0
 70
     8
 71
     3
 72
     8
 73
     4
 74
     0
 42
0.000000001
 43
0.0000000001
 40
3.024000000000001
 40
3.024000000000001
 40
3.024000000000001
 40
3.024000000000001
 40
4.024000000000001
 40
4.024000000000001
 40
4.024000000000001
 40
4.024000000000001
 10
139.9676465805068
 20
-97.4676829752326
 30
0.0
 10
143.0650850993994
 20
-97.4676829752326
 30
0.0
 10
144.9877547950674
 20
-94.27499293013227
 30
0.0
 10
144.9877547950674
 20
-90.84593798666594
 30
0.0
  0
POLYLINE
  5
1B1
330
1F
100
AcDbEntity
  8
FISHER_PAYKEL
 62
   250
420
  1316376
370
     9
100
AcDb2dPolyline
 66
     1
 10
0.0
 20
0.0
 30
0.0
 70
     1
  0
VERTEX
  5
1B2
330
1B1
100
AcDbEntity
  8
FISHER_PAYKEL
 62
   250
420
  1316376
370
     9
100
AcDbVertex
100
AcDb2dVertex
 10
554.9471485408509
 20
-132.6525384059554
 30
0.0
  0
VERTEX
  5
1B3
330
1B1
100
AcDbEntity
  8
FISHER_PAYKEL
 62
   250
420
  1316376
370
     9
100
AcDbVertex
100
AcDb2dVertex
 10
555.9949153291324
 20
-132.6525384059554
 30
0.0
  0
VERTEX
  5
1B4
330
1B1
100
AcDbEntity
  8
FISHER_PAYKEL
 62
   250
420
  1316376
370
     9
100
AcDbVertex
100
AcDb2dVertex
 10
561.9992893145028
 20
-141.4121509827324
 30
0.0
  0
VERTEX
  5
1B5
330
1B1
100
AcDbEntity
  8
FISHER_PAYKEL
 62
   250
420
  1316376
370
     9
100
AcDbVertex
100
AcDb2dVertex
 10
568.0036632998732
 20
-132.6525384059554
 30
0.0
  0
VERTEX
  5
1B6
330
1B1
100
AcDbEntity
  8
FISHER_PAYKEL
 62
   250
420
  1316376
370
     9
100
AcDbVertex
100
AcDb2dVertex
 10
569.0514300881545
 20
-132.6525384059554
 30
0.0
  0
VERTEX
  5
1B7
330
1B1
100
AcDbEntity
  8
FISHER_PAYKEL
 62
   250
420
  1316376
370
     9
100
AcDbVertex
100
AcDb2dVertex
 10
569.0514300881545
 20
-147.4623868140544
 30
0.0
  0
VERTEX
  5
1B8
330
1B1
100
AcDbEntity
  8
FISHER_PAYKEL
 62
   250
420
  1316376
370
     9
100
AcDbVertex
100
AcDb2dVertex
 10
567.9436901167054
 20
-147.4623868140544
 30
0.0
  0
VERTEX
  5
1B9
330
1B1
100
AcDbEntity
  8
FISHER_PAYKEL
 62
   250
420
  1316376
370
     9
100
AcDbVertex
100
AcDb2dVertex
 10
567.9436901167054
 20
-134.5999029417511
 30
0.0
  0
VERTEX
  5
1BA
330
1B1
100
AcDbEntity
  8
FISHER_PAYKEL
 62
   250
420
  1316376
370
     9
100
AcDbVertex
100
AcDb2dVertex
 10
562.0239841546305
 20
-143.1266784544656
 30
0.0
  0
VERTEX
  5
1BB
330
1B1
100
AcDbEntity
  8
FISHER_PAYKEL
 62
   250
420
  1316376
370
     9
100
AcDbVertex
100
AcDb2dVertex
 10
561.9357882970311
 20
-143.1266784544656
 30
0.0
  0
VERTEX
  5
1BC
330
1B1
100
AcDbEntity
  8
FISHER_PAYKEL
 62
   250
420
  1316376
370
     9
100
AcDbVertex
100
AcDb2dVertex
 10
556.0196101692601
 20
-134.5999029417511
 30
0.0
  0
VERTEX
  5
1BD
330
1B1
100
AcDbEntity
  8
FISHER_PAYKEL
 62
   250
420
  1316376
370
     9
100
AcDbVertex
100
AcDb2dVertex
 10
556.0196101692601
 20
-147.4623868140544
 30
0.0
  0
VERTEX
  5
1BE
330
1B1
100
AcDbEntity
  8
FISHER_PAYKEL
 62
   250
420
  1316376
370
     9
100
AcDbVertex
100
AcDb2dVertex
 10
554.9471485408509
 20
-147.4623868140544
 30
0.0
  0
SEQEND
  5
1BF
330
1B1
100
AcDbEntity
  8
FISHER_PAYKEL
 62
   250
420
  1316376
370
     9
  0
POLYLINE
  5
1C0
330
1F
100
AcDbEntity
  8
FISHER_PAYKEL
 62
   250
420
  1316376
370
     9
100
AcDb2dPolyline
 66
     1
 10
0.0
 20
0.0
 30
0.0
 70
     1
  0
VERTEX
  5
1C1
330
1C0
100
AcDbEntity
  8
FISHER_PAYKEL
 62
   250
420
  1316376
370
     9
100
AcDbVertex
100
AcDb2dVertex
 10
573.2439083750015
 20
-132.4440433985905
 30
0.0
  0
VERTEX
  5
1C2
330
1C0
100
AcDbEntity
  8
FISHER_PAYKEL
 62
   250
420
  1316376
370
     9
100
AcDbVertex
100
AcDb2dVertex
 10
574.5492070674735
 20
-132.4440433985905
 30
0.0
  0
VERTEX
  5
1C3
330
1C0
100
AcDbEntity
  8
FISHER_PAYKEL
 62
   250
420
  1316376
370
     9
100
AcDbVertex
100
AcDb2dVertex
 10
574.5492070674735
 20
-133.8587049544857
 30
0.0
  0
VERTEX
  5
1C4
330
1C0
100
AcDbEntity
  8
FISHER_PAYKEL
 62
   250
420
  1316376
370
     9
100
AcDbVertex
100
AcDb2dVertex
 10
573.2439083750015
 20
-133.8587049544857
 30
0.0
  0
SEQEND
  5
1C5
330
1C0
100
AcDbEntity
  8
FISHER_PAYKEL
 62
   250
420
  1316376
370
     9
  0
POLYLINE
  5
1C6
330
1F
100
AcDbEntity
  8
FISHER_PAYKEL
 62
   250
420
  1316376
370
     9
100
AcDb2dPolyline
 66
     1
 10
0.0
 20
0.0
 30
0.0
 70
     1
  0
VERTEX
  5
1C7
330
1C6
100
AcDbEntity
  8
FISHER_PAYKEL
 62
   250
420
  1316376
370
     9
100
AcDbVertex
100
AcDb2dVertex
 10
573.3744382442488
 20
-136.6739167290597
 30
0.0
  0
VERTEX
  5
1C8
330
1C6
100
AcDbEntity
  8
FISHER_PAYKEL
 62
   250
420
  1316376
370
     9
100
AcDbVertex
100
AcDb2dVertex
 10
574.4222050325303
 20
-136.6739167290597
 30
0.0
  0
VERTEX
  5
1C9
330
1C6
100
AcDbEntity
  8
FISHER_PAYKEL
 62
   250
420
  1316376
370
     9
100
AcDbVertex
100
AcDb2dVertex
 10
574.4222050325303
 20
-147.4655618649282
 30
0.0
  0
VERTEX
  5
1CA
330
1C6
100
AcDbEntity
  8
FISHER_PAYKEL
 62
   250
420
  1316376
370
     9
100
AcDbVertex
100
AcDb2dVertex
 10
573.3744382442488
 20
-147.4655618649282
 30
0.0
  0
SEQEND
  5
1CB
330
1C6
100
AcDbEntity
  8
FISHER_PAYKEL
 62
   250
420
  1316376
370
     9
  0
POLYLINE
  5
1CC
330
1F
100
AcDbEntity
  8
FISHER_PAYKEL
 62
   250
420
  1316376
370
     9
100
AcDb2dPolyline
 66
     1
 10
0.0
 20
0.0
 30
0.0
 70
     1
  0
VERTEX
  5
1CD
330
1CC
100
AcDbEntity
  8
FISHER_PAYKEL
 62
   250
420
  1316376
370
     9
100
AcDbVertex
100
AcDb2dVertex
 10
578.6661897002156
 20
-132.0171754478089
 30
0.0
  0
VERTEX
  5
1CE
330
1CC
100
AcDbEntity
  8
FISHER_PAYKEL
 62
   250
420
  1316376
370
     9
100
AcDbVertex
100
AcDb2dVertex
 10
579.713956488497
 20
-132.0171754478089
 30
0.0
  0
VERTEX
  5
1CF
330
1CC
100
AcDbEntity
  8
FISHER_PAYKEL
 62
   250
420
  1316376
370
     9
100
AcDbVertex
100
AcDb2dVertex
 10
579.713956488497
 20
-147.4620340306238
 30
0.0
  0
VERTEX
  5
1D0
330
1CC
100
AcDbEntity
  8
FISHER_PAYKEL
 62
   250
420
  1316376
370
     9
100
AcDbVertex
100
AcDb2dVertex
 10
578.6661897002156
 20
-147.4620340306238
 30
0.0
  0
SEQEND
  5
1D1
330
1CC
100
AcDbEntity
  8
FISHER_PAYKEL
 62
   250
420
  1316376
370
     9
  0
POLYLINE
  5
1D2
330
1F
100
AcDbEntity
  8
FISHER_PAYKEL
 62
   250
420
  1316376
370
     9
100
AcDb2dPolyline
 66
     1
 10
0.0
 20
0.0
 30
0.0
 70
     1
  0
VERTEX
  5
1D3
330
1D2
100
AcDbEntity
  8
FISHER_PAYKEL
 62
   250
420
  1316376
370
     9
100
AcDbVertex
100
AcDb2dVertex
 10
583.9614689904862
 20
-132.0171754478089
 30
0.0
  0
VERTEX
  5
1D4
330
1D2
100
AcDbEntity
  8
FISHER_PAYKEL
 62
   250
420
  1316376
370
     9
100
AcDbVertex
100
AcDb2dVertex
 10
585.0092357787679
 20
-132.0171754478089
 30
0.0
  0
VERTEX
  5
1D5
330
1D2
100
AcDbEntity
  8
FISHER_PAYKEL
 62
   250
420
  1316376
370
     9
100
AcDbVertex
100
AcDb2dVertex
 10
585.0092357787679
 20
-147.4620340306238
 30
0.0
  0
VERTEX
  5
1D6
330
1D2
100
AcDbEntity
  8
FISHER_PAYKEL
 62
   250
420
  1316376
370
     9
100
AcDbVertex
100
AcDb2dVertex
 10
583.9614689904862
 20
-147.4620340306238
 30
0.0
  0
SEQEND
  5
1D7
330
1D2
100
AcDbEntity
  8
FISHER_PAYKEL
 62
   250
420
  1316376
370
     9
  0
POLYLINE
  5
1D8
330
1F
100
AcDbEntity
  8
FISHER_PAYKEL
 62
   250
420
  1316376
370
     9
100
AcDb2dPolyline
 66
     1
 10
0.0
 20
0.0
 30
0.0
 70
     1
  0
VERTEX
  5
1D9
330
1D8
100
AcDbEntity
  8
FISHER_PAYKEL
 62
   250
420
  1316376
370
     9
100
AcDbVertex
100
AcDb2dVertex
 10
589.1297462458139
 20
-132.4440433985905
 30
0.0
  0
VERTEX
  5
1DA
330
1D8
100
AcDbEntity
  8
FISHER_PAYKEL
 62
   250
420
  1316376
370
     9
100
AcDbVertex
100
AcDb2dVertex
 10
590.4315171039817
 20
-132.4440433985905
 30
0.0
  0
VERTEX
  5
1DB
330
1D8
100
AcDbEntity
  8
FISHER_PAYKEL
 62
   250
420
  1316376
370
     9
100
AcDbVertex
100
AcDb2dVertex
 10
590.4315171039817
 20
-133.8587049544857
 30
0.0
  0
VERTEX
  5
1DC
330
1D8
100
AcDbEntity
  8
FISHER_PAYKEL
 62
   250
420
  1316376
370
     9
100
AcDbVertex
100
AcDb2dVertex
 10
589.1297462458139
 20
-133.8587049544857
 30
0.0
  0
SEQEND
  5
1DD
330
1D8
100
AcDbEntity
  8
FISHER_PAYKEL
 62
   250
420
  1316376
370
     9
  0
POLYLINE
  5
1DE
330
1F
100
AcDbEntity
  8
FISHER_PAYKEL
 62
   250
420
  1316376
370
     9
100
AcDb2dPolyline
 66
     1
 10
0.0
 20
0.0
 30
0.0
 70
     1
  0
VERTEX
  5
1DF
330
1DE
100
AcDbEntity
  8
FISHER_PAYKEL
 62
   250
420
  1316376
370
     9
100
AcDbVertex
100
AcDb2dVertex
 10
589.256748280757
 20
-136.6739167290597
 30
0.0
  0
VERTEX
  5
1E0
330
1DE
100
AcDbEntity
  8
FISHER_PAYKEL
 62
   250
420
  1316376
370
     9
100
AcDbVertex
100
AcDb2dVertex
 10
590.3045150690385
 20
-136.6739167290597
 30
0.0
  0
VERTEX
  5
1E1
330
1DE
100
AcDbEntity
  8
FISHER_PAYKEL
 62
   250
420
  1316376
370
     9
100
AcDbVertex
100
AcDb2dVertex
 10
590.3045150690385
 20
-147.4655618649282
 30
0.0
  0
VERTEX
  5
1E2
330
1DE
100
AcDbEntity
  8
FISHER_PAYKEL
 62
   250
420
  1316376
370
     9
100
AcDbVertex
100
AcDb2dVertex
 10
589.256748280757
 20
-147.4655618649282
 30
0.0
  0
SEQEND
  5
1E3
330
1DE
100
AcDbEntity
  8
FISHER_PAYKEL
 62
   250
420
  1316376
370
     9
  0
LINE
  5
1E4
330
1F
100
AcDbEntity
  8
FISHER_PAYKEL
 62
   250
420
  1316376
370
     9
100
AcDbLine
 10
594.4010362628175
 20
-136.673211162199
 30
0.0
 11
595.4488030510989
 21
-136.673211162199
 31
0.0
  0
LINE
  5
1E5
330
1F
100
AcDbEntity
  8
FISHER_PAYKEL
 62
   250
420
  1316376
370
     9
100
AcDbLine
 10
595.4488030510989
 20
-136.673211162199
 30
0.0
 11
595.4488030510989
 21
-138.5994086921709
 31
0.0
  0
SPLINE
  5
1E6
330
1F
100
AcDbEntity
  8
FISHER_PAYKEL
 62
   250
420
  1316376
370
     9
100
AcDbSpline
210
0.0
220
0.0
230
1.0
 70
     8
 71
     3
 72
     8
 73
     4
 74
     0
 42
0.000000001
 43
0.0000000001
 40
0.8430000000000177
 40
0.8430000000000177
 40
0.8430000000000177
 40
0.8430000000000177
 40
1.843000000000018
 40
1.843000000000018
 40
1.843000000000018
 40
1.843000000000018
 10
595.4488030510989
 20
-138.5994086921709
 30
0.0
 10
596.1543699118946
 20
-137.4810852178097
 30
0.0
 10
597.1351078484
 20
-136.4192070923126
 30
0.0
 10
599.082472384196
 20
-136.4192070923126
 30
0.0
  0
SPLINE
  5
1E7
330
1F
100
AcDbEntity
  8
FISHER_PAYKEL
 62
   250
420
  1316376
370
     9
100
AcDbSpline
210
0.0
220
0.0
230
1.0
 70
     8
 71
     3
 72
     8
 73
     4
 74
     0
 42
0.000000001
 43
0.0000000001
 40
1.843000000000018
 40
1.843000000000018
 40
1.843000000000018
 40
1.843000000000018
 40
2.843000000000018
 40
2.843000000000018
 40
2.843000000000018
 40
2.843000000000018
 10
599.082472384196
 20
-136.4192070923126
 30
0.0
 10
600.9839750740401
 20
-136.4192070923126
 30
0.0
 10
602.1587438972648
 20
-137.4987243893296
 30
0.0
 10
602.7584757289409
 20
-138.7475777329381
 30
0.0
  0
SPLINE
  5
1E8
330
1F
100
AcDbEntity
  8
FISHER_PAYKEL
 62
   250
420
  1316376
370
     9
100
AcDbSpline
210
0.0
220
0.0
230
1.0
 70
     8
 71
     3
 72
     8
 73
     4
 74
     0
 42
0.000000001
 43
0.0000000001
 40
2.843000000000018
 40
2.843000000000018
 40
2.843000000000018
 40
2.843000000000018
 40
3.843000000000018
 40
3.843000000000018
 40
3.843000000000018
 40
3.843000000000018
 10
602.7584757289409
 20
-138.7475777329381
 30
0.0
 10
603.4605147554324
 20
-137.5410584009772
 30
0.0
 10
604.6352835786571
 20
-136.4192070923126
 30
0.0
 10
606.6884831435722
 20
-136.4192070923126
 30
0.0
  0
SPLINE
  5
1E9
330
1F
100
AcDbEntity
  8
FISHER_PAYKEL
 62
   250
420
  1316376
370
     9
100
AcDbSpline
210
0.0
220
0.0
230
1.0
 70
     8
 71
     3
 72
     8
 73
     4
 74
     0
 42
0.000000001
 43
0.0000000001
 40
3.843000000000018
 40
3.843000000000018
 40
3.843000000000018
 40
3.843000000000018
 40
4.843000000000018
 40
4.843000000000018
 40
4.843000000000018
 40
4.843000000000018
 10
606.6884831435722
 20
-136.4192070923126
 30
0.0
 10
609.2779135226918
 20
-136.4192070923126
 30
0.0
 10
610.8795502966979
 20
-138.2148747530374
 30
0.0
 10
610.8795502966979
 20
-140.9242514984923
 30
0.0
  0
LINE
  5
1EA
330
1F
100
AcDbEntity
  8
FISHER_PAYKEL
 62
   250
420
  1316376
370
     9
100
AcDbLine
 10
610.8795502966979
 20
-140.9242514984923
 30
0.0
 11
610.8795502966979
 21
-147.4648562980673
 31
0.0
  0
LINE
  5
1EB
330
1F
100
AcDbEntity
  8
FISHER_PAYKEL
 62
   250
420
  1316376
370
     9
100
AcDbLine
 10
610.8795502966979
 20
-147.4648562980673
 30
0.0
 11
609.8317835084166
 21
-147.4648562980673
 31
0.0
  0
LINE
  5
1EC
330
1F
100
AcDbEntity
  8
FISHER_PAYKEL
 62
   250
420
  1316376
370
     9
100
AcDbLine
 10
609.8317835084166
 20
-147.4648562980673
 30
0.0
 11
609.8317835084166
 21
-141.0512535334354
 31
0.0
  0
SPLINE
  5
1ED
330
1F
100
AcDbEntity
  8
FISHER_PAYKEL
 62
   250
420
  1316376
370
     9
100
AcDbSpline
210
0.0
220
0.0
230
1.0
 70
     8
 71
     3
 72
     8
 73
     4
 74
     0
 42
0.000000001
 43
0.0000000001
 40
8.812000000000069
 40
8.812000000000069
 40
8.812000000000069
 40
8.812000000000069
 40
9.812000000000069
 40
9.812000000000069
 40
9.812000000000069
 40
9.812000000000069
 10
609.8317835084166
 20
-141.0512535334354
 30
0.0
 10
609.8317835084166
 20
-138.7264107271141
 30
0.0
 10
608.6111528392402
 20
-137.3717223543864
 30
0.0
 10
606.6038151202769
 20
-137.3717223543864
 30
0.0
  0
SPLINE
  5
1EE
330
1F
100
AcDbEntity
  8
FISHER_PAYKEL
 62
   250
420
  1316376
370
     9
100
AcDbSpline
210
0.0
220
0.0
230
1.0
 70
     8
 71
     3
 72
     8
 73
     4
 74
     0
 42
0.000000001
 43
0.0000000001
 40
9.812000000000069
 40
9.812000000000069
 40
9.812000000000069
 40
9.812000000000069
 40
10.81200000000007
 40
10.81200000000007
 40
10.81200000000007
 40
10.81200000000007
 10
606.6038151202769
 20
-137.3717223543864
 30
0.0
 10
604.7658134479044
 20
-137.3717223543864
 30
0.0
 10
603.1606488395945
 20
-138.7687447387617
 30
0.0
 10
603.1606488395945
 20
-141.1782555683786
 30
0.0
  0
LINE
  5
1EF
330
1F
100
AcDbEntity
  8
FISHER_PAYKEL
 62
   250
420
  1316376
370
     9
100
AcDbLine
 10
603.1606488395945
 20
-141.1782555683786
 30
0.0
 11
603.1606488395945
 21
-147.4648562980673
 31
0.0
  0
LINE
  5
1F0
330
1F
100
AcDbEntity
  8
FISHER_PAYKEL
 62
   250
420
  1316376
370
     9
100
AcDbLine
 10
603.1606488395945
 20
-147.4648562980673
 30
0.0
 11
602.1164098856169
 21
-147.4648562980673
 31
0.0
  0
LINE
  5
1F1
330
1F
100
AcDbEntity
  8
FISHER_PAYKEL
 62
   250
420
  1316376
370
     9
100
AcDbLine
 10
602.1164098856169
 20
-147.4648562980673
 30
0.0
 11
602.1164098856169
 21
-140.9912803502679
 31
0.0
  0
SPLINE
  5
1F2
330
1F
100
AcDbEntity
  8
FISHER_PAYKEL
 62
   250
420
  1316376
370
     9
100
AcDbSpline
210
0.0
220
0.0
230
1.0
 70
     8
 71
     3
 72
     8
 73
     4
 74
     0
 42
0.000000001
 43
0.0000000001
 40
14.72500000000014
 40
14.72500000000014
 40
14.72500000000014
 40
14.72500000000014
 40
15.72500000000014
 40
15.72500000000014
 40
15.72500000000014
 40
15.72500000000014
 10
602.1164098856169
 20
-140.9912803502679
 30
0.0
 10
602.1164098856169
 20
-138.7475777329381
 30
0.0
 10
600.8781400449208
 20
-137.3717223543864
 30
0.0
 10
598.9307755091248
 20
-137.3717223543864
 30
0.0
  0
SPLINE
  5
1F3
330
1F
100
AcDbEntity
  8
FISHER_PAYKEL
 62
   250
420
  1316376
370
     9
100
AcDbSpline
210
0.0
220
0.0
230
1.0
 70
     8
 71
     3
 72
     8
 73
     4
 74
     0
 42
0.000000001
 43
0.0000000001
 40
15.72500000000014
 40
15.72500000000014
 40
15.72500000000014
 40
15.72500000000014
 40
16.72500000000014
 40
16.72500000000014
 40
16.72500000000014
 40
16.72500000000014
 10
598.9307755091248
 20
-137.3717223543864
 30
0.0
 10
596.9869388076332
 20
-137.3717223543864
 30
0.0
 10
595.4488030510989
 20
-139.065082820296
 30
0.0
 10
595.4488030510989
 20
-141.2417565858503
 30
0.0
  0
LINE
  5
1F4
330
1F
100
AcDbEntity
  8
FISHER_PAYKEL
 62
   250
420
  1316376
370
     9
100
AcDbLine
 10
595.4488030510989
 20
-141.2417565858503
 30
0.0
 11
595.4488030510989
 21
-147.4648562980673
 31
0.0
  0
LINE
  5
1F5
330
1F
100
AcDbEntity
  8
FISHER_PAYKEL
 62
   250
420
  1316376
370
     9
100
AcDbLine
 10
595.4488030510989
 20
-147.4648562980673
 30
0.0
 11
594.4010362628175
 21
-147.4648562980673
 31
0.0
  0
LINE
  5
1F6
330
1F
100
AcDbEntity
  8
FISHER_PAYKEL
 62
   250
420
  1316376
370
     9
100
AcDbLine
 10
594.4010362628175
 20
-147.4648562980673
 30
0.0
 11
594.4010362628175
 21
-136.673211162199
 31
0.0
  0
LINE
  5
1F7
330
1F
100
AcDbEntity
  8
FISHER_PAYKEL
 62
   250
420
  1316376
370
     9
100
AcDbLine
 10
613.9367715045252
 20
-142.0877312519441
 30
0.0
 11
613.9367715045252
 21
-142.0489250746003
 31
0.0
  0
SPLINE
  5
1F8
330
1F
100
AcDbEntity
  8
FISHER_PAYKEL
 62
   250
420
  1316376
370
     9
100
AcDbSpline
210
0.0
220
0.0
230
1.0
 70
     8
 71
     3
 72
     8
 73
     4
 74
     0
 42
0.000000001
 43
0.0000000001
 40
2.010999999999967
 40
2.010999999999967
 40
2.010999999999967
 40
2.010999999999967
 40
3.010999999999967
 40
3.010999999999967
 40
3.010999999999967
 40
3.010999999999967
 10
613.9367715045252
 20
-142.0489250746003
 30
0.0
 10
613.9367715045252
 20
-138.9162082126678
 30
0.0
 10
616.1593071160311
 20
-136.4185015254519
 30
0.0
 10
619.1085765941567
 20
-136.4185015254519
 30
0.0
  0
SPLINE
  5
1F9
330
1F
100
AcDbEntity
  8
FISHER_PAYKEL
 62
   250
420
  1316376
370
     9
100
AcDbSpline
210
0.0
220
0.0
230
1.0
 70
     8
 71
     3
 72
     8
 73
     4
 74
     0
 42
0.000000001
 43
0.0000000001
 40
3.010999999999967
 40
3.010999999999967
 40
3.010999999999967
 40
3.010999999999967
 40
4.010999999999967
 40
4.010999999999967
 40
4.010999999999967
 40
4.010999999999967
 10
619.1085765941567
 20
-136.4185015254519
 30
0.0
 10
622.1672089357056
 20
-136.4185015254519
 30
0.0
 10
624.1075178028933
 20
-138.8738742010202
 30
0.0
 10
624.1075178028933
 20
-142.0700920804242
 30
0.0
  0
SPLINE
  5
1FA
330
1F
100
AcDbEntity
  8
FISHER_PAYKEL
 62
   250
420
  1316376
370
     9
100
AcDbSpline
210
0.0
220
0.0
230
1.0
 70
     8
 71
     3
 72
     8
 73
     4
 74
     0
 42
0.000000001
 43
0.0000000001
 40
4.010999999999967
 40
4.010999999999967
 40
4.010999999999967
 40
4.010999999999967
 40
5.010999999999967
 40
5.010999999999967
 40
5.010999999999967
 40
5.010999999999967
 10
624.1075178028933
 20
-142.0700920804242
 30
0.0
 10
624.1075178028933
 20
-142.2570672985349
 30
0.0
 10
624.1075178028933
 20
-142.3240961503105
 30
0.0
 10
624.0863507970693
 20
-142.4934321969014
 30
0.0
  0
LINE
  5
1FB
330
1F
100
AcDbEntity
  8
FISHER_PAYKEL
 62
   250
420
  1316376
370
     9
100
AcDbLine
 10
624.0863507970693
 20
-142.4934321969014
 30
0.0
 11
615.0480393102781
 21
-142.4934321969014
 31
0.0
  0
SPLINE
  5
1FC
330
1F
100
AcDbEntity
  8
FISHER_PAYKEL
 62
   250
420
  1316376
370
     9
100
AcDbSpline
210
0.0
220
0.0
230
1.0
 70
     8
 71
     3
 72
     8
 73
     4
 74
     0
 42
0.000000001
 43
0.0000000001
 40
7.572999999999979
 40
7.572999999999979
 40
7.572999999999979
 40
7.572999999999979
 40
8.572999999999979
 40
8.572999999999979
 40
8.572999999999979
 40
8.572999999999979
 10
615.0480393102781
 20
-142.4934321969014
 30
0.0
 10
615.2420701969969
 20
-145.1745862679248
 30
0.0
 10
617.1823790641848
 20
-146.7444725331949
 30
0.0
 10
619.3237744866991
 20
-146.7444725331949
 30
0.0
  0
SPLINE
  5
1FD
330
1F
100
AcDbEntity
  8
FISHER_PAYKEL
 62
   250
420
  1316376
370
     9
100
AcDbSpline
210
0.0
220
0.0
230
1.0
 70
     8
 71
     3
 72
     8
 73
     4
 74
     0
 42
0.000000001
 43
0.0000000001
 40
8.572999999999979
 40
8.572999999999979
 40
8.572999999999979
 40
8.572999999999979
 40
9.572999999999979
 40
9.572999999999979
 40
9.572999999999979
 40
9.572999999999979
 10
619.3237744866991
 20
-146.7444725331949
 30
0.0
 10
621.0100792840007
 20
-146.7444725331949
 30
0.0
 10
622.1672089357056
 20
-146.0036273293596
 30
0.0
 10
623.0597510146118
 20
-145.0511120672855
 30
0.0
  0
LINE
  5
1FE
330
1F
100
AcDbEntity
  8
FISHER_PAYKEL
 62
   250
420
  1316376
370
     9
100
AcDbLine
 10
623.0597510146118
 20
-145.0511120672855
 30
0.0
 11
623.7864848812313
 21
-145.6861222420017
 31
0.0
  0
SPLINE
  5
1FF
330
1F
100
AcDbEntity
  8
FISHER_PAYKEL
 62
   250
420
  1316376
370
     9
100
AcDbSpline
210
0.0
220
0.0
230
1.0
 70
     8
 71
     3
 72
     8
 73
     4
 74
     0
 42
0.000000001
 43
0.0000000001
 40
9.84656169322476
 40
9.84656169322476
 40
9.84656169322476
 40
9.84656169322476
 40
10.84656169322476
 40
10.84656169322476
 40
10.84656169322476
 40
10.84656169322476
 10
623.7864848812313
 20
-145.6861222420017
 30
0.0
 10
622.6787449097823
 20
-146.8714745681381
 30
0.0
 10
621.3734462173105
 20
-147.7181548010927
 30
0.0
 10
619.2779126407476
 20
-147.7181548010927
 30
0.0
  0
SPLINE
  5
200
330
1F
100
AcDbEntity
  8
FISHER_PAYKEL
 62
   250
420
  1316376
370
     9
100
AcDbSpline
210
0.0
220
0.0
230
1.0
 70
     8
 71
     3
 72
     8
 73
     4
 74
     0
 42
0.000000001
 43
0.0000000001
 40
10.84656169322476
 40
10.84656169322476
 40
10.84656169322476
 40
10.84656169322476
 40
11.84656169322476
 40
11.84656169322476
 40
11.84656169322476
 40
11.84656169322476
 10
619.2779126407476
 20
-147.7181548010927
 30
0.0
 10
616.4168390202218
 20
-147.7181548010927
 30
0.0
 10
613.9367715045252
 20
-145.4532851779389
 30
0.0
 10
613.9367715045252
 20
-142.0877312519441
 30
0.0
  0
SPLINE
  5
201
330
1F
100
AcDbEntity
  8
FISHER_PAYKEL
 62
   250
420
  1316376
370
     9
100
AcDbSpline
210
0.0
220
0.0
230
1.0
 70
     8
 71
     3
 72
     8
 73
     4
 74
     0
 42
0.000000001
 43
0.0000000001
 40
0.0
 40
0.0
 40
0.0
 40
0.0
 40
1.0
 40
1.0
 40
1.0
 40
1.0
 10
622.9750829913163
 20
-141.5585561063473
 30
0.0
 10
622.8269139505495
 20
-139.3818823407929
 30
0.0
 10
621.5674771040293
 20
-137.3710167875257
 30
0.0
 10
619.0662425825088
 20
-137.3710167875257
 30
0.0
  0
SPLINE
  5
202
330
1F
100
AcDbEntity
  8
FISHER_PAYKEL
 62
   250
420
  1316376
370
     9
100
AcDbSpline
210
0.0
220
0.0
230
1.0
 70
     8
 71
     3
 72
     8
 73
     4
 74
     0
 42
0.000000001
 43
0.0000000001
 40
1.0
 40
1.0
 40
1.0
 40
1.0
 40
2.0
 40
2.0
 40
2.0
 40
2.0
 10
619.0662425825088
 20
-137.3710167875257
 30
0.0
 10
616.9072079884744
 20
-137.3710167875257
 30
0.0
 10
615.2420701969969
 20
-139.1666844482505
 30
0.0
 10
615.0480393102781
 20
-141.5585561063473
 30
0.0
  0
LINE
  5
203
330
1F
100
AcDbEntity
  8
FISHER_PAYKEL
 62
   250
420
  1316376
370
     9
100
AcDbLine
 10
615.0480393102781
 20
-141.5585561063473
 30
0.0
 11
622.9750829913163
 21
-141.5585561063473
 31
0.0
  0
LINE
  5
204
330
1F
100
AcDbEntity
  8
FISHER_PAYKEL
 62
   250
420
  1316376
370
     9
100
AcDbLine
 10
627.7087310603941
 20
-144.6902146179885
 30
0.0
 11
627.7087310603941
 21
-137.6239625071211
 31
0.0
  0
LINE
  5
205
330
1F
100
AcDbEntity
  8
FISHER_PAYKEL
 62
   250
420
  1316376
370
     9
100
AcDbLine
 10
627.7087310603941
 20
-137.6239625071211
 30
0.0
 11
626.128261292212
 21
-137.6239625071211
 31
0.0
  0
LINE
  5
206
330
1F
100
AcDbEntity
  8
FISHER_PAYKEL
 62
   250
420
  1316376
370
     9
100
AcDbLine
 10
626.128261292212
 20
-137.6239625071211
 30
0.0
 11
626.128261292212
 21
-136.6749750793507
 31
0.0
  0
LINE
  5
207
330
1F
100
AcDbEntity
  8
FISHER_PAYKEL
 62
   250
420
  1316376
370
     9
100
AcDbLine
 10
626.128261292212
 20
-136.6749750793507
 30
0.0
 11
627.7087310603941
 21
-136.6749750793507
 31
0.0
  0
LINE
  5
208
330
1F
100
AcDbEntity
  8
FISHER_PAYKEL
 62
   250
420
  1316376
370
     9
100
AcDbLine
 10
627.7087310603941
 20
-136.6749750793507
 30
0.0
 11
627.7087310603941
 21
-133.2247531300605
 31
0.0
  0
LINE
  5
209
330
1F
100
AcDbEntity
  8
FISHER_PAYKEL
 62
   250
420
  1316376
370
     9
100
AcDbLine
 10
627.7087310603941
 20
-133.2247531300605
 30
0.0
 11
628.7564978486756
 21
-133.2247531300605
 31
0.0
  0
LINE
  5
20A
330
1F
100
AcDbEntity
  8
FISHER_PAYKEL
 62
   250
420
  1316376
370
     9
100
AcDbLine
 10
628.7564978486756
 20
-133.2247531300605
 30
0.0
 11
628.7564978486756
 21
-136.6749750793507
 31
0.0
  0
LINE
  5
20B
330
1F
100
AcDbEntity
  8
FISHER_PAYKEL
 62
   250
420
  1316376
370
     9
100
AcDbLine
 10
628.7564978486756
 20
-136.6749750793507
 30
0.0
 11
632.5806702341873
 21
-136.6749750793507
 31
0.0
  0
LINE
  5
20C
330
1F
100
AcDbEntity
  8
FISHER_PAYKEL
 62
   250
420
  1316376
370
     9
100
AcDbLine
 10
632.5806702341873
 20
-136.6749750793507
 30
0.0
 11
632.5806702341873
 21
-137.6239625071211
 31
0.0
  0
LINE
  5
20D
330
1F
100
AcDbEntity
  8
FISHER_PAYKEL
 62
   250
420
  1316376
370
     9
100
AcDbLine
 10
632.5806702341873
 20
-137.6239625071211
 30
0.0
 11
628.7564978486756
 21
-137.6239625071211
 31
0.0
  0
LINE
  5
20E
330
1F
100
AcDbEntity
  8
FISHER_PAYKEL
 62
   250
420
  1316376
370
     9
100
AcDbLine
 10
628.7564978486756
 20
-137.6239625071211
 30
0.0
 11
628.7564978486756
 21
-144.5843795888692
 31
0.0
  0
SPLINE
  5
20F
330
1F
100
AcDbEntity
  8
FISHER_PAYKEL
 62
   250
420
  1316376
370
     9
100
AcDbSpline
210
0.0
220
0.0
230
1.0
 70
     8
 71
     3
 72
     8
 73
     4
 74
     0
 42
0.000000001
 43
0.0000000001
 40
9.830999999999904
 40
9.830999999999904
 40
9.830999999999904
 40
9.830999999999904
 40
10.8309999999999
 40
10.8309999999999
 40
10.8309999999999
 40
10.8309999999999
 10
628.7564978486756
 20
-144.5843795888692
 30
0.0
 10
628.7564978486756
 20
-146.1295710140115
 30
0.0
 10
629.6772626020137
 20
-146.676385331128
 30
0.0
 10
630.9366994485337
 20
-146.676385331128
 30
0.0
  0
SPLINE
  5
210
330
1F
100
AcDbEntity
  8
FISHER_PAYKEL
 62
   250
420
  1316376
370
     9
100
AcDbSpline
210
0.0
220
0.0
230
1.0
 70
     8
 71
     3
 72
     8
 73
     4
 74
     0
 42
0.000000001
 43
0.0000000001
 40
10.8309999999999
 40
10.8309999999999
 40
10.8309999999999
 40
10.8309999999999
 40
11.8309999999999
 40
11.8309999999999
 40
11.8309999999999
 40
11.8309999999999
 10
630.9366994485337
 20
-146.676385331128
 30
0.0
 10
631.4694024284341
 20
-146.676385331128
 30
0.0
 10
631.9174373850395
 20
-146.5740781363126
 30
0.0
 10
632.5383362225397
 20
-146.2989070606023
 30
0.0
  0
LINE
  5
211
330
1F
100
AcDbEntity
  8
FISHER_PAYKEL
 62
   250
420
  1316376
370
     9
100
AcDbLine
 10
632.5383362225397
 20
-146.2989070606023
 30
0.0
 11
632.5383362225397
 21
-147.2690614941963
 31
0.0
  0
SPLINE
  5
212
330
1F
100
AcDbEntity
  8
FISHER_PAYKEL
 62
   250
420
  1316376
370
     9
100
AcDbSpline
210
0.0
220
0.0
230
1.0
 70
     8
 71
     3
 72
     8
 73
     4
 74
     0
 42
0.000000001
 43
0.0000000001
 40
12.10599999999988
 40
12.10599999999988
 40
12.10599999999988
 40
12.10599999999988
 40
13.10599999999988
 40
13.10599999999988
 40
13.10599999999988
 40
13.10599999999988
 10
632.5383362225397
 20
-147.2690614941963
 30
0.0
 10
631.9844662368151
 20
-147.5265933983866
 30
0.0
 10
631.4517632569142
 20
-147.6535954333298
 30
0.0
 10
630.7638355676389
 20
-147.6535954333298
 30
0.0
  0
SPLINE
  5
213
330
1F
100
AcDbEntity
  8
FISHER_PAYKEL
 62
   250
420
  1316376
370
     9
100
AcDbSpline
210
0.0
220
0.0
230
1.0
 70
     8
 71
     3
 72
     8
 73
     4
 74
     0
 42
0.000000001
 43
0.0000000001
 40
13.10599999999988
 40
13.10599999999988
 40
13.10599999999988
 40
13.10599999999988
 40
14.10599999999988
 40
14.10599999999988
 40
14.10599999999988
 40
14.10599999999988
 10
630.7638355676389
 20
-147.6535954333298
 30
0.0
 10
629.0775307703374
 20
-147.6535954333298
 30
0.0
 10
627.7087310603941
 20
-146.7434141829034
 30
0.0
 10
627.7087310603941
 20
-144.6902146179885
 30
0.0
  0
LINE
  5
214
330
1F
100
AcDbEntity
  8
FISHER_PAYKEL
 62
   250
420
  1316376
370
     9
100
AcDbLine
 10
635.6495332952176
 20
-136.673211162199
 30
0.0
 11
636.6973000834993
 21
-136.673211162199
 31
0.0
  0
LINE
  5
215
330
1F
100
AcDbEntity
  8
FISHER_PAYKEL
 62
   250
420
  1316376
370
     9
100
AcDbLine
 10
636.6973000834993
 20
-136.673211162199
 30
0.0
 11
636.6973000834993
 21
-139.7388991723559
 31
0.0
  0
SPLINE
  5
216
330
1F
100
AcDbEntity
  8
FISHER_PAYKEL
 62
   250
420
  1316376
370
     9
100
AcDbSpline
210
0.0
220
0.0
230
1.0
 70
     8
 71
     3
 72
     8
 73
     4
 74
     0
 42
0.000000001
 43
0.0000000001
 40
1.166000000000054
 40
1.166000000000054
 40
1.166000000000054
 40
1.166000000000054
 40
2.166000000000054
 40
2.166000000000054
 40
2.166000000000054
 40
2.166000000000054
 10
636.6973000834993
 20
-139.7388991723559
 30
0.0
 10
637.5510359850617
 20
-137.8162294766877
 30
0.0
 10
639.3678706516104
 20
-136.4192070923126
 30
0.0
 10
641.5269052456448
 20
-136.5038751156079
 30
0.0
  0
LINE
  5
217
330
1F
100
AcDbEntity
  8
FISHER_PAYKEL
 62
   250
420
  1316376
370
     9
100
AcDbLine
 10
641.5269052456448
 20
-136.5038751156079
 30
0.0
 11
641.5269052456448
 21
-137.6433655957929
 31
0.0
  0
LINE
  5
218
330
1F
100
AcDbEntity
  8
FISHER_PAYKEL
 62
   250
420
  1316376
370
     9
100
AcDbLine
 10
641.5269052456448
 20
-137.6433655957929
 30
0.0
 11
641.4210702165254
 21
-137.6433655957929
 31
0.0
  0
SPLINE
  5
219
330
1F
100
AcDbEntity
  8
FISHER_PAYKEL
 62
   250
420
  1316376
370
     9
100
AcDbSpline
210
0.0
220
0.0
230
1.0
 70
     8
 71
     3
 72
     8
 73
     4
 74
     0
 42
0.000000001
 43
0.0000000001
 40
2.519000000000005
 40
2.519000000000005
 40
2.519000000000005
 40
2.519000000000005
 40
3.519000000000005
 40
3.519000000000005
 40
3.519000000000005
 40
3.519000000000005
 10
641.4210702165254
 20
-137.6433655957929
 30
0.0
 10
638.8986686891814
 20
-137.6433655957929
 30
0.0
 10
636.6973000834993
 20
-139.5307569484208
 30
0.0
 10
636.6973000834993
 20
-143.040952080879
 30
0.0
  0
LINE
  5
21A
330
1F
100
AcDbEntity
  8
FISHER_PAYKEL
 62
   250
420
  1316376
370
     9
100
AcDbLine
 10
636.6973000834993
 20
-143.040952080879
 30
0.0
 11
636.6973000834993
 21
-147.4648562980673
 31
0.0
  0
LINE
  5
21B
330
1F
100
AcDbEntity
  8
FISHER_PAYKEL
 62
   250
420
  1316376
370
     9
100
AcDbLine
 10
636.6973000834993
 20
-147.4648562980673
 30
0.0
 11
635.6495332952176
 21
-147.4648562980673
 31
0.0
  0
LINE
  5
21C
330
1F
100
AcDbEntity
  8
FISHER_PAYKEL
 62
   250
420
  1316376
370
     9
100
AcDbLine
 10
635.6495332952176
 20
-147.4648562980673
 30
0.0
 11
635.6495332952176
 21
-136.673211162199
 31
0.0
  0
LINE
  5
21D
330
1F
100
AcDbEntity
  8
FISHER_PAYKEL
 62
   250
420
  1316376
370
     9
100
AcDbLine
 10
643.4202939165897
 20
-142.0877312519441
 30
0.0
 11
643.4202939165897
 21
-142.0489250746003
 31
0.0
  0
SPLINE
  5
21E
330
1F
100
AcDbEntity
  8
FISHER_PAYKEL
 62
   250
420
  1316376
370
     9
100
AcDbSpline
210
0.0
220
0.0
230
1.0
 70
     8
 71
     3
 72
     8
 73
     4
 74
     0
 42
0.000000001
 43
0.0000000001
 40
2.010999999999967
 40
2.010999999999967
 40
2.010999999999967
 40
2.010999999999967
 40
3.010999999999967
 40
3.010999999999967
 40
3.010999999999967
 40
3.010999999999967
 10
643.4202939165897
 20
-142.0489250746003
 30
0.0
 10
643.4202939165897
 20
-138.9162082126678
 30
0.0
 10
645.6428295280958
 20
-136.4185015254519
 30
0.0
 10
648.5920990062212
 20
-136.4185015254519
 30
0.0
  0
SPLINE
  5
21F
330
1F
100
AcDbEntity
  8
FISHER_PAYKEL
 62
   250
420
  1316376
370
     9
100
AcDbSpline
210
0.0
220
0.0
230
1.0
 70
     8
 71
     3
 72
     8
 73
     4
 74
     0
 42
0.000000001
 43
0.0000000001
 40
3.010999999999967
 40
3.010999999999967
 40
3.010999999999967
 40
3.010999999999967
 40
4.010999999999967
 40
4.010999999999967
 40
4.010999999999967
 40
4.010999999999967
 10
648.5920990062212
 20
-136.4185015254519
 30
0.0
 10
651.6507313477701
 20
-136.4185015254519
 30
0.0
 10
653.5910402149581
 20
-138.8738742010202
 30
0.0
 10
653.5910402149581
 20
-142.0700920804242
 30
0.0
  0
SPLINE
  5
220
330
1F
100
AcDbEntity
  8
FISHER_PAYKEL
 62
   250
420
  1316376
370
     9
100
AcDbSpline
210
0.0
220
0.0
230
1.0
 70
     8
 71
     3
 72
     8
 73
     4
 74
     0
 42
0.000000001
 43
0.0000000001
 40
4.010999999999967
 40
4.010999999999967
 40
4.010999999999967
 40
4.010999999999967
 40
5.010999999999967
 40
5.010999999999967
 40
5.010999999999967
 40
5.010999999999967
 10
653.5910402149581
 20
-142.0700920804242
 30
0.0
 10
653.5910402149581
 20
-142.2570672985349
 30
0.0
 10
653.5910402149581
 20
-142.3240961503105
 30
0.0
 10
653.5698732091338
 20
-142.4934321969014
 30
0.0
  0
LINE
  5
221
330
1F
100
AcDbEntity
  8
FISHER_PAYKEL
 62
   250
420
  1316376
370
     9
100
AcDbLine
 10
653.5698732091338
 20
-142.4934321969014
 30
0.0
 11
644.5315617223429
 21
-142.4934321969014
 31
0.0
  0
SPLINE
  5
222
330
1F
100
AcDbEntity
  8
FISHER_PAYKEL
 62
   250
420
  1316376
370
     9
100
AcDbSpline
210
0.0
220
0.0
230
1.0
 70
     8
 71
     3
 72
     8
 73
     4
 74
     0
 42
0.000000001
 43
0.0000000001
 40
7.572999999999979
 40
7.572999999999979
 40
7.572999999999979
 40
7.572999999999979
 40
8.572999999999979
 40
8.572999999999979
 40
8.572999999999979
 40
8.572999999999979
 10
644.5315617223429
 20
-142.4934321969014
 30
0.0
 10
644.7255926090614
 20
-145.1745862679248
 30
0.0
 10
646.6659014762496
 20
-146.7444725331949
 30
0.0
 10
648.8072968987639
 20
-146.7444725331949
 30
0.0
  0
SPLINE
  5
223
330
1F
100
AcDbEntity
  8
FISHER_PAYKEL
 62
   250
420
  1316376
370
     9
100
AcDbSpline
210
0.0
220
0.0
230
1.0
 70
     8
 71
     3
 72
     8
 73
     4
 74
     0
 42
0.000000001
 43
0.0000000001
 40
8.572999999999979
 40
8.572999999999979
 40
8.572999999999979
 40
8.572999999999979
 40
9.572999999999979
 40
9.572999999999979
 40
9.572999999999979
 40
9.572999999999979
 10
648.8072968987639
 20
-146.7444725331949
 30
0.0
 10
650.4936016960652
 20
-146.7444725331949
 30
0.0
 10
651.6507313477701
 20
-146.0036273293596
 30
0.0
 10
652.5432734266764
 20
-145.0511120672855
 30
0.0
  0
LINE
  5
224
330
1F
100
AcDbEntity
  8
FISHER_PAYKEL
 62
   250
420
  1316376
370
     9
100
AcDbLine
 10
652.5432734266764
 20
-145.0511120672855
 30
0.0
 11
653.2700072932959
 21
-145.6861222420017
 31
0.0
  0
SPLINE
  5
225
330
1F
100
AcDbEntity
  8
FISHER_PAYKEL
 62
   250
420
  1316376
370
     9
100
AcDbSpline
210
0.0
220
0.0
230
1.0
 70
     8
 71
     3
 72
     8
 73
     4
 74
     0
 42
0.000000001
 43
0.0000000001
 40
9.84656169322476
 40
9.84656169322476
 40
9.84656169322476
 40
9.84656169322476
 40
10.84656169322476
 40
10.84656169322476
 40
10.84656169322476
 40
10.84656169322476
 10
653.2700072932959
 20
-145.6861222420017
 30
0.0
 10
652.162267321847
 20
-146.8714745681381
 30
0.0
 10
650.856968629375
 20
-147.7181548010927
 30
0.0
 10
648.7614350528121
 20
-147.7181548010927
 30
0.0
  0
SPLINE
  5
226
330
1F
100
AcDbEntity
  8
FISHER_PAYKEL
 62
   250
420
  1316376
370
     9
100
AcDbSpline
210
0.0
220
0.0
230
1.0
 70
     8
 71
     3
 72
     8
 73
     4
 74
     0
 42
0.000000001
 43
0.0000000001
 40
10.84656169322476
 40
10.84656169322476
 40
10.84656169322476
 40
10.84656169322476
 40
11.84656169322476
 40
11.84656169322476
 40
11.84656169322476
 40
11.84656169322476
 10
648.7614350528121
 20
-147.7181548010927
 30
0.0
 10
645.9003614322863
 20
-147.7181548010927
 30
0.0
 10
643.4202939165897
 20
-145.4532851779389
 30
0.0
 10
643.4202939165897
 20
-142.0877312519441
 30
0.0
  0
SPLINE
  5
227
330
1F
100
AcDbEntity
  8
FISHER_PAYKEL
 62
   250
420
  1316376
370
     9
100
AcDbSpline
210
0.0
220
0.0
230
1.0
 70
     8
 71
     3
 72
     8
 73
     4
 74
     0
 42
0.000000001
 43
0.0000000001
 40
0.0
 40
0.0
 40
0.0
 40
0.0
 40
1.0
 40
1.0
 40
1.0
 40
1.0
 10
652.4586054033811
 20
-141.5585561063473
 30
0.0
 10
652.310436362614
 20
-139.3818823407929
 30
0.0
 10
651.0509995160938
 20
-137.3710167875257
 30
0.0
 10
648.5497649945736
 20
-137.3710167875257
 30
0.0
  0
SPLINE
  5
228
330
1F
100
AcDbEntity
  8
FISHER_PAYKEL
 62
   250
420
  1316376
370
     9
100
AcDbSpline
210
0.0
220
0.0
230
1.0
 70
     8
 71
     3
 72
     8
 73
     4
 74
     0
 42
0.000000001
 43
0.0000000001
 40
1.0
 40
1.0
 40
1.0
 40
1.0
 40
2.0
 40
2.0
 40
2.0
 40
2.0
 10
648.5497649945736
 20
-137.3710167875257
 30
0.0
 10
646.3907304005389
 20
-137.3710167875257
 30
0.0
 10
644.7255926090614
 20
-139.1666844482505
 30
0.0
 10
644.5315617223429
 20
-141.5585561063473
 30
0.0
  0
LINE
  5
229
330
1F
100
AcDbEntity
  8
FISHER_PAYKEL
 62
   250
420
  1316376
370
     9
100
AcDbLine
 10
644.5315617223429
 20
-141.5585561063473
 30
0.0
 11
652.4586054033811
 21
-141.5585561063473
 31
0.0
  0
LINE
  5
22A
330
1F
100
AcDbEntity
  8
FISHER_PAYKEL
 62
   250
420
  1316376
370
     9
100
AcDbLine
 10
655.6763430720392
 20
-146.1094623584787
 30
0.0
 11
656.2972419095387
 21
-145.2839491313485
 31
0.0
  0
SPLINE
  5
22B
330
1F
100
AcDbEntity
  8
FISHER_PAYKEL
 62
   250
420
  1316376
370
     9
100
AcDbSpline
210
0.0
220
0.0
230
1.0
 70
     8
 71
     3
 72
     8
 73
     4
 74
     0
 42
0.000000001
 43
0.0000000001
 40
0.292800273223734
 40
0.292800273223734
 40
0.292800273223734
 40
0.292800273223734
 40
1.292800273223734
 40
1.292800273223734
 40
1.292800273223734
 40
1.292800273223734
 10
656.2972419095387
 20
-145.2839491313485
 30
0.0
 10
657.4931777385879
 20
-146.1906025474706
 30
0.0
 10
658.8196434368836
 20
-146.7021385215472
 30
0.0
 10
660.2060823183465
 20
-146.7021385215472
 30
0.0
  0
SPLINE
  5
22C
330
1F
100
AcDbEntity
  8
FISHER_PAYKEL
 62
   250
420
  1316376
370
     9
100
AcDbSpline
210
0.0
220
0.0
230
1.0
 70
     8
 71
     3
 72
     8
 73
     4
 74
     0
 42
0.000000001
 43
0.0000000001
 40
1.292800273223734
 40
1.292800273223734
 40
1.292800273223734
 40
1.292800273223734
 40
2.292800273223734
 40
2.292800273223734
 40
2.292800273223734
 40
2.292800273223734
 10
660.2060823183465
 20
-146.7021385215472
 30
0.0
 10
661.6807170574091
 20
-146.7021385215472
 30
0.0
 10
662.8343188748102
 20
-145.8942644659363
 30
0.0
 10
662.8343188748102
 20
-144.6489389566322
 30
0.0
  0
LINE
  5
22D
330
1F
100
AcDbEntity
  8
FISHER_PAYKEL
 62
   250
420
  1316376
370
     9
100
AcDbLine
 10
662.8343188748102
 20
-144.6489389566322
 30
0.0
 11
662.8343188748102
 21
-144.6066049449845
 31
0.0
  0
SPLINE
  5
22E
330
1F
100
AcDbEntity
  8
FISHER_PAYKEL
 62
   250
420
  1316376
370
     9
100
AcDbSpline
210
0.0
220
0.0
230
1.0
 70
     8
 71
     3
 72
     8
 73
     4
 74
     0
 42
0.000000001
 43
0.0000000001
 40
2.304800273223734
 40
2.304800273223734
 40
2.304800273223734
 40
2.304800273223734
 40
3.304800273223734
 40
3.304800273223734
 40
3.304800273223734
 40
3.304800273223734
 10
662.8343188748102
 20
-144.6066049449845
 30
0.0
 10
662.8343188748102
 20
-143.3365845955524
 30
0.0
 10
661.4690469991706
 20
-142.8709104674273
 30
0.0
 10
659.948550414156
 20
-142.4475703509498
 30
0.0
  0
SPLINE
  5
22F
330
1F
100
AcDbEntity
  8
FISHER_PAYKEL
 62
   250
420
  1316376
370
     9
100
AcDbSpline
210
0.0
220
0.0
230
1.0
 70
     8
 71
     3
 72
     8
 73
     4
 74
     0
 42
0.000000001
 43
0.0000000001
 40
3.304800273223734
 40
3.304800273223734
 40
3.304800273223734
 40
3.304800273223734
 40
4.304800273223734
 40
4.304800273223734
 40
4.304800273223734
 40
4.304800273223734
 10
659.948550414156
 20
-142.4475703509498
 30
0.0
 10
658.1740497592552
 20
-141.9395622111771
 30
0.0
 10
656.2090460519397
 20
-141.4139148998844
 30
0.0
 10
656.2090460519397
 20
-139.4877173699125
 30
0.0
  0
LINE
  5
230
330
1F
100
AcDbEntity
  8
FISHER_PAYKEL
 62
   250
420
  1316376
370
     9
100
AcDbLine
 10
656.2090460519397
 20
-139.4877173699125
 30
0.0
 11
656.2090460519397
 21
-139.441855523961
 31
0.0
  0
SPLINE
  5
231
330
1F
100
AcDbEntity
  8
FISHER_PAYKEL
 62
   250
420
  1316376
370
     9
100
AcDbSpline
210
0.0
220
0.0
230
1.0
 70
     8
 71
     3
 72
     8
 73
     4
 74
     0
 42
0.000000001
 43
0.0000000001
 40
4.317800273223711
 40
4.317800273223711
 40
4.317800273223711
 40
4.317800273223711
 40
5.317800273223711
 40
5.317800273223711
 40
5.317800273223711
 40
5.317800273223711
 10
656.2090460519397
 20
-139.441855523961
 30
0.0
 10
656.2090460519397
 20
-137.7096888807079
 30
0.0
 10
657.6836807910025
 20
-136.4608355370996
 30
0.0
 10
659.800381373389
 20
-136.4608355370996
 30
0.0
  0
SPLINE
  5
232
330
1F
100
AcDbEntity
  8
FISHER_PAYKEL
 62
   250
420
  1316376
370
     9
100
AcDbSpline
210
0.0
220
0.0
230
1.0
 70
     8
 71
     3
 72
     8
 73
     4
 74
     0
 42
0.000000001
 43
0.0000000001
 40
5.317800273223711
 40
5.317800273223711
 40
5.317800273223711
 40
5.317800273223711
 40
6.317800273223711
 40
6.317800273223711
 40
6.317800273223711
 40
6.317800273223711
 10
659.800381373389
 20
-136.4608355370996
 30
0.0
 10
661.102152231557
 20
-136.4608355370996
 30
0.0
 10
662.5767869706197
 20
-136.9265096652244
 30
0.0
 10
663.6704156048531
 20
-137.6461878632359
 30
0.0
  0
LINE
  5
233
330
1F
100
AcDbEntity
  8
FISHER_PAYKEL
 62
   250
420
  1316376
370
     9
100
AcDbLine
 10
663.6704156048531
 20
-137.6461878632359
 30
0.0
 11
663.1094899505208
 21
-138.5140351020144
 31
0.0
  0
SPLINE
  5
234
330
1F
100
AcDbEntity
  8
FISHER_PAYKEL
 62
   250
420
  1316376
370
     9
100
AcDbSpline
210
0.0
220
0.0
230
1.0
 70
     8
 71
     3
 72
     8
 73
     4
 74
     0
 42
0.000000001
 43
0.0000000001
 40
6.610711522580898
 40
6.610711522580898
 40
6.610711522580898
 40
6.610711522580898
 40
7.610711522580898
 40
7.610711522580898
 40
7.610711522580898
 40
7.610711522580898
 10
663.1094899505208
 20
-138.5140351020144
 30
0.0
 10
662.1075850081909
 20
-137.8578579214749
 30
0.0
 10
660.9081213448383
 20
-137.4345178049974
 30
0.0
 10
659.7580473617413
 20
-137.4345178049974
 30
0.0
  0
SPLINE
  5
235
330
1F
100
AcDbEntity
  8
FISHER_PAYKEL
 62
   250
420
  1316376
370
     9
100
AcDbSpline
210
0.0
220
0.0
230
1.0
 70
     8
 71
     3
 72
     8
 73
     4
 74
     0
 42
0.000000001
 43
0.0000000001
 40
7.610711522580898
 40
7.610711522580898
 40
7.610711522580898
 40
7.610711522580898
 40
8.610711522580898
 40
8.610711522580898
 40
8.610711522580898
 40
8.610711522580898
 10
659.7580473617413
 20
-137.4345178049974
 30
0.0
 10
658.2587177825508
 20
-137.4345178049974
 30
0.0
 10
657.2779798460452
 20
-138.2388640263042
 30
0.0
 10
657.2779798460452
 20
-139.3183813233214
 30
0.0
  0
LINE
  5
236
330
1F
100
AcDbEntity
  8
FISHER_PAYKEL
 62
   250
420
  1316376
370
     9
100
AcDbLine
 10
657.2779798460452
 20
-139.3183813233214
 30
0.0
 11
657.2779798460452
 21
-139.3607153349691
 31
0.0
  0
SPLINE
  5
237
330
1F
100
AcDbEntity
  8
FISHER_PAYKEL
 62
   250
420
  1316376
370
     9
100
AcDbSpline
210
0.0
220
0.0
230
1.0
 70
     8
 71
     3
 72
     8
 73
     4
 74
     0
 42
0.000000001
 43
0.0000000001
 40
8.622711522580898
 40
8.622711522580898
 40
8.622711522580898
 40
8.622711522580898
 40
9.622711522580898
 40
9.622711522580898
 40
9.622711522580898
 40
9.622711522580898
 10
657.2779798460452
 20
-139.3607153349691
 30
0.0
 10
657.2779798460452
 20
-140.5672346669297
 30
0.0
 10
658.752614585108
 20
-141.011741789231
 30
0.0
 10
660.3119173474663
 20
-141.456248911532
 30
0.0
  0
SPLINE
  5
238
330
1F
100
AcDbEntity
  8
FISHER_PAYKEL
 62
   250
420
  1316376
370
     9
100
AcDbSpline
210
0.0
220
0.0
230
1.0
 70
     8
 71
     3
 72
     8
 73
     4
 74
     0
 42
0.000000001
 43
0.0000000001
 40
9.622711522580898
 40
9.622711522580898
 40
9.622711522580898
 40
9.622711522580898
 40
10.6227115225809
 40
10.6227115225809
 40
10.6227115225809
 40
10.6227115225809
 10
660.3119173474663
 20
-141.456248911532
 30
0.0
 10
662.0652509965432
 20
-141.9395622111771
 30
0.0
 10
663.9032526689155
 20
-142.5745723858932
 30
0.0
 10
663.9032526689155
 20
-144.4796029100411
 30
0.0
  0
LINE
  5
239
330
1F
100
AcDbEntity
  8
FISHER_PAYKEL
 62
   250
420
  1316376
370
     9
100
AcDbLine
 10
663.9032526689155
 20
-144.4796029100411
 30
0.0
 11
663.9032526689155
 21
-144.5219369216887
 31
0.0
  0
SPLINE
  5
23A
330
1F
100
AcDbEntity
  8
FISHER_PAYKEL
 62
   250
420
  1316376
370
     9
100
AcDbSpline
210
0.0
220
0.0
230
1.0
 70
     8
 71
     3
 72
     8
 73
     4
 74
     0
 42
0.000000001
 43
0.0000000001
 40
10.6347115225809
 40
10.6347115225809
 40
10.6347115225809
 40
10.6347115225809
 40
11.6347115225809
 40
11.6347115225809
 40
11.6347115225809
 40
11.6347115225809
 10
663.9032526689155
 20
-144.5219369216887
 30
0.0
 10
663.9032526689155
 20
-146.4481344516608
 30
0.0
 10
662.2345870431341
 20
-147.672292955141
 30
0.0
 10
660.1425813008755
 20
-147.672292955141
 30
0.0
  0
SPLINE
  5
23B
330
1F
100
AcDbEntity
  8
FISHER_PAYKEL
 62
   250
420
  1316376
370
     9
100
AcDbSpline
210
0.0
220
0.0
230
1.0
 70
     8
 71
     3
 72
     8
 73
     4
 74
     0
 42
0.000000001
 43
0.0000000001
 40
11.6347115225809
 40
11.6347115225809
 40
11.6347115225809
 40
11.6347115225809
 40
12.6347115225809
 40
12.6347115225809
 40
12.6347115225809
 40
12.6347115225809
 10
660.1425813008755
 20
-147.672292955141
 30
0.0
 10
658.5585840760436
 20
-147.672292955141
 30
0.0
 10
656.8299457137188
 20
-147.0408109158433
 30
0.0
 10
655.6763430720392
 20
-146.1094623584787
 30
0.0
  0
POLYLINE
  5
23C
330
1F
100
AcDbEntity
  8
FISHER_PAYKEL
100
AcDb2dPolyline
 66
     1
 10
0.0
 20
0.0
 30
0.0
  0
VERTEX
  5
23D
330
23C
100
AcDbEntity
  8
FISHER_PAYKEL
100
AcDbVertex
100
AcDb2dVertex
 10
539.9418757511997
 20
-147.8116424101482
 30
0.0
  0
VERTEX
  5
23E
330
23C
100
AcDbEntity
  8
FISHER_PAYKEL
100
AcDbVertex
100
AcDb2dVertex
 10
539.9418757511997
 20
-107.8116424101482
 30
0.0
  0
SEQEND
  5
23F
330
23C
100
AcDbEntity
  8
FISHER_PAYKEL
  0
POLYLINE
  5
240
330
1F
100
AcDbEntity
  8
FISHER_PAYKEL
100
AcDb2dPolyline
 66
     1
 10
0.0
 20
0.0
 30
0.0
  0
VERTEX
  5
241
330
240
100
AcDbEntity
  8
FISHER_PAYKEL
100
AcDbVertex
100
AcDb2dVertex
 10
339.9418757511997
 20
-147.8116424101482
 30
0.0
  0
VERTEX
  5
242
330
240
100
AcDbEntity
  8
FISHER_PAYKEL
100
AcDbVertex
100
AcDb2dVertex
 10
339.9418757511997
 20
-107.8116424101482
 30
0.0
  0
SEQEND
  5
243
330
240
100
AcDbEntity
  8
FISHER_PAYKEL
  0
POLYLINE
  5
244
330
1F
100
AcDbEntity
  8
FISHER_PAYKEL
100
AcDb2dPolyline
 66
     1
 10
0.0
 20
0.0
 30
0.0
  0
VERTEX
  5
245
330
244
100
AcDbEntity
  8
FISHER_PAYKEL
100
AcDbVertex
100
AcDb2dVertex
 10
239.9418757511997
 20
-147.8116424101482
 30
0.0
  0
VERTEX
  5
246
330
244
100
AcDbEntity
  8
FISHER_PAYKEL
100
AcDbVertex
100
AcDb2dVertex
 10
239.9418757511997
 20
-107.8116424101482
 30
0.0
  0
SEQEND
  5
247
330
244
100
AcDbEntity
  8
FISHER_PAYKEL
  0
POLYLINE
  5
248
330
1F
100
AcDbEntity
  8
FISHER_PAYKEL
100
AcDb2dPolyline
 66
     1
 10
0.0
 20
0.0
 30
0.0
  0
VERTEX
  5
249
330
248
100
AcDbEntity
  8
FISHER_PAYKEL
100
AcDbVertex
100
AcDb2dVertex
 10
139.9418757511997
 20
-147.8116424101482
 30
0.0
  0
VERTEX
  5
24A
330
248
100
AcDbEntity
  8
FISHER_PAYKEL
100
AcDbVertex
100
AcDb2dVertex
 10
139.9418757511997
 20
-107.8116424101482
 30
0.0
  0
SEQEND
  5
24B
330
248
100
AcDbEntity
  8
FISHER_PAYKEL
  0
POLYLINE
  5
24C
330
1F
100
AcDbEntity
  8
FISHER_PAYKEL
100
AcDb2dPolyline
 66
     1
 10
0.0
 20
0.0
 30
0.0
 70
     1
  0
VERTEX
  5
24D
330
24C
100
AcDbEntity
  8
FISHER_PAYKEL
100
AcDbVertex
100
AcDb2dVertex
 10
139.9418757511997
 20
-147.8116424101482
 30
0.0
  0
VERTEX
  5
24E
330
24C
100
AcDbEntity
  8
FISHER_PAYKEL
100
AcDbVertex
100
AcDb2dVertex
 10
539.9418757511997
 20
-147.8116424101482
 30
0.0
  0
VERTEX
  5
24F
330
24C
100
AcDbEntity
  8
FISHER_PAYKEL
100
AcDbVertex
100
AcDb2dVertex
 10
539.9418757511997
 20
-117.8116424101482
 30
0.0
  0
VERTEX
  5
250
330
24C
100
AcDbEntity
  8
FISHER_PAYKEL
100
AcDbVertex
100
AcDb2dVertex
 10
139.9418757511997
 20
-117.8116424101482
 30
0.0
  0
SEQEND
  5
251
330
24C
100
AcDbEntity
  8
FISHER_PAYKEL
  0
LINE
  5
252
330
1F
100
AcDbEntity
  8
FISHER_PAYKEL
  6
Continuous
 62
     1
420
 16711680
100
AcDbLine
 10
1029.9418757512
 20
1363.7283016566
 30
0.0
 11
1029.9418757512
 21
823.7283016566
 31
0.0
  0
ARC
  5
253
330
1F
100
AcDbEntity
  8
FISHER_PAYKEL
  6
Continuous
 62
    18
420
        0
100
AcDbCircle
 10
261.9418757512
 20
825.7283016566
 30
0.0
 40
2.0
100
AcDbArc
 50
180.0
 51
270.0
  0
ARC
  5
254
330
1F
100
AcDbEntity
  8
FISHER_PAYKEL
  6
Continuous
 62
    18
420
        0
100
AcDbCircle
 10
1017.9418757512
 20
825.7283016566
 30
0.0
 40
2.0
100
AcDbArc
 50
270.0
 51
0.0
  0
ARC
  5
255
330
1F
100
AcDbEntity
  8
FISHER_PAYKEL
  6
Continuous
 62
    18
420
        0
100
AcDbCircle
 10
1017.9418757512
 20
1351.7283016566
 30
0.0
 40
2.0
100
AcDbArc
 50
0.0
 51
90.0
  0
ARC
  5
256
330
1F
100
AcDbEntity
  8
FISHER_PAYKEL
  6
Continuous
 62
    18
420
        0
100
AcDbCircle
 10
261.9418757512
 20
1351.7283016566
 30
0.0
 40
2.0
100
AcDbArc
 50
90.0
 51
180.0
  0
ARC
  5
257
330
1F
100
AcDbEntity
  8
FISHER_PAYKEL
  6
Continuous
 62
     3
420
    65280
100
AcDbCircle
 10
1017.9418757512
 20
1351.7283016566
 30
0.0
 40
4.0
100
AcDbArc
 50
0.0
 51
90.0
  0
ARC
  5
258
330
1F
100
AcDbEntity
  8
FISHER_PAYKEL
  6
Continuous
 62
     3
420
    65280
100
AcDbCircle
 10
261.9418757512
 20
1351.7283016566
 30
0.0
 40
4.0
100
AcDbArc
 50
90.0
 51
180.0
  0
CIRCLE
  5
259
330
1F
100
AcDbEntity
  8
FISHER_PAYKEL
  6
Continuous
 62
    18
420
        0
100
AcDbCircle
 10
625.4418757512
 20
1236.7283016566
 30
0.0
 40
82.5
  0
CIRCLE
  5
25A
330
1F
100
AcDbEntity
  8
FISHER_PAYKEL
  6
Continuous
 62
    18
420
        0
100
AcDbCircle
 10
625.4418757512
 20
1236.7283016566
 30
0.0
 40
85.0
  0
CIRCLE
  5
25B
330
1F
100
AcDbEntity
  8
FISHER_PAYKEL
  6
Continuous
 62
    18
420
        0
100
AcDbCircle
 10
439.9418757512
 20
1081.7283016566
 30
0.0
 40
137.5
  0
CIRCLE
  5
25C
330
1F
100
AcDbEntity
  8
FISHER_PAYKEL
  6
Continuous
 62
    18
420
        0
100
AcDbCircle
 10
439.9418757512
 20
1081.7283016566
 30
0.0
 40
140.0
  0
LINE
  5
25D
330
1F
100
AcDbEntity
  8
FISHER_PAYKEL
  6
Continuous
 62
     3
420
    65280
100
AcDbLine
 10
1021.9418757512
 20
1351.7283016566
 30
0.0
 11
1021.9418757512
 21
825.7283016566
 31
0.0
  0
LINE
  5
25E
330
1F
100
AcDbEntity
  8
FISHER_PAYKEL
  6
Continuous
 62
    18
420
        0
100
AcDbLine
 10
1019.9418757512
 20
825.7283016566
 30
0.0
 11
1019.9418757512
 21
1351.7283016566
 31
0.0
  0
LINE
  5
25F
330
1F
100
AcDbEntity
  8
FISHER_PAYKEL
  6
Continuous
 62
     3
420
    65280
100
AcDbLine
 10
1000.9418757512
 20
834.2283016566
 30
0.0
 11
1000.9418757512
 21
1343.2283016566
 31
0.0
  0
LINE
  5
260
330
1F
100
AcDbEntity
  8
FISHER_PAYKEL
  6
Continuous
 62
    18
420
        0
100
AcDbLine
 10
974.9418757512
 20
1355.2283016566
 30
0.0
 11
974.9418757512
 21
1353.7283016566
 31
0.0
  0
LINE
  5
261
330
1F
100
AcDbEntity
  8
FISHER_PAYKEL
  6
Continuous
 62
     1
420
 16711680
100
AcDbLine
 10
249.9418757512
 20
1363.7283016566
 30
0.0
 11
1029.9418757512
 21
1363.7283016566
 31
0.0
  0
LINE
  5
262
330
1F
100
AcDbEntity
  8
FISHER_PAYKEL
  6
Continuous
 62
     3
420
    65280
100
AcDbLine
 10
261.9418757512
 20
1355.7283016566
 30
0.0
 11
1017.9418757512
 21
1355.7283016566
 31
0.0
  0
LINE
  5
263
330
1F
100
AcDbEntity
  8
FISHER_PAYKEL
  6
Continuous
 62
    18
420
        0
100
AcDbLine
 10
974.9418757512
 20
1355.2283016566
 30
0.0
 11
960.9418757512
 21
1355.2283016566
 31
0.0
  0
LINE
  5
264
330
1F
100
AcDbEntity
  8
FISHER_PAYKEL
  6
Continuous
 62
    18
420
        0
100
AcDbLine
 10
1017.9418757512
 20
1353.7283016566
 30
0.0
 11
261.9418757512
 21
1353.7283016566
 31
0.0
  0
LINE
  5
265
330
1F
100
AcDbEntity
  8
FISHER_PAYKEL
  6
Continuous
 62
    18
420
        0
100
AcDbLine
 10
969.9418757512
 20
1326.7283016566
 30
0.0
 11
969.9418757512
 21
1329.2283016566
 31
0.0
  0
LINE
  5
266
330
1F
100
AcDbEntity
  8
FISHER_PAYKEL
  6
Continuous
 62
    18
420
        0
100
AcDbLine
 10
969.9418757512
 20
1137.7283016566
 30
0.0
 11
969.9418757512
 21
1140.2282256566
 31
0.0
  0
LINE
  5
267
330
1F
100
AcDbEntity
  8
FISHER_PAYKEL
  6
Continuous
 62
    18
420
        0
100
AcDbLine
 10
969.9418757512
 20
948.7283016566003
 30
0.0
 11
969.9418757512
 21
951.2282256566002
 31
0.0
  0
LINE
  5
268
330
1F
100
AcDbEntity
  8
FISHER_PAYKEL
  6
Continuous
 62
    18
420
        0
100
AcDbLine
 10
960.9418757512
 20
1355.2283016566
 30
0.0
 11
960.9418757512
 21
1353.7283016566
 31
0.0
  0
LINE
  5
269
330
1F
100
AcDbEntity
  8
FISHER_PAYKEL
  6
Continuous
 62
     3
420
    65280
100
AcDbLine
 10
1000.9418757512
 20
1343.2283016566
 30
0.0
 11
278.9418757512
 21
1343.2283016566
 31
0.0
  0
LINE
  5
26A
330
1F
100
AcDbEntity
  8
FISHER_PAYKEL
  6
Continuous
 62
    18
420
        0
100
AcDbLine
 10
969.9418757512
 20
1329.2283016566
 30
0.0
 11
739.9418757512
 21
1329.2283016566
 31
0.0
  0
LINE
  5
26B
330
1F
100
AcDbEntity
  8
FISHER_PAYKEL
  6
Continuous
 62
    18
420
        0
100
AcDbLine
 10
739.9418757512
 20
1326.7283016566
 30
0.0
 11
969.9418757512
 21
1326.7283016566
 31
0.0
  0
LINE
  5
26C
330
1F
100
AcDbEntity
  8
FISHER_PAYKEL
  6
Continuous
 62
    18
420
        0
100
AcDbLine
 10
969.9418757512
 20
1140.2282256566
 30
0.0
 11
739.9418757512
 21
1140.2282256566
 31
0.0
  0
LINE
  5
26D
330
1F
100
AcDbEntity
  8
FISHER_PAYKEL
  6
Continuous
 62
    18
420
        0
100
AcDbLine
 10
739.9418757512
 20
1137.7283016566
 30
0.0
 11
969.9418757512
 21
1137.7283016566
 31
0.0
  0
LINE
  5
26E
330
1F
100
AcDbEntity
  8
FISHER_PAYKEL
  6
Continuous
 62
    18
420
        0
100
AcDbLine
 10
739.9418757512
 20
951.2282256566002
 30
0.0
 11
739.9418757512
 21
948.7283016566003
 31
0.0
  0
LINE
  5
26F
330
1F
100
AcDbEntity
  8
FISHER_PAYKEL
  6
Continuous
 62
    18
420
        0
100
AcDbLine
 10
739.9418757512
 20
1140.2282256566
 30
0.0
 11
739.9418757512
 21
1137.7283016566
 31
0.0
  0
LINE
  5
270
330
1F
100
AcDbEntity
  8
FISHER_PAYKEL
  6
Continuous
 62
    18
420
        0
100
AcDbLine
 10
739.9418757512
 20
1329.2283016566
 30
0.0
 11
739.9418757512
 21
1326.7283016566
 31
0.0
  0
LINE
  5
271
330
1F
100
AcDbEntity
  8
FISHER_PAYKEL
  6
Continuous
 62
    18
420
        0
100
AcDbLine
 10
706.9418757512
 20
849.7283016566
 30
0.0
 11
706.9418757512
 21
911.7283016566
 31
0.0
  0
LINE
  5
272
330
1F
100
AcDbEntity
  8
FISHER_PAYKEL
  6
Continuous
 62
    18
420
        0
100
AcDbLine
 10
572.9418757512
 20
911.7283016566
 30
0.0
 11
572.9418757512
 21
849.7283016566
 31
0.0
  0
LINE
  5
273
330
1F
100
AcDbEntity
  8
FISHER_PAYKEL
  6
Continuous
 62
    18
420
        0
100
AcDbLine
 10
969.9418757512
 20
951.2282256566002
 30
0.0
 11
739.9418757512
 21
951.2282256566002
 31
0.0
  0
LINE
  5
274
330
1F
100
AcDbEntity
  8
FISHER_PAYKEL
  6
Continuous
 62
    18
420
        0
100
AcDbLine
 10
739.9418757512
 20
948.7283016566003
 30
0.0
 11
969.9418757512
 21
948.7283016566003
 31
0.0
  0
LINE
  5
275
330
1F
100
AcDbEntity
  8
FISHER_PAYKEL
  6
Continuous
 62
    18
420
        0
100
AcDbLine
 10
706.9418757512
 20
911.7283016566
 30
0.0
 11
572.9418757512
 21
911.7283016566
 31
0.0
  0
LINE
  5
276
330
1F
100
AcDbEntity
  8
FISHER_PAYKEL
  6
Continuous
 62
    18
420
        0
100
AcDbLine
 10
572.9418757512
 20
849.7283016566
 30
0.0
 11
706.9418757512
 21
849.7283016566
 31
0.0
  0
LINE
  5
277
330
1F
100
AcDbEntity
  8
FISHER_PAYKEL
  6
Continuous
 62
     3
420
    65280
100
AcDbLine
 10
278.9418757512
 20
834.2283016566
 30
0.0
 11
1000.9418757512
 21
834.2283016566
 31
0.0
  0
LINE
  5
278
330
1F
100
AcDbEntity
  8
FISHER_PAYKEL
  6
Continuous
 62
    18
420
        0
100
AcDbLine
 10
261.9418757512
 20
823.7283016566
 30
0.0
 11
1017.9418757512
 21
823.7283016566
 31
0.0
  0
LINE
  5
279
330
1F
100
AcDbEntity
  8
FISHER_PAYKEL
  6
Continuous
 62
     3
420
    65280
100
AcDbLine
 10
278.9418757512
 20
1343.2283016566
 30
0.0
 11
278.9418757512
 21
834.2283016566
 31
0.0
  0
LINE
  5
27A
330
1F
100
AcDbEntity
  8
FISHER_PAYKEL
  6
Continuous
 62
    18
420
        0
100
AcDbLine
 10
259.9418757512
 20
1351.7283016566
 30
0.0
 11
259.9418757512
 21
825.7283016566
 31
0.0
  0
LINE
  5
27B
330
1F
100
AcDbEntity
  8
FISHER_PAYKEL
  6
Continuous
 62
     3
420
    65280
100
AcDbLine
 10
257.9418757512
 20
825.7283016566
 30
0.0
 11
257.9418757512
 21
1351.7283016566
 31
0.0
  0
LINE
  5
27C
330
1F
100
AcDbEntity
  8
FISHER_PAYKEL
  6
Continuous
 62
     1
420
 16711680
100
AcDbLine
 10
249.9418757512
 20
823.7283016566
 30
0.0
 11
249.9418757512
 21
1363.7283016566
 31
0.0
  0
POLYLINE
  5
27D
330
1F
100
AcDbEntity
  8
FISHER_PAYKEL
  6
Continuous
 62
     1
420
 16711680
100
AcDb2dPolyline
 66
     1
 10
0.0
 20
0.0
 30
0.0
  0
VERTEX
  5
27E
330
27D
100
AcDbEntity
  8
FISHER_PAYKEL
  6
Continuous
 62
     1
420
 16711680
100
AcDbVertex
100
AcDb2dVertex
 10
2203.6123516376
 20
283.7283016566
 30
0.0
  0
VERTEX
  5
27F
330
27D
100
AcDbEntity
  8
FISHER_PAYKEL
  6
Continuous
 62
     1
420
 16711680
100
AcDbVertex
100
AcDb2dVertex
 10
2203.6123516376
 20
933.7283016566
 30
0.0
  0
SEQEND
  5
280
330
27D
100
AcDbEntity
  8
FISHER_PAYKEL
  6
Continuous
 62
     1
420
 16711680
  0
ARC
  5
281
330
1F
100
AcDbEntity
  8
FISHER_PAYKEL
  6
Continuous
 62
    18
420
        0
100
AcDbCircle
 10
2195.1123516376
 20
222.2283016566
 30
0.0
 40
43.0
100
AcDbArc
 50
181.3327706699
 51
270.0
  0
ARC
  5
282
330
1F
100
AcDbEntity
  8
FISHER_PAYKEL
  6
Continuous
 62
    18
420
        0
100
AcDbCircle
 10
2195.1123516376
 20
222.2283016566
 30
0.0
 40
57.0
100
AcDbArc
 50
181.0053932754
 51
270.0
  0
ARC
  5
283
330
1F
100
AcDbEntity
  8
FISHER_PAYKEL
  6
Continuous
 62
    18
420
        0
100
AcDbCircle
 10
967.9418757512
 20
172.2283016566
 30
0.0
 40
7.0
100
AcDbArc
 50
180.0
 51
0.0
  0
LINE
  5
284
330
1F
100
AcDbEntity
  8
FISHER_PAYKEL
  6
Continuous
 62
     1
420
 16711680
100
AcDbLine
 10
2203.6123516376
 20
933.7283016566
 30
0.0
 11
1674.6123516376
 21
933.7283016566
 31
0.0
  0
LINE
  5
285
330
1F
100
AcDbEntity
  8
FISHER_PAYKEL
  6
Continuous
 62
    18
420
        0
100
AcDbLine
 10
2195.1123516376
 20
165.2283016566
 30
0.0
 11
2195.1123516376
 21
179.2283016566
 31
0.0
  0
LINE
  5
286
330
1F
100
AcDbEntity
  8
FISHER_PAYKEL
  6
Continuous
 62
    18
420
        0
100
AcDbLine
 10
2193.6123516376
 20
283.7283016566
 30
0.0
 11
2193.6123516376
 21
279.7283016566
 31
0.0
  0
LINE
  5
287
330
1F
100
AcDbEntity
  8
FISHER_PAYKEL
  6
Continuous
 62
     9
420
 12632256
100
AcDbLine
 10
2191.6123516376
 20
283.7283016566
 30
0.0
 11
2191.6123516376
 21
279.7283016566
 31
0.0
  0
LINE
  5
288
330
1F
100
AcDbEntity
  8
FISHER_PAYKEL
  6
Continuous
 62
    18
420
        0
100
AcDbLine
 10
2186.6123516376
 20
279.7283016566
 30
0.0
 11
2186.6123516376
 21
278.2283016566
 31
0.0
  0
LINE
  5
289
330
1F
100
AcDbEntity
  8
FISHER_PAYKEL
  6
Continuous
 62
    18
420
        0
100
AcDbLine
 10
2181.1123516376
 20
222.2283016566
 30
0.0
 11
2181.1123516376
 21
278.2283016566
 31
0.0
  0
LINE
  5
28A
330
1F
100
AcDbEntity
  8
FISHER_PAYKEL
  6
Continuous
 62
    18
420
        0
100
AcDbLine
 10
2159.1123516376
 20
222.2283016566
 30
0.0
 11
2159.1123516376
 21
221.2283016566
 31
0.0
  0
LINE
  5
28B
330
1F
100
AcDbEntity
  8
FISHER_PAYKEL
  6
Continuous
 62
    18
420
        0
100
AcDbLine
 10
2131.1123516376
 20
222.2283016566
 30
0.0
 11
2131.1123516376
 21
221.2283016566
 31
0.0
  0
LINE
  5
28C
330
1F
100
AcDbEntity
  8
FISHER_PAYKEL
  6
Continuous
 62
     1
420
 16711680
100
AcDbLine
 10
2203.6123516376
 20
733.7283016566
 30
0.0
 11
1674.6123516376
 21
733.7283016566
 31
0.0
  0
LINE
  5
28D
330
1F
100
AcDbEntity
  8
FISHER_PAYKEL
  6
Continuous
 62
    18
420
        0
100
AcDbLine
 10
1714.1123516376
 20
242.2283016566
 30
0.0
 11
1714.1123516376
 21
222.2283016566
 31
0.0
  0
LINE
  5
28E
330
1F
100
AcDbEntity
  8
FISHER_PAYKEL
  6
Continuous
 62
    18
420
        0
100
AcDbLine
 10
1693.1123516376
 20
230.2283016566
 30
0.0
 11
1693.1123516376
 21
242.2283016566
 31
0.0
  0
LINE
  5
28F
330
1F
100
AcDbEntity
  8
FISHER_PAYKEL
  6
Continuous
 62
    18
420
        0
100
AcDbLine
 10
1677.1123516376
 20
278.2283016566
 30
0.0
 11
1677.1123516376
 21
242.2283016566
 31
0.0
  0
LINE
  5
290
330
1F
100
AcDbEntity
  8
FISHER_PAYKEL
  6
Continuous
 62
    18
420
        0
100
AcDbLine
 10
1669.6123516376
 20
279.7283016566
 30
0.0
 11
1669.6123516376
 21
278.2283016566
 31
0.0
  0
LINE
  5
291
330
1F
100
AcDbEntity
  8
FISHER_PAYKEL
  6
Continuous
 62
    18
420
        0
100
AcDbLine
 10
1663.6123516376
 20
283.7283016566
 30
0.0
 11
1663.6123516376
 21
279.7283016566
 31
0.0
  0
LINE
  5
292
330
1F
100
AcDbEntity
  8
FISHER_PAYKEL
  6
Continuous
 62
    18
420
        0
100
AcDbLine
 10
1663.6123516376
 20
283.7283016566
 30
0.0
 11
2193.6123516376
 21
283.7283016566
 31
0.0
  0
LINE
  5
293
330
1F
100
AcDbEntity
  8
FISHER_PAYKEL
  6
Continuous
 62
    18
420
        0
100
AcDbLine
 10
1663.6123516376
 20
279.7283016566
 30
0.0
 11
2193.6123516376
 21
279.7283016566
 31
0.0
  0
LINE
  5
294
330
1F
100
AcDbEntity
  8
FISHER_PAYKEL
  6
Continuous
 62
    18
420
        0
100
AcDbLine
 10
2186.6123516376
 20
278.2283016566
 30
0.0
 11
1669.6123516376
 21
278.2283016566
 31
0.0
  0
LINE
  5
295
330
1F
100
AcDbEntity
  8
FISHER_PAYKEL
  6
Continuous
 62
    18
420
        0
100
AcDbLine
 10
1677.1123516376
 20
242.2283016566
 30
0.0
 11
1714.1123516376
 21
242.2283016566
 31
0.0
  0
LINE
  5
296
330
1F
100
AcDbEntity
  8
FISHER_PAYKEL
  6
Continuous
 62
    18
420
        0
100
AcDbLine
 10
1714.1123516376
 20
230.2283016566
 30
0.0
 11
1693.1123516376
 21
230.2283016566
 31
0.0
  0
LINE
  5
297
330
1F
100
AcDbEntity
  8
FISHER_PAYKEL
  6
Continuous
 62
    18
420
        0
100
AcDbLine
 10
1714.1123516376
 20
222.2283016566
 30
0.0
 11
2181.1123516376
 21
222.2283016566
 31
0.0
  0
LINE
  5
298
330
1F
100
AcDbEntity
  8
FISHER_PAYKEL
  6
Continuous
 62
    18
420
        0
100
AcDbLine
 10
2131.1123516376
 20
221.2283016566
 30
0.0
 11
2159.1123516376
 21
221.2283016566
 31
0.0
  0
LINE
  5
299
330
1F
100
AcDbEntity
  8
FISHER_PAYKEL
  6
Continuous
 62
     1
420
 16711680
100
AcDbLine
 10
1674.1123516376
 20
212.2283016566
 30
0.0
 11
2183.1123516376
 21
212.2283016566
 31
0.0
  0
LINE
  5
29A
330
1F
100
AcDbEntity
  8
FISHER_PAYKEL
  6
Continuous
 62
    18
420
        0
100
AcDbLine
 10
1019.9418757512
 20
283.7283016566
 30
0.0
 11
1019.9418757512
 21
279.7283016566
 31
0.0
  0
LINE
  5
29B
330
1F
100
AcDbEntity
  8
FISHER_PAYKEL
  6
Continuous
 62
    18
420
        0
100
AcDbLine
 10
1006.9418757512
 20
279.7283016566
 30
0.0
 11
1006.9418757512
 21
278.2283016566
 31
0.0
  0
LINE
  5
29C
330
1F
100
AcDbEntity
  8
FISHER_PAYKEL
  6
Continuous
 62
    18
420
        0
100
AcDbLine
 10
996.9418757512
 20
278.2283016566
 30
0.0
 11
996.9418757512
 21
222.2283016566
 31
0.0
  0
LINE
  5
29D
330
1F
100
AcDbEntity
  8
FISHER_PAYKEL
  6
Continuous
 62
    18
420
        0
100
AcDbLine
 10
981.9418757512
 20
222.2283016566
 30
0.0
 11
981.9418757512
 21
221.2283016566
 31
0.0
  0
LINE
  5
29E
330
1F
100
AcDbEntity
  8
FISHER_PAYKEL
  6
Continuous
 62
    18
420
        0
100
AcDbLine
 10
974.9418757512
 20
172.2283016566
 30
0.0
 11
974.9418757512
 21
221.2283016566
 31
0.0
  0
LINE
  5
29F
330
1F
100
AcDbEntity
  8
FISHER_PAYKEL
  6
Continuous
 62
    18
420
        0
100
AcDbLine
 10
970.9418757512
 20
230.2283016566
 30
0.0
 11
970.9418757512
 21
242.2283016566
 31
0.0
  0
LINE
  5
2A0
330
1F
100
AcDbEntity
  8
FISHER_PAYKEL
  6
Continuous
 62
    18
420
        0
100
AcDbLine
 10
960.9418757512
 20
172.2283016566
 30
0.0
 11
960.9418757512
 21
221.2283016566
 31
0.0
  0
LINE
  5
2A1
330
1F
100
AcDbEntity
  8
FISHER_PAYKEL
  6
Continuous
 62
    18
420
        0
100
AcDbLine
 10
953.9418757512
 20
222.2283016566
 30
0.0
 11
953.9418757512
 21
221.2283016566
 31
0.0
  0
LINE
  5
2A2
330
1F
100
AcDbEntity
  8
FISHER_PAYKEL
  6
Continuous
 62
    18
420
        0
100
AcDbLine
 10
951.9418757512
 20
242.2283016566
 30
0.0
 11
951.9418757512
 21
230.2283016566
 31
0.0
  0
LINE
  5
2A3
330
1F
100
AcDbEntity
  8
FISHER_PAYKEL
  6
Continuous
 62
    18
420
        0
100
AcDbLine
 10
259.9418757512
 20
283.7283016566
 30
0.0
 11
1019.9418757512
 21
283.7283016566
 31
0.0
  0
LINE
  5
2A4
330
1F
100
AcDbEntity
  8
FISHER_PAYKEL
  6
Continuous
 62
    18
420
        0
100
AcDbLine
 10
259.9418757512
 20
279.7283016566
 30
0.0
 11
1019.9418757512
 21
279.7283016566
 31
0.0
  0
LINE
  5
2A5
330
1F
100
AcDbEntity
  8
FISHER_PAYKEL
  6
Continuous
 62
    18
420
        0
100
AcDbLine
 10
1006.9418757512
 20
278.2283016566
 30
0.0
 11
272.9418757512
 21
278.2283016566
 31
0.0
  0
LINE
  5
2A6
330
1F
100
AcDbEntity
  8
FISHER_PAYKEL
  6
Continuous
 62
    18
420
        0
100
AcDbLine
 10
282.9418757512
 20
242.2283016566
 30
0.0
 11
996.9418757512
 21
242.2283016566
 31
0.0
  0
LINE
  5
2A7
330
1F
100
AcDbEntity
  8
FISHER_PAYKEL
  6
Continuous
 62
    18
420
        0
100
AcDbLine
 10
951.9418757512
 20
230.2283016566
 30
0.0
 11
970.9418757512
 21
230.2283016566
 31
0.0
  0
LINE
  5
2A8
330
1F
100
AcDbEntity
  8
FISHER_PAYKEL
  6
Continuous
 62
    18
420
        0
100
AcDbLine
 10
311.4418757512
 20
230.2283016566
 30
0.0
 11
325.4418757512
 21
230.2283016566
 31
0.0
  0
LINE
  5
2A9
330
1F
100
AcDbEntity
  8
FISHER_PAYKEL
  6
Continuous
 62
    18
420
        0
100
AcDbLine
 10
325.4418757512
 20
230.2283016566
 30
0.0
 11
325.4418757512
 21
242.2283016566
 31
0.0
  0
LINE
  5
2AA
330
1F
100
AcDbEntity
  8
FISHER_PAYKEL
  6
Continuous
 62
    18
420
        0
100
AcDbLine
 10
311.4418757512
 20
242.2283016566
 30
0.0
 11
311.4418757512
 21
230.2283016566
 31
0.0
  0
LINE
  5
2AB
330
1F
100
AcDbEntity
  8
FISHER_PAYKEL
  6
Continuous
 62
    18
420
        0
100
AcDbLine
 10
282.9418757512
 20
222.2283016566
 30
0.0
 11
996.9418757512
 21
222.2283016566
 31
0.0
  0
LINE
  5
2AC
330
1F
100
AcDbEntity
  8
FISHER_PAYKEL
  6
Continuous
 62
    18
420
        0
100
AcDbLine
 10
981.9418757512
 20
221.2283016566
 30
0.0
 11
953.9418757512
 21
221.2283016566
 31
0.0
  0
LINE
  5
2AD
330
1F
100
AcDbEntity
  8
FISHER_PAYKEL
  6
Continuous
 62
     1
420
 16711680
100
AcDbLine
 10
1000.9418757512
 20
212.2283016566
 30
0.0
 11
278.9418757512
 21
212.2283016566
 31
0.0
  0
LINE
  5
2AE
330
1F
100
AcDbEntity
  8
FISHER_PAYKEL
  6
Continuous
 62
    18
420
        0
100
AcDbLine
 10
282.9418757512
 20
278.2283016566
 30
0.0
 11
282.9418757512
 21
222.2283016566
 31
0.0
  0
LINE
  5
2AF
330
1F
100
AcDbEntity
  8
FISHER_PAYKEL
  6
Continuous
 62
    18
420
        0
100
AcDbLine
 10
272.9418757512
 20
279.7283016566
 30
0.0
 11
272.9418757512
 21
278.2283016566
 31
0.0
  0
LINE
  5
2B0
330
1F
100
AcDbEntity
  8
FISHER_PAYKEL
  6
Continuous
 62
    18
420
        0
100
AcDbLine
 10
259.9418757512
 20
283.7283016566
 30
0.0
 11
259.9418757512
 21
279.7283016566
 31
0.0
  0
ENDSEC
  0
SECTION
  2
OBJECTS
  0
DICTIONARY
  5
C
330
0
100
AcDbDictionary
281
     1
  3
ACAD_DETAILVIEWSTYLE
350
2F4
  3
ACAD_GROUP
350
D
  3
ACAD_LAYOUT
350
1A
  3
ACAD_MATERIAL
350
43
  3
ACAD_MLEADERSTYLE
350
6B
  3
ACAD_MLINESTYLE
350
17
  3
ACAD_PLOTSETTINGS
350
19
  3
ACAD_PLOTSTYLENAME
350
E
  3
ACAD_SCALELIST
350
47
  3
ACAD_SECTIONVIEWSTYLE
350
2F5
  3
ACAD_TABLESTYLE
350
69
  3
ACAD_VISUALSTYLE
350
2A
  3
ACDB_RECOMPOSE_DATA
350
2F1
  3
AcDbVariableDictionary
350
2B9
  0
SUN
  5
6D
330
29
100
AcDbSun
 90
        1
290
     0
 63
     7
421
 16777215
 40
1.0
291
     1
 91
  2455826
 92
 54000000
292
     0
 70
     2
 71
   256
280
     1
  0
DICTIONARY
  5
2F4
102
{ACAD_REACTORS
330
C
102
}
330
C
100
AcDbDictionary
281
     1
  0
DICTIONARY
  5
D
102
{ACAD_REACTORS
330
C
102
}
330
C
100
AcDbDictionary
281
     1
  0
DICTIONARY
  5
1A
102
{ACAD_REACTORS
330
C
102
}
330
C
100
AcDbDictionary
281
     1
  3
Layout1
350
1E
  3
Layout2
350
26
  3
Model
350
22
  0
DICTIONARY
  5
43
102
{ACAD_REACTORS
330
C
102
}
330
C
100
AcDbDictionary
281
     1
  3
ByBlock
350
45
  3
ByLayer
350
44
  3
Global
350
46
  0
DICTIONARY
  5
6B
102
{ACAD_REACTORS
330
C
102
}
330
C
100
AcDbDictionary
281
     1
  3
Standard
350
6C
  0
DICTIONARY
  5
17
102
{ACAD_REACTORS
330
C
102
}
330
C
100
AcDbDictionary
281
     1
  3
Standard
350
18
  0
DICTIONARY
  5
19
102
{ACAD_REACTORS
330
C
102
}
330
C
100
AcDbDictionary
281
     1
  0
ACDBDICTIONARYWDFLT
  5
E
102
{ACAD_REACTORS
330
C
102
}
330
C
100
AcDbDictionary
281
     1
  3
Normal
350
F
100
AcDbDictionaryWithDefault
340
F
  0
DICTIONARY
  5
47
102
{ACAD_REACTORS
330
C
102
}
330
C
100
AcDbDictionary
281
     1
  3
A0
350
48
  3
A1
350
49
  3
A2
350
4A
  3
A3
350
4B
  3
A4
350
4C
  3
A5
350
4D
  3
A6
350
4E
  3
A7
350
4F
  3
A8
350
50
  3
A9
350
51
  3
B0
350
52
  3
B1
350
53
  3
B2
350
54
  3
B3
350
55
  3
B4
350
56
  3
B5
350
57
  3
B6
350
58
  3
B7
350
59
  3
B8
350
5A
  3
B9
350
5B
  3
C0
350
5C
  3
C1
350
5D
  3
C2
350
5E
  3
C3
350
5F
  3
C4
350
60
  3
C5
350
61
  3
C6
350
62
  3
C7
350
63
  3
C8
350
64
  3
C9
350
65
  3
D0
350
66
  3
D1
350
67
  3
D2
350
68
  0
DICTIONARY
  5
2F5
102
{ACAD_REACTORS
330
C
102
}
330
C
100
AcDbDictionary
281
     1
  0
DICTIONARY
  5
69
102
{ACAD_REACTORS
330
C
102
}
330
C
100
AcDbDictionary
281
     1
  3
Standard
350
6A
  0
DICTIONARY
  5
2A
102
{ACAD_REACTORS
330
C
102
}
330
C
100
AcDbDictionary
281
     1
  3
2dWireframe
350
2F
  3
Basic
350
32
  3
Brighten
350
36
  3
ColorChange
350
3A
  3
Conceptual
350
34
  3
Dim
350
35
  3
EdgeColorOff
350
3D
  3
Facepattern
350
39
  3
Flat
350
2B
  3
FlatWithEdges
350
2C
  3
Gouraud
350
2D
  3
GouraudWithEdges
350
2E
  3
Hidden
350
31
  3
JitterOff
350
3B
  3
Linepattern
350
38
  3
OverhangOff
350
3C
  3
Realistic
350
33
  3
Shaded
350
42
  3
Shaded with edges
350
41
  3
Shades of Gray
350
3E
  3
Sketchy
350
3F
  3
Thicken
350
37
  3
Wireframe
350
30
  3
X-Ray
350
40
  0
XRECORD
  5
2F1
102
{ACAD_REACTORS
330
C
102
}
330
C
100
AcDbXrecord
280
     1
 90
        1
330
6A
  0
DICTIONARY
  5
2B9
102
{ACAD_REACTORS
330
C
102
}
330
C
100
AcDbDictionary
281
     1
  3
CANNOSCALE
350
2BA
  3
CMLEADERSTYLE
350
2F3
  3
CTABLESTYLE
350
2F2
  3
XCLIPFRAME
350
2BB
  0
LAYOUT
  5
1E
102
{ACAD_REACTORS
330
1A
102
}
330
1A
100
AcDbPlotSettings
  1

  2
none_device
  4

  6

 40
0.0
 41
0.0
 42
0.0
 43
0.0
 44
0.0
 45
0.0
 46
0.0
 47
0.0
 48
0.0
 49
0.0
140
0.0
141
0.0
142
1.0
143
1.0
 70
   688
 72
     0
 73
     0
 74
     5
  7

 75
    16
 76
     0
 77
     2
 78
   300
147
1.0
148
0.0
149
0.0
100
AcDbLayout
  1
Layout1
 70
     1
 71
     1
 10
0.0
 20
0.0
 11
12.0
 21
9.0
 12
0.0
 22
0.0
 32
0.0
 14
1.000000000000000E+20
 24
1.000000000000000E+20
 34
1.000000000000000E+20
 15
-1.000000000000000E+20
 25
-1.000000000000000E+20
 35
-1.000000000000000E+20
146
0.0
 13
0.0
 23
0.0
 33
0.0
 16
1.0
 26
0.0
 36
0.0
 17
0.0
 27
1.0
 37
0.0
 76
     0
330
1B
  0
LAYOUT
  5
26
102
{ACAD_REACTORS
330
1A
102
}
330
1A
100
AcDbPlotSettings
  1

  2
none_device
  4

  6

 40
0.0
 41
0.0
 42
0.0
 43
0.0
 44
0.0
 45
0.0
 46
0.0
 47
0.0
 48
0.0
 49
0.0
140
0.0
141
0.0
142
1.0
143
1.0
 70
   688
 72
     0
 73
     0
 74
     5
  7

 75
    16
 76
     0
 77
     2
 78
   300
147
1.0
148
0.0
149
0.0
100
AcDbLayout
  1
Layout2
 70
     1
 71
     2
 10
0.0
 20
0.0
 11
0.0
 21
0.0
 12
0.0
 22
0.0
 32
0.0
 14
0.0
 24
0.0
 34
0.0
 15
0.0
 25
0.0
 35
0.0
146
0.0
 13
0.0
 23
0.0
 33
0.0
 16
1.0
 26
0.0
 36
0.0
 17
0.0
 27
1.0
 37
0.0
 76
     0
330
23
  0
LAYOUT
  5
22
102
{ACAD_REACTORS
330
1A
102
}
330
1A
100
AcDbPlotSettings
  1

  2
none_device
  4
Letter_(8.50_x_11.00_Inches)
  6

 40
6.35
 41
6.35
 42
6.35000508
 43
6.35000508
 44
215.9
 45
279.4
 46
0.0
 47
0.0
 48
0.0
 49
0.0
140
0.0
141
0.0
142
1.0
143
1.0
 70
  1712
 72
     0
 73
     0
 74
     0
  7

 75
     0
 76
     0
 77
     2
 78
   300
147
1.0
148
0.0
149
0.0
100
AcDbLayout
  1
Model
 70
     1
 71
     0
 10
0.0
 20
0.0
 11
12.0
 21
9.0
 12
0.0
 22
0.0
 32
0.0
 14
1.000000000000000E+20
 24
1.000000000000000E+20
 34
1.000000000000000E+20
 15
-1.000000000000000E+20
 25
-1.000000000000000E+20
 35
-1.000000000000000E+20
146
0.0
 13
0.0
 23
0.0
 33
0.0
 16
1.0
 26
0.0
 36
0.0
 17
0.0
 27
1.0
 37
0.0
 76
     0
330
1F
331
29
  0
MATERIAL
  5
45
102
{ACAD_REACTORS
330
43
102
}
330
43
100
AcDbMaterial
  1
ByBlock
 72
     1
 94
      127
  0
MATERIAL
  5
44
102
{ACAD_REACTORS
330
43
102
}
330
43
100
AcDbMaterial
  1
ByLayer
 72
     1
 94
      127
  0
MATERIAL
  5
46
102
{ACAD_REACTORS
330
43
102
}
330
43
100
AcDbMaterial
  1
Global
 72
     1
 94
      127
  0
MLEADERSTYLE
  5
6C
102
{ACAD_REACTORS
330
6B
102
}
102
{ACAD_XDICTIONARY
360
2EF
102
}
330
6B
100
AcDbMLeaderStyle
170
     2
171
     1
172
     0
 90
        2
 40
0.0
 41
0.0
173
     1
 91
-1056964608
340
14
 92
       -2
290
     1
 42
0.09
291
     1
 43
0.36
  3
Standard
341
0
 44
0.18
300

342
11
174
     1
178
     6
175
     1
176
     0
 93
-1056964608
 45
0.18
292
     0
297
     0
 46
0.18
343
0
 94
-1056964608
 47
1.0
 49
1.0
140
1.0
293
     1
141
0.0
294
     1
177
     0
142
1.0
295
     0
296
     0
143
0.125
1001
ACAD_MLEADERVER
1070
     2
  0
MLINESTYLE
  5
18
102
{ACAD_REACTORS
330
17
102
}
330
17
100
AcDbMlineStyle
  2
Standard
 70
     0
  3

 62
   256
 51
90.0
 52
90.0
 71
     2
 49
0.5
 62
   256
  6
BYLAYER
 49
-0.5
 62
   256
  6
BYLAYER
  0
ACDBPLACEHOLDER
  5
F
102
{ACAD_REACTORS
330
E
102
}
330
E
  0
SCALE
  5
48
102
{ACAD_REACTORS
330
47
102
}
330
47
100
AcDbScale
 70
     0
300
1:1
140
1.0
141
1.0
290
     1
  0
SCALE
  5
49
102
{ACAD_REACTORS
330
47
102
}
330
47
100
AcDbScale
 70
     0
300
1:2
140
1.0
141
2.0
290
     0
  0
SCALE
  5
4A
102
{ACAD_REACTORS
330
47
102
}
330
47
100
AcDbScale
 70
     0
300
1:4
140
1.0
141
4.0
290
     0
  0
SCALE
  5
4B
102
{ACAD_REACTORS
330
47
102
}
330
47
100
AcDbScale
 70
     0
300
1:5
140
1.0
141
5.0
290
     0
  0
SCALE
  5
4C
102
{ACAD_REACTORS
330
47
102
}
330
47
100
AcDbScale
 70
     0
300
1:8
140
1.0
141
8.0
290
     0
  0
SCALE
  5
4D
102
{ACAD_REACTORS
330
47
102
}
330
47
100
AcDbScale
 70
     0
300
1:10
140
1.0
141
10.0
290
     0
  0
SCALE
  5
4E
102
{ACAD_REACTORS
330
47
102
}
330
47
100
AcDbScale
 70
     0
300
1:16
140
1.0
141
16.0
290
     0
  0
SCALE
  5
4F
102
{ACAD_REACTORS
330
47
102
}
330
47
100
AcDbScale
 70
     0
300
1:20
140
1.0
141
20.0
290
     0
  0
SCALE
  5
50
102
{ACAD_REACTORS
330
47
102
}
330
47
100
AcDbScale
 70
     0
300
1:30
140
1.0
141
30.0
290
     0
  0
SCALE
  5
51
102
{ACAD_REACTORS
330
47
102
}
330
47
100
AcDbScale
 70
     0
300
1:40
140
1.0
141
40.0
290
     0
  0
SCALE
  5
52
102
{ACAD_REACTORS
330
47
102
}
330
47
100
AcDbScale
 70
     0
300
1:50
140
1.0
141
50.0
290
     0
  0
SCALE
  5
53
102
{ACAD_REACTORS
330
47
102
}
330
47
100
AcDbScale
 70
     0
300
1:100
140
1.0
141
100.0
290
     0
  0
SCALE
  5
54
102
{ACAD_REACTORS
330
47
102
}
330
47
100
AcDbScale
 70
     0
300
2:1
140
2.0
141
1.0
290
     0
  0
SCALE
  5
55
102
{ACAD_REACTORS
330
47
102
}
330
47
100
AcDbScale
 70
     0
300
4:1
140
4.0
141
1.0
290
     0
  0
SCALE
  5
56
102
{ACAD_REACTORS
330
47
102
}
330
47
100
AcDbScale
 70
     0
300
8:1
140
8.0
141
1.0
290
     0
  0
SCALE
  5
57
102
{ACAD_REACTORS
330
47
102
}
330
47
100
AcDbScale
 70
     0
300
10:1
140
10.0
141
1.0
290
     0
  0
SCALE
  5
58
102
{ACAD_REACTORS
330
47
102
}
330
47
100
AcDbScale
 70
     0
300
100:1
140
100.0
141
1.0
290
     0
  0
SCALE
  5
59
102
{ACAD_REACTORS
330
47
102
}
330
47
100
AcDbScale
 70
     0
300
1/128" = 1'-0"
140
0.0078125
141
12.0
290
     0
  0
SCALE
  5
5A
102
{ACAD_REACTORS
330
47
102
}
330
47
100
AcDbScale
 70
     0
300
1/64" = 1'-0"
140
0.015625
141
12.0
290
     0
  0
SCALE
  5
5B
102
{ACAD_REACTORS
330
47
102
}
330
47
100
AcDbScale
 70
     0
300
1/32" = 1'-0"
140
0.03125
141
12.0
290
     0
  0
SCALE
  5
5C
102
{ACAD_REACTORS
330
47
102
}
330
47
100
AcDbScale
 70
     0
300
1/16" = 1'-0"
140
0.0625
141
12.0
290
     0
  0
SCALE
  5
5D
102
{ACAD_REACTORS
330
47
102
}
330
47
100
AcDbScale
 70
     0
300
3/32" = 1'-0"
140
0.09375
141
12.0
290
     0
  0
SCALE
  5
5E
102
{ACAD_REACTORS
330
47
102
}
330
47
100
AcDbScale
 70
     0
300
1/8" = 1'-0"
140
0.125
141
12.0
290
     0
  0
SCALE
  5
5F
102
{ACAD_REACTORS
330
47
102
}
330
47
100
AcDbScale
 70
     0
300
3/16" = 1'-0"
140
0.1875
141
12.0
290
     0
  0
SCALE
  5
60
102
{ACAD_REACTORS
330
47
102
}
330
47
100
AcDbScale
 70
     0
300
1/4" = 1'-0"
140
0.25
141
12.0
290
     0
  0
SCALE
  5
61
102
{ACAD_REACTORS
330
47
102
}
330
47
100
AcDbScale
 70
     0
300
3/8" = 1'-0"
140
0.375
141
12.0
290
     0
  0
SCALE
  5
62
102
{ACAD_REACTORS
330
47
102
}
330
47
100
AcDbScale
 70
     0
300
1/2" = 1'-0"
140
0.5
141
12.0
290
     0
  0
SCALE
  5
63
102
{ACAD_REACTORS
330
47
102
}
330
47
100
AcDbScale
 70
     0
300
3/4" = 1'-0"
140
0.75
141
12.0
290
     0
  0
SCALE
  5
64
102
{ACAD_REACTORS
330
47
102
}
330
47
100
AcDbScale
 70
     0
300
1" = 1'-0"
140
1.0
141
12.0
290
     0
  0
SCALE
  5
65
102
{ACAD_REACTORS
330
47
102
}
330
47
100
AcDbScale
 70
     0
300
1-1/2" = 1'-0"
140
1.5
141
12.0
290
     0
  0
SCALE
  5
66
102
{ACAD_REACTORS
330
47
102
}
330
47
100
AcDbScale
 70
     0
300
3" = 1'-0"
140
3.0
141
12.0
290
     0
  0
SCALE
  5
67
102
{ACAD_REACTORS
330
47
102
}
330
47
100
AcDbScale
 70
     0
300
6" = 1'-0"
140
6.0
141
12.0
290
     0
  0
SCALE
  5
68
102
{ACAD_REACTORS
330
47
102
}
330
47
100
AcDbScale
 70
     0
300
1'-0" = 1'-0"
140
12.0
141
12.0
290
     0
  0
TABLESTYLE
  5
6A
102
{ACAD_REACTORS
330
69
102
}
102
{ACAD_XDICTIONARY
360
2EC
102
}
330
69
100
AcDbTableStyle
  3
Standard
 70
     0
 71
     0
 40
0.06
 41
0.06
280
     0
281
     0
  7
Standard
140
0.18
170
     2
 62
     0
 63
   257
283
     0
 90
        4
 91
        0
  1

274
    -2
284
     1
 64
     0
275
    -2
285
     1
 65
     0
276
    -2
286
     1
 66
     0
277
    -2
287
     1
 67
     0
278
    -2
288
     1
 68
     0
279
    -2
289
     1
 69
     0
  7
Standard
140
0.25
170
     5
 62
     0
 63
   257
283
     0
 90
        4
 91
        0
  1

274
    -2
284
     1
 64
     0
275
    -2
285
     1
 65
     0
276
    -2
286
     1
 66
     0
277
    -2
287
     1
 67
     0
278
    -2
288
     1
 68
     0
279
    -2
289
     1
 69
     0
  7
Standard
140
0.18
170
     5
 62
     0
 63
   257
283
     0
 90
        4
 91
        0
  1

274
    -2
284
     1
 64
     0
275
    -2
285
     1
 65
     0
276
    -2
286
     1
 66
     0
277
    -2
287
     1
 67
     0
278
    -2
288
     1
 68
     0
279
    -2
289
     1
 69
     0
  0
VISUALSTYLE
  5
2F
102
{ACAD_REACTORS
330
2A
102
}
102
{ACAD_XDICTIONARY
360
2C4
102
}
330
2A
100
AcDbVisualStyle
  2
2dWireframe
 70
     4
 71
     0
 72
     2
 73
     0
 90
        0
 40
0.6
 41
30.0
 62
     5
 63
     7
421
 16777215
 74
     1
 91
        4
 64
     7
 65
   257
 75
     1
175
     1
 42
1.0
 92
        0
 66
   257
 43
1.0
 76
     1
 77
     6
 78
     2
 67
     7
 79
     5
170
     0
171
     0
290
     0
174
     0
 93
        1
 44
0.0
173
     0
291
     0
 45
0.0
  0
VISUALSTYLE
  5
32
102
{ACAD_REACTORS
330
2A
102
}
102
{ACAD_XDICTIONARY
360
2CA
102
}
330
2A
100
AcDbVisualStyle
  2
Basic
 70
     7
 71
     1
 72
     0
 73
     1
 90
        0
 40
0.6
 41
30.0
 62
     5
 63
     7
421
 16777215
 74
     0
 91
        4
 64
     7
 65
   257
 75
     1
175
     1
 42
1.0
 92
        8
 66
     7
 43
1.0
 76
     1
 77
     6
 78
     2
 67
     7
 79
     5
170
     0
171
     0
290
     0
174
     0
 93
        1
 44
0.0
173
     0
291
     1
 45
0.0
  0
VISUALSTYLE
  5
36
102
{ACAD_REACTORS
330
2A
102
}
102
{ACAD_XDICTIONARY
360
2D2
102
}
330
2A
100
AcDbVisualStyle
  2
Brighten
 70
    12
 71
     2
 72
     2
 73
     0
 90
        0
 40
0.6
 41
30.0
 62
     5
 63
     7
421
 16777215
 74
     1
 91
        4
 64
     7
 65
   257
 75
     1
175
     1
 42
1.0
 92
        8
 66
     7
 43
1.0
 76
     1
 77
     6
 78
     2
 67
     7
 79
     5
170
     0
171
     0
290
     0
174
     0
 93
        1
 44
50.0
173
     0
291
     1
 45
0.0
  0
VISUALSTYLE
  5
3A
102
{ACAD_REACTORS
330
2A
102
}
102
{ACAD_XDICTIONARY
360
2DA
102
}
330
2A
100
AcDbVisualStyle
  2
ColorChange
 70
    16
 71
     2
 72
     2
 73
     3
 90
        0
 40
0.6
 41
30.0
 62
     5
 63
     8
421
  8421504
 74
     1
 91
        4
 64
     7
 65
   257
 75
     1
175
     1
 42
1.0
 92
        8
 66
     8
424
  8421504
 43
1.0
 76
     1
 77
     6
 78
     2
 67
     7
 79
     5
170
     0
171
     0
290
     0
174
     0
 93
        1
 44
0.0
173
     0
291
     1
 45
0.0
  0
VISUALSTYLE
  5
34
102
{ACAD_REACTORS
330
2A
102
}
102
{ACAD_XDICTIONARY
360
2CE
102
}
330
2A
100
AcDbVisualStyle
  2
Conceptual
 70
     9
 71
     3
 72
     2
 73
     0
 90
        0
 40
0.6
 41
30.0
 62
     5
 63
     7
421
 16777215
 74
     2
 91
        2
 64
     7
 65
   257
 75
     1
175
     1
 42
179.0
 92
        8
 66
     7
 43
1.0
 76
     1
 77
     6
 78
     2
 67
     7
 79
     3
170
     0
171
     0
290
     0
174
     0
 93
        1
 44
0.0
173
     0
291
     0
 45
0.0
  0
VISUALSTYLE
  5
35
102
{ACAD_REACTORS
330
2A
102
}
102
{ACAD_XDICTIONARY
360
2D0
102
}
330
2A
100
AcDbVisualStyle
  2
Dim
 70
    11
 71
     2
 72
     2
 73
     0
 90
        0
 40
0.6
 41
30.0
 62
     5
 63
     7
421
 16777215
 74
     1
 91
        4
 64
     7
 65
   257
 75
     1
175
     1
 42
1.0
 92
        8
 66
     7
 43
1.0
 76
     1
 77
     6
 78
     2
 67
     7
 79
     5
170
     0
171
     0
290
     0
174
     0
 93
        1
 44
-50.0
173
     0
291
     1
 45
0.0
  0
VISUALSTYLE
  5
3D
102
{ACAD_REACTORS
330
2A
102
}
102
{ACAD_XDICTIONARY
360
2E0
102
}
330
2A
100
AcDbVisualStyle
  2
EdgeColorOff
 70
    22
 71
     2
 72
     2
 73
     0
 90
        0
 40
0.6
 41
30.0
 62
     5
 63
     7
421
 16777215
 74
     1
 91
        4
 64
     7
 65
   257
 75
     1
175
     1
 42
1.0
 92
        8
 66
     7
 43
1.0
 76
     1
 77
     6
 78
     2
 67
     7
 79
     5
170
     0
171
     0
290
     0
174
     0
 93
        1
 44
0.0
173
     0
291
     1
 45
0.0
  0
VISUALSTYLE
  5
39
102
{ACAD_REACTORS
330
2A
102
}
102
{ACAD_XDICTIONARY
360
2D8
102
}
330
2A
100
AcDbVisualStyle
  2
Facepattern
 70
    15
 71
     2
 72
     2
 73
     0
 90
        0
 40
0.6
 41
30.0
 62
     5
 63
     7
421
 16777215
 74
     1
 91
        4
 64
     7
 65
   257
 75
     1
175
     1
 42
1.0
 92
        8
 66
     7
 43
1.0
 76
     1
 77
     6
 78
     2
 67
     7
 79
     5
170
     0
171
     0
290
     0
174
     0
 93
        1
 44
0.0
173
     0
291
     1
 45
0.0
  0
VISUALSTYLE
  5
2B
102
{ACAD_REACTORS
330
2A
102
}
102
{ACAD_XDICTIONARY
360
2BC
102
}
330
2A
100
AcDbVisualStyle
  2
Flat
 70
     0
 71
     2
 72
     1
 73
     1
 90
        2
 40
0.6
 41
30.0
 62
     5
 63
     7
421
 16777215
 74
     0
 91
        0
 64
     7
 65
   257
 75
     1
175
     1
 42
1.0
 92
        8
 66
     7
 43
1.0
 76
     1
 77
     6
 78
     2
 67
     7
 79
     5
170
     0
171
     0
290
     0
174
     0
 93
       13
 44
0.0
173
     0
291
     1
 45
0.0
  0
VISUALSTYLE
  5
2C
102
{ACAD_REACTORS
330
2A
102
}
102
{ACAD_XDICTIONARY
360
2BE
102
}
330
2A
100
AcDbVisualStyle
  2
FlatWithEdges
 70
     1
 71
     2
 72
     1
 73
     1
 90
        2
 40
0.6
 41
30.0
 62
     5
 63
     7
421
 16777215
 74
     1
 91
        0
 64
     7
 65
   257
 75
     1
175
     1
 42
1.0
 92
        0
 66
   257
 43
1.0
 76
     1
 77
     6
 78
     2
 67
     7
 79
     5
170
     0
171
     0
290
     0
174
     0
 93
       13
 44
0.0
173
     0
291
     1
 45
0.0
  0
VISUALSTYLE
  5
2D
102
{ACAD_REACTORS
330
2A
102
}
102
{ACAD_XDICTIONARY
360
2C0
102
}
330
2A
100
AcDbVisualStyle
  2
Gouraud
 70
     2
 71
     2
 72
     2
 73
     1
 90
        2
 40
0.6
 41
30.0
 62
     5
 63
     7
421
 16777215
 74
     0
 91
        0
 64
     7
 65
   257
 75
     1
175
     1
 42
1.0
 92
        0
 66
     7
 43
1.0
 76
     1
 77
     6
 78
     2
 67
     7
 79
     5
170
     0
171
     0
290
     0
174
     0
 93
       13
 44
0.0
173
     0
291
     1
 45
0.0
  0
VISUALSTYLE
  5
2E
102
{ACAD_REACTORS
330
2A
102
}
102
{ACAD_XDICTIONARY
360
2C2
102
}
330
2A
100
AcDbVisualStyle
  2
GouraudWithEdges
 70
     3
 71
     2
 72
     2
 73
     1
 90
        2
 40
0.6
 41
30.0
 62
     5
 63
     7
421
 16777215
 74
     1
 91
        0
 64
     7
 65
   257
 75
     1
175
     1
 42
1.0
 92
        0
 66
   257
 43
1.0
 76
     1
 77
     6
 78
     2
 67
     7
 79
     5
170
     0
171
     0
290
     0
174
     0
 93
       13
 44
0.0
173
     0
291
     1
 45
0.0
  0
VISUALSTYLE
  5
31
102
{ACAD_REACTORS
330
2A
102
}
102
{ACAD_XDICTIONARY
360
2C8
102
}
330
2A
100
AcDbVisualStyle
  2
Hidden
 70
     6
 71
     1
 72
     2
 73
     2
 90
        0
 40
0.6
 41
30.0
 62
     5
 63
     7
421
 16777215
 74
     2
 91
        2
 64
     7
 65
   257
 75
     2
175
     1
 42
40.0
 92
        0
 66
   257
 43
1.0
 76
     1
 77
     6
 78
     2
 67
     7
 79
     3
170
     0
171
     0
290
     0
174
     0
 93
        1
 44
0.0
173
     0
291
     0
 45
0.0
  0
VISUALSTYLE
  5
3B
102
{ACAD_REACTORS
330
2A
102
}
102
{ACAD_XDICTIONARY
360
2DC
102
}
330
2A
100
AcDbVisualStyle
  2
JitterOff
 70
    20
 71
     2
 72
     2
 73
     0
 90
        0
 40
0.6
 41
30.0
 62
     5
 63
     7
421
 16777215
 74
     1
 91
        4
 64
     7
 65
   257
 75
     1
175
     1
 42
1.0
 92
       10
 66
     7
 43
1.0
 76
     1
 77
     6
 78
     2
 67
     7
 79
     5
170
     0
171
     0
290
     0
174
     0
 93
        1
 44
0.0
173
     0
291
     1
 45
0.0
  0
VISUALSTYLE
  5
38
102
{ACAD_REACTORS
330
2A
102
}
102
{ACAD_XDICTIONARY
360
2D6
102
}
330
2A
100
AcDbVisualStyle
  2
Linepattern
 70
    14
 71
     2
 72
     2
 73
     0
 90
        0
 40
0.6
 41
30.0
 62
     5
 63
     7
421
 16777215
 74
     1
 91
        4
 64
     7
 65
   257
 75
     7
175
     7
 42
1.0
 92
        8
 66
     7
 43
1.0
 76
     1
 77
     6
 78
     2
 67
     7
 79
     5
170
     0
171
     0
290
     0
174
     0
 93
        1
 44
0.0
173
     0
291
     1
 45
0.0
  0
VISUALSTYLE
  5
3C
102
{ACAD_REACTORS
330
2A
102
}
102
{ACAD_XDICTIONARY
360
2DE
102
}
330
2A
100
AcDbVisualStyle
  2
OverhangOff
 70
    21
 71
     2
 72
     2
 73
     0
 90
        0
 40
0.6
 41
30.0
 62
     5
 63
     7
421
 16777215
 74
     1
 91
        4
 64
     7
 65
   257
 75
     1
175
     1
 42
1.0
 92
        9
 66
     7
 43
1.0
 76
     1
 77
     6
 78
     2
 67
     7
 79
     5
170
     0
171
     0
290
     0
174
     0
 93
        1
 44
0.0
173
     0
291
     1
 45
0.0
  0
VISUALSTYLE
  5
33
102
{ACAD_REACTORS
330
2A
102
}
102
{ACAD_XDICTIONARY
360
2CC
102
}
330
2A
100
AcDbVisualStyle
  2
Realistic
 70
     8
 71
     2
 72
     3
 73
     0
 90
        2
 40
0.6
 41
30.0
 62
     5
 63
     7
421
 16777215
 74
     0
 91
        0
 64
     7
 65
   257
 75
     1
175
     1
 42
1.0
 92
        8
 66
   257
 43
1.0
 76
     1
 77
     6
 78
     2
 67
     7
 79
     3
170
     0
171
     0
290
     0
174
     0
 93
       13
 44
0.0
173
     0
291
     0
 45
0.0
  0
VISUALSTYLE
  5
42
102
{ACAD_REACTORS
330
2A
102
}
102
{ACAD_XDICTIONARY
360
2EA
102
}
330
2A
100
AcDbVisualStyle
  2
Shaded
 70
    27
 71
     2
 72
     2
 73
     1
 90
        2
 40
0.6
 41
30.0
 62
     5
 63
     7
421
 16777215
 74
     0
 91
        4
 64
     7
 65
   257
 75
     1
175
     1
 42
1.0
 92
        8
 66
   257
 43
1.0
 76
     1
 77
     6
 78
     2
 67
     8
425
  7895160
 79
     3
170
     0
171
     0
290
     0
174
     0
 93
        5
 44
0.0
173
     0
291
     0
 45
0.0
  0
VISUALSTYLE
  5
41
102
{ACAD_REACTORS
330
2A
102
}
102
{ACAD_XDICTIONARY
360
2E8
102
}
330
2A
100
AcDbVisualStyle
  2
Shaded with edges
 70
    26
 71
     2
 72
     2
 73
     1
 90
        2
 40
0.6
 41
30.0
 62
     5
 63
     7
421
 16777215
 74
     1
 91
       10
 64
     7
 65
   257
 75
     2
175
     1
 42
1.0
 92
        8
 66
   257
 43
1.0
 76
     1
 77
     6
 78
     2
 67
     7
 79
     3
170
     0
171
     0
290
     0
174
     0
 93
        5
 44
0.0
173
     0
291
     0
 45
0.0
  0
VISUALSTYLE
  5
3E
102
{ACAD_REACTORS
330
2A
102
}
102
{ACAD_XDICTIONARY
360
2E2
102
}
330
2A
100
AcDbVisualStyle
  2
Shades of Gray
 70
    23
 71
     2
 72
     2
 73
     3
 90
        0
 40
0.6
 41
30.0
 62
     5
 63
     7
421
 16777215
 74
     2
 91
        2
 64
     7
 65
     7
 75
     1
175
     1
 42
40.0
 92
        8
 66
     7
 43
1.0
 76
     1
 77
     6
 78
     2
 67
     7
 79
     3
170
     0
171
     0
290
     0
174
     0
 93
        1
 44
0.0
173
     0
291
     0
 45
0.0
  0
VISUALSTYLE
  5
3F
102
{ACAD_REACTORS
330
2A
102
}
102
{ACAD_XDICTIONARY
360
2E4
102
}
330
2A
100
AcDbVisualStyle
  2
Sketchy
 70
    24
 71
     1
 72
     2
 73
     2
 90
        0
 40
0.6
 41
30.0
 62
     5
 63
     7
421
 16777215
 74
     2
 91
        2
 64
     7
 65
     7
 75
     1
175
     1
 42
40.0
 92
       11
 66
     7
 43
1.0
 76
     1
 77
     6
 78
     2
 67
     7
 79
     6
170
     0
171
     0
290
     0
174
     0
 93
        1
 44
0.0
173
     0
291
     0
 45
0.0
  0
VISUALSTYLE
  5
37
102
{ACAD_REACTORS
330
2A
102
}
102
{ACAD_XDICTIONARY
360
2D4
102
}
330
2A
100
AcDbVisualStyle
  2
Thicken
 70
    13
 71
     2
 72
     2
 73
     0
 90
        0
 40
0.6
 41
30.0
 62
     5
 63
     7
421
 16777215
 74
     1
 91
        4
 64
     7
 65
   257
 75
     1
175
     1
 42
1.0
 92
       12
 66
     7
 43
1.0
 76
     1
 77
     6
 78
     2
 67
     7
 79
     5
170
     0
171
     0
290
     0
174
     0
 93
        1
 44
0.0
173
     0
291
     1
 45
0.0
  0
VISUALSTYLE
  5
30
102
{ACAD_REACTORS
330
2A
102
}
102
{ACAD_XDICTIONARY
360
2C6
102
}
330
2A
100
AcDbVisualStyle
  2
Wireframe
 70
     5
 71
     0
 72
     2
 73
     0
 90
        0
 40
0.6
 41
30.0
 62
     5
 63
     7
421
 16777215
 74
     1
 91
        4
 64
     7
 65
   257
 75
     1
175
     1
 42
1.0
 92
        0
 66
   257
 43
1.0
 76
     1
 77
     6
 78
     2
 67
     7
 79
     3
170
     0
171
     0
290
     0
174
     0
 93
        1
 44
0.0
173
     0
291
     0
 45
0.0
  0
VISUALSTYLE
  5
40
102
{ACAD_REACTORS
330
2A
102
}
102
{ACAD_XDICTIONARY
360
2E6
102
}
330
2A
100
AcDbVisualStyle
  2
X-Ray
 70
    25
 71
     2
 72
     2
 73
     1
 90
        1
 40
0.5
 41
30.0
 62
     5
 63
     7
421
 16777215
 74
     1
 91
        0
 64
     7
 65
   257
 75
     1
175
     1
 42
1.0
 92
        8
 66
     7
 43
1.0
 76
     1
 77
     6
 78
     2
 67
     7
 79
     3
170
     0
171
     0
290
     0
174
     0
 93
       13
 44
0.0
173
     0
291
     0
 45
0.0
  0
DICTIONARYVAR
  5
2BA
102
{ACAD_REACTORS
330
2B9
102
}
330
2B9
100
DictionaryVariables
280
     0
  1
1:1
  0
DICTIONARYVAR
  5
2F3
102
{ACAD_REACTORS
330
2B9
102
}
330
2B9
100
DictionaryVariables
280
     0
  1
Standard
  0
DICTIONARYVAR
  5
2F2
102
{ACAD_REACTORS
330
2B9
102
}
330
2B9
100
DictionaryVariables
280
     0
  1
Standard
  0
DICTIONARYVAR
  5
2BB
102
{ACAD_REACTORS
330
2B9
102
}
330
2B9
100
DictionaryVariables
280
     0
  1
2
  0
DICTIONARY
  5
2EF
330
6C
100
AcDbDictionary
280
     1
281
     1
  3
ACAD_XREC_ROUNDTRIP
360
2F0
  0
DICTIONARY
  5
2EC
330
6A
100
AcDbDictionary
280
     1
281
     1
  3
ACAD_ROUNDTRIP_2008_TABLESTYLE_CELLSTYLEMAP
360
2ED
  0
DICTIONARY
  5
2C4
330
2F
100
AcDbDictionary
280
     1
281
     1
  3
ACAD_XREC_ROUNDTRIP
360
2C5
  0
DICTIONARY
  5
2CA
330
32
100
AcDbDictionary
280
     1
281
     1
  3
ACAD_XREC_ROUNDTRIP
360
2CB
  0
DICTIONARY
  5
2D2
330
36
100
AcDbDictionary
280
     1
281
     1
  3
ACAD_XREC_ROUNDTRIP
360
2D3
  0
DICTIONARY
  5
2DA
330
3A
100
AcDbDictionary
280
     1
281
     1
  3
ACAD_XREC_ROUNDTRIP
360
2DB
  0
DICTIONARY
  5
2CE
330
34
100
AcDbDictionary
280
     1
281
     1
  3
ACAD_XREC_ROUNDTRIP
360
2CF
  0
DICTIONARY
  5
2D0
330
35
100
AcDbDictionary
280
     1
281
     1
  3
ACAD_XREC_ROUNDTRIP
360
2D1
  0
DICTIONARY
  5
2E0
330
3D
100
AcDbDictionary
280
     1
281
     1
  3
ACAD_XREC_ROUNDTRIP
360
2E1
  0
DICTIONARY
  5
2D8
330
39
100
AcDbDictionary
280
     1
281
     1
  3
ACAD_XREC_ROUNDTRIP
360
2D9
  0
DICTIONARY
  5
2BC
330
2B
100
AcDbDictionary
280
     1
281
     1
  3
ACAD_XREC_ROUNDTRIP
360
2BD
  0
DICTIONARY
  5
2BE
330
2C
100
AcDbDictionary
280
     1
281
     1
  3
ACAD_XREC_ROUNDTRIP
360
2BF
  0
DICTIONARY
  5
2C0
330
2D
100
AcDbDictionary
280
     1
281
     1
  3
ACAD_XREC_ROUNDTRIP
360
2C1
  0
DICTIONARY
  5
2C2
330
2E
100
AcDbDictionary
280
     1
281
     1
  3
ACAD_XREC_ROUNDTRIP
360
2C3
  0
DICTIONARY
  5
2C8
330
31
100
AcDbDictionary
280
     1
281
     1
  3
ACAD_XREC_ROUNDTRIP
360
2C9
  0
DICTIONARY
  5
2DC
330
3B
100
AcDbDictionary
280
     1
281
     1
  3
ACAD_XREC_ROUNDTRIP
360
2DD
  0
DICTIONARY
  5
2D6
330
38
100
AcDbDictionary
280
     1
281
     1
  3
ACAD_XREC_ROUNDTRIP
360
2D7
  0
DICTIONARY
  5
2DE
330
3C
100
AcDbDictionary
280
     1
281
     1
  3
ACAD_XREC_ROUNDTRIP
360
2DF
  0
DICTIONARY
  5
2CC
330
33
100
AcDbDictionary
280
     1
281
     1
  3
ACAD_XREC_ROUNDTRIP
360
2CD
  0
DICTIONARY
  5
2EA
330
42
100
AcDbDictionary
280
     1
281
     1
  3
ACAD_XREC_ROUNDTRIP
360
2EB
  0
DICTIONARY
  5
2E8
330
41
100
AcDbDictionary
280
     1
281
     1
  3
ACAD_XREC_ROUNDTRIP
360
2E9
  0
DICTIONARY
  5
2E2
330
3E
100
AcDbDictionary
280
     1
281
     1
  3
ACAD_XREC_ROUNDTRIP
360
2E3
  0
DICTIONARY
  5
2E4
330
3F
100
AcDbDictionary
280
     1
281
     1
  3
ACAD_XREC_ROUNDTRIP
360
2E5
  0
DICTIONARY
  5
2D4
330
37
100
AcDbDictionary
280
     1
281
     1
  3
ACAD_XREC_ROUNDTRIP
360
2D5
  0
DICTIONARY
  5
2C6
330
30
100
AcDbDictionary
280
     1
281
     1
  3
ACAD_XREC_ROUNDTRIP
360
2C7
  0
DICTIONARY
  5
2E6
330
40
100
AcDbDictionary
280
     1
281
     1
  3
ACAD_XREC_ROUNDTRIP
360
2E7
  0
XRECORD
  5
2F0
102
{ACAD_REACTORS
330
2EF
102
}
330
2EF
100
AcDbXrecord
280
     1
102
ACAD_ROUNDTRIP_2010_MLEADER_STYLE
  0
CELLSTYLEMAP
  5
2ED
102
{ACAD_REACTORS
330
2EC
102
}
330
2EC
100
AcDbCellStyleMap
 90
        3
300
CELLSTYLE
  1
TABLEFORMAT_BEGIN
 90
        5
170
     1
 91
        0
 92
    32768
 62
   257
 93
        1
300
CONTENTFORMAT
  1
CONTENTFORMAT_BEGIN
 90
        0
 91
        0
 92
        4
 93
        0
300

 40
0.0
140
1.0
 94
        5
 62
     0
340
11
144
0.25
309
CONTENTFORMAT_END
171
     1
301
MARGIN
  1
CELLMARGIN_BEGIN
 40
0.06
 40
0.06
 40
0.06
 40
0.06
 40
0.06
 40
0.06
309
CELLMARGIN_END
 94
        6
 95
        1
302
GRIDFORMAT
  1
GRIDFORMAT_BEGIN
 90
        0
 91
        1
 62
     0
 92
       -2
340
14
 93
        0
 40
0.045
309
GRIDFORMAT_END
 95
        2
302
GRIDFORMAT
  1
GRIDFORMAT_BEGIN
 90
        0
 91
        1
 62
     0
 92
       -2
340
14
 93
        0
 40
0.045
309
GRIDFORMAT_END
 95
        4
302
GRIDFORMAT
  1
GRIDFORMAT_BEGIN
 90
        0
 91
        1
 62
     0
 92
       -2
340
14
 93
        0
 40
0.045
309
GRIDFORMAT_END
 95
        8
302
GRIDFORMAT
  1
GRIDFORMAT_BEGIN
 90
        0
 91
        1
 62
     0
 92
       -2
340
14
 93
        0
 40
0.045
309
GRIDFORMAT_END
 95
       16
302
GRIDFORMAT
  1
GRIDFORMAT_BEGIN
 90
        0
 91
        1
 62
     0
 92
       -2
340
14
 93
        0
 40
0.045
309
GRIDFORMAT_END
 95
       32
302
GRIDFORMAT
  1
GRIDFORMAT_BEGIN
 90
        0
 91
        1
 62
     0
 92
       -2
340
14
 93
        0
 40
0.045
309
GRIDFORMAT_END
309
TABLEFORMAT_END
  1
CELLSTYLE_BEGIN
 90
        1
 91
        1
300
_TITLE
309
CELLSTYLE_END
300
CELLSTYLE
  1
TABLEFORMAT_BEGIN
 90
        5
170
     1
 91
        0
 92
        0
 62
   257
 93
        1
300
CONTENTFORMAT
  1
CONTENTFORMAT_BEGIN
 90
        0
 91
        0
 92
        4
 93
        0
300

 40
0.0
140
1.0
 94
        5
 62
     0
340
11
144
0.18
309
CONTENTFORMAT_END
171
     1
301
MARGIN
  1
CELLMARGIN_BEGIN
 40
0.06
 40
0.06
 40
0.06
 40
0.06
 40
0.06
 40
0.06
309
CELLMARGIN_END
 94
        6
 95
        1
302
GRIDFORMAT
  1
GRIDFORMAT_BEGIN
 90
        0
 91
        1
 62
     0
 92
       -2
340
14
 93
        0
 40
0.045
309
GRIDFORMAT_END
 95
        2
302
GRIDFORMAT
  1
GRIDFORMAT_BEGIN
 90
        0
 91
        1
 62
     0
 92
       -2
340
14
 93
        0
 40
0.045
309
GRIDFORMAT_END
 95
        4
302
GRIDFORMAT
  1
GRIDFORMAT_BEGIN
 90
        0
 91
        1
 62
     0
 92
       -2
340
14
 93
        0
 40
0.045
309
GRIDFORMAT_END
 95
        8
302
GRIDFORMAT
  1
GRIDFORMAT_BEGIN
 90
        0
 91
        1
 62
     0
 92
       -2
340
14
 93
        0
 40
0.045
309
GRIDFORMAT_END
 95
       16
302
GRIDFORMAT
  1
GRIDFORMAT_BEGIN
 90
        0
 91
        1
 62
     0
 92
       -2
340
14
 93
        0
 40
0.045
309
GRIDFORMAT_END
 95
       32
302
GRIDFORMAT
  1
GRIDFORMAT_BEGIN
 90
        0
 91
        1
 62
     0
 92
       -2
340
14
 93
        0
 40
0.045
309
GRIDFORMAT_END
309
TABLEFORMAT_END
  1
CELLSTYLE_BEGIN
 90
        2
 91
        1
300
_HEADER
309
CELLSTYLE_END
300
CELLSTYLE
  1
TABLEFORMAT_BEGIN
 90
        5
170
     1
 91
        0
 92
        0
 62
   257
 93
        1
300
CONTENTFORMAT
  1
CONTENTFORMAT_BEGIN
 90
        0
 91
        0
 92
        4
 93
        0
300

 40
0.0
140
1.0
 94
        2
 62
     0
340
11
144
0.18
309
CONTENTFORMAT_END
171
     1
301
MARGIN
  1
CELLMARGIN_BEGIN
 40
0.06
 40
0.06
 40
0.06
 40
0.06
 40
0.06
 40
0.06
309
CELLMARGIN_END
 94
        6
 95
        1
302
GRIDFORMAT
  1
GRIDFORMAT_BEGIN
 90
        0
 91
        1
 62
     0
 92
       -2
340
14
 93
        0
 40
0.045
309
GRIDFORMAT_END
 95
        2
302
GRIDFORMAT
  1
GRIDFORMAT_BEGIN
 90
        0
 91
        1
 62
     0
 92
       -2
340
14
 93
        0
 40
0.045
309
GRIDFORMAT_END
 95
        4
302
GRIDFORMAT
  1
GRIDFORMAT_BEGIN
 90
        0
 91
        1
 62
     0
 92
       -2
340
14
 93
        0
 40
0.045
309
GRIDFORMAT_END
 95
        8
302
GRIDFORMAT
  1
GRIDFORMAT_BEGIN
 90
        0
 91
        1
 62
     0
 92
       -2
340
14
 93
        0
 40
0.045
309
GRIDFORMAT_END
 95
       16
302
GRIDFORMAT
  1
GRIDFORMAT_BEGIN
 90
        0
 91
        1
 62
     0
 92
       -2
340
14
 93
        0
 40
0.045
309
GRIDFORMAT_END
 95
       32
302
GRIDFORMAT
  1
GRIDFORMAT_BEGIN
 90
        0
 91
        1
 62
     0
 92
       -2
340
14
 93
        0
 40
0.045
309
GRIDFORMAT_END
309
TABLEFORMAT_END
  1
CELLSTYLE_BEGIN
 90
        3
 91
        2
300
_DATA
309
CELLSTYLE_END
  0
XRECORD
  5
2C5
102
{ACAD_REACTORS
330
2C4
102
}
330
2C4
100
AcDbXrecord
280
     1
102
RTVSPropertyOp0
 70
     1
102
RTVSPropertyOp1
 70
     1
102
RTVSPropertyOp2
 70
     1
102
RTVSPropertyOp3
 70
     1
102
RTVSPropertyOp4
 70
     1
102
RTVSPropertyOp5
 70
     1
102
RTVSPropertyOp6
 70
     1
102
RTVSPropertyOp7
 70
     1
102
RTVSPropertyOp8
 70
     1
102
RTVSPropertyOp9
 70
     1
102
RTVSPropertyOp10
 70
     1
102
RTVSPropertyOp11
 70
     1
102
RTVSPropertyOp12
 70
     1
102
RTVSPropertyOp13
 70
     1
102
RTVSPropertyOp14
 70
     1
102
RTVSPropertyOp15
 70
     1
102
RTVSPropertyOp16
 70
     1
102
RTVSPropertyOp17
 70
     1
102
RTVSPropertyOp18
 70
     1
102
RTVSPropertyOp19
 70
     1
102
RTVSPropertyOp20
 70
     1
102
RTVSPropertyOp21
 70
     1
102
RTVSPropertyOp22
 70
     1
102
RTVSPropertyOp23
 70
     1
102
RTVSPropertyOp24
 70
     1
102
RTVSPropertyOp25
 70
     1
102
RTVSPropertyOp26
 70
     1
102
RTVSPropertyOp27
 70
     1
102
RTVSPropertyOp28
 70
     1
102
RTVSPropertyOp29
 70
     1
102
RTVSPropertyOp30
 70
     1
102
RTVSPropertyOp31
 70
     1
102
RTVSPropertyOp32
 70
     1
102
RTVSPropertyOp33
 70
     1
102
RTVSPropertyOp34
 70
     1
102
RTVSPropertyOp35
 70
     1
102
RTVSPropertyOp36
 70
     1
102
RTVSPropertyOp37
 70
     1
102
RTVSPropertyOp38
 70
     1
102
RTVSPropertyOp39
 70
     1
102
RTVSPropertyOp40
 70
     1
102
RTVSPropertyOp41
 70
     1
102
RTVSPropertyOp42
 70
     1
102
RTVSPropertyOp43
 70
     1
102
RTVSPropertyOp44
 70
     1
102
RTVSPropertyOp45
 70
     1
102
RTVSPropertyOp46
 70
     1
102
RTVSPropertyOp47
 70
     1
102
RTVSPropertyOp48
 70
     1
102
RTVSPropertyOp49
 70
     1
102
RTVSPropertyOp50
 70
     1
102
RTVSPropertyOp51
 70
     0
102
RTVSPropertyOp52
 70
     0
102
RTVSPropertyOp53
 70
     1
102
RTVSPropertyOp54
 70
     1
102
RTVSPropertyOp55
 70
     1
102
RTVSPropertyOp56
 70
     1
102
RTVSPropertyOp57
 70
     1
102
RTVSPost2010Prop28
280
     1
102
RTVSPost2010PropOp28
 70
     1
102
RTVSPost2010Prop29
280
     1
102
RTVSPost2010PropOp29
 70
     1
102
RTVSPost2010Prop30
280
     0
102
RTVSPost2010PropOp30
 70
     1
102
RTVSPost2010Prop31
280
     0
102
RTVSPost2010PropOp31
 70
     1
102
RTVSPost2010Prop32
280
     0
102
RTVSPost2010PropOp32
 70
     1
102
RTVSPost2010Prop33
280
     0
102
RTVSPost2010PropOp33
 70
     1
102
RTVSPost2010Prop34
280
     0
102
RTVSPost2010PropOp34
 70
     1
102
RTVSPost2010Prop35
280
     0
102
RTVSPost2010PropOp35
 70
     1
102
RTVSPost2010Prop36
280
     0
102
RTVSPost2010PropOp36
 70
     1
102
RTVSPost2010Prop37
 90
       50
102
RTVSPost2010PropOp37
 70
     1
102
RTVSPost2010Prop38
140
0.0
102
RTVSPost2010PropOp38
 70
     1
102
RTVSPost2010Prop39
140
1.0
102
RTVSPost2010PropOp39
 70
     1
102
RTVSPost2010Prop40
 90
        0
102
RTVSPost2010PropOp40
 70
     1
102
RTVSPost2010Prop41ColorIndex
 90
       18
102
RTVSPost2010Prop41ColorRGB
 90
        0
102
RTVSPost2010PropOp41
 70
     1
102
RTVSPost2010Prop42
 90
       50
102
RTVSPost2010PropOp42
 70
     1
102
RTVSPost2010Prop43
 90
        3
102
RTVSPost2010PropOp43
 70
     1
102
RTVSPost2010Prop44ColorIndex
 90
        5
102
RTVSPost2010Prop44ColorRGB
 90
      255
102
RTVSPost2010PropOp44
 70
     1
102
RTVSPost2010Prop45
280
     0
102
RTVSPost2010PropOp45
 70
     1
102
RTVSPost2010Prop46
 90
       50
102
RTVSPost2010PropOp46
 70
     1
102
RTVSPost2010Prop47
 90
       50
102
RTVSPost2010PropOp47
 70
     1
102
RTVSPost2010Prop48
 90
       50
102
RTVSPost2010PropOp48
 70
     1
102
RTVSPost2010Prop49
280
     0
102
RTVSPost2010PropOp49
 70
     1
102
RTVSPost2010Prop50
 90
       50
102
RTVSPost2010PropOp50
 70
     1
102
RTVSPost2010Prop51ColorIndex
 90
      256
102
RTVSPost2010Prop51ColorRGB
 90
-16777216
102
RTVSPost2010PropOp51
 70
     0
102
RTVSPost2010Prop52
140
1.0
102
RTVSPost2010PropOp52
 70
     0
102
RTVSPost2010Prop53
 90
        2
102
RTVSPost2010PropOp53
 70
     1
102
RTVSPost2010Prop54
  1
strokes_ogs.tif
102
RTVSPost2010PropOp54
 70
     1
102
RTVSPost2010Prop55
280
     0
102
RTVSPost2010PropOp55
 70
     1
102
RTVSPost2010Prop56
140
1.0
102
RTVSPost2010PropOp56
 70
     1
102
RTVSPost2010Prop57
140
1.0
102
RTVSPost2010PropOp57
 70
     1
  0
XRECORD
  5
2CB
102
{ACAD_REACTORS
330
2CA
102
}
330
2CA
100
AcDbXrecord
280
     1
102
RTVSPropertyOp0
 70
     1
102
RTVSPropertyOp1
 70
     1
102
RTVSPropertyOp2
 70
     1
102
RTVSPropertyOp3
 70
     1
102
RTVSPropertyOp4
 70
     1
102
RTVSPropertyOp5
 70
     1
102
RTVSPropertyOp6
 70
     1
102
RTVSPropertyOp7
 70
     1
102
RTVSPropertyOp8
 70
     1
102
RTVSPropertyOp9
 70
     1
102
RTVSPropertyOp10
 70
     1
102
RTVSPropertyOp11
 70
     1
102
RTVSPropertyOp12
 70
     1
102
RTVSPropertyOp13
 70
     1
102
RTVSPropertyOp14
 70
     1
102
RTVSPropertyOp15
 70
     1
102
RTVSPropertyOp16
 70
     1
102
RTVSPropertyOp17
 70
     1
102
RTVSPropertyOp18
 70
     1
102
RTVSPropertyOp19
 70
     1
102
RTVSPropertyOp20
 70
     1
102
RTVSPropertyOp21
 70
     1
102
RTVSPropertyOp22
 70
     1
102
RTVSPropertyOp23
 70
     1
102
RTVSPropertyOp24
 70
     1
102
RTVSPropertyOp25
 70
     1
102
RTVSPropertyOp26
 70
     1
102
RTVSPropertyOp27
 70
     1
102
RTVSPropertyOp28
 70
     1
102
RTVSPropertyOp29
 70
     1
102
RTVSPropertyOp30
 70
     1
102
RTVSPropertyOp31
 70
     1
102
RTVSPropertyOp32
 70
     1
102
RTVSPropertyOp33
 70
     1
102
RTVSPropertyOp34
 70
     1
102
RTVSPropertyOp35
 70
     1
102
RTVSPropertyOp36
 70
     1
102
RTVSPropertyOp37
 70
     1
102
RTVSPropertyOp38
 70
     1
102
RTVSPropertyOp39
 70
     1
102
RTVSPropertyOp40
 70
     1
102
RTVSPropertyOp41
 70
     1
102
RTVSPropertyOp42
 70
     1
102
RTVSPropertyOp43
 70
     1
102
RTVSPropertyOp44
 70
     1
102
RTVSPropertyOp45
 70
     1
102
RTVSPropertyOp46
 70
     1
102
RTVSPropertyOp47
 70
     1
102
RTVSPropertyOp48
 70
     1
102
RTVSPropertyOp49
 70
     1
102
RTVSPropertyOp50
 70
     1
102
RTVSPropertyOp51
 70
     0
102
RTVSPropertyOp52
 70
     0
102
RTVSPropertyOp53
 70
     1
102
RTVSPropertyOp54
 70
     1
102
RTVSPropertyOp55
 70
     1
102
RTVSPropertyOp56
 70
     1
102
RTVSPropertyOp57
 70
     1
102
RTVSPost2010Prop28
280
     0
102
RTVSPost2010PropOp28
 70
     1
102
RTVSPost2010Prop29
280
     1
102
RTVSPost2010PropOp29
 70
     1
102
RTVSPost2010Prop30
280
     1
102
RTVSPost2010PropOp30
 70
     1
102
RTVSPost2010Prop31
280
     0
102
RTVSPost2010PropOp31
 70
     1
102
RTVSPost2010Prop32
280
     0
102
RTVSPost2010PropOp32
 70
     1
102
RTVSPost2010Prop33
280
     0
102
RTVSPost2010PropOp33
 70
     1
102
RTVSPost2010Prop34
280
     0
102
RTVSPost2010PropOp34
 70
     1
102
RTVSPost2010Prop35
280
     0
102
RTVSPost2010PropOp35
 70
     1
102
RTVSPost2010Prop36
280
     0
102
RTVSPost2010PropOp36
 70
     1
102
RTVSPost2010Prop37
 90
       50
102
RTVSPost2010PropOp37
 70
     1
102
RTVSPost2010Prop38
140
0.0
102
RTVSPost2010PropOp38
 70
     1
102
RTVSPost2010Prop39
140
1.0
102
RTVSPost2010PropOp39
 70
     1
102
RTVSPost2010Prop40
 90
        0
102
RTVSPost2010PropOp40
 70
     1
102
RTVSPost2010Prop41ColorIndex
 90
       18
102
RTVSPost2010Prop41ColorRGB
 90
        0
102
RTVSPost2010PropOp41
 70
     1
102
RTVSPost2010Prop42
 90
       50
102
RTVSPost2010PropOp42
 70
     1
102
RTVSPost2010Prop43
 90
        3
102
RTVSPost2010PropOp43
 70
     1
102
RTVSPost2010Prop44ColorIndex
 90
        5
102
RTVSPost2010Prop44ColorRGB
 90
      255
102
RTVSPost2010PropOp44
 70
     1
102
RTVSPost2010Prop45
280
     0
102
RTVSPost2010PropOp45
 70
     1
102
RTVSPost2010Prop46
 90
       50
102
RTVSPost2010PropOp46
 70
     1
102
RTVSPost2010Prop47
 90
       50
102
RTVSPost2010PropOp47
 70
     1
102
RTVSPost2010Prop48
 90
       50
102
RTVSPost2010PropOp48
 70
     1
102
RTVSPost2010Prop49
280
     0
102
RTVSPost2010PropOp49
 70
     1
102
RTVSPost2010Prop50
 90
       50
102
RTVSPost2010PropOp50
 70
     1
102
RTVSPost2010Prop51ColorIndex
 90
      256
102
RTVSPost2010Prop51ColorRGB
 90
-16777216
102
RTVSPost2010PropOp51
 70
     0
102
RTVSPost2010Prop52
140
1.0
102
RTVSPost2010PropOp52
 70
     0
102
RTVSPost2010Prop53
 90
        2
102
RTVSPost2010PropOp53
 70
     1
102
RTVSPost2010Prop54
  1
strokes_ogs.tif
102
RTVSPost2010PropOp54
 70
     1
102
RTVSPost2010Prop55
280
     0
102
RTVSPost2010PropOp55
 70
     1
102
RTVSPost2010Prop56
140
1.0
102
RTVSPost2010PropOp56
 70
     1
102
RTVSPost2010Prop57
140
1.0
102
RTVSPost2010PropOp57
 70
     1
  0
XRECORD
  5
2D3
102
{ACAD_REACTORS
330
2D2
102
}
330
2D2
100
AcDbXrecord
280
     1
102
RTVSPropertyOp0
 70
     1
102
RTVSPropertyOp1
 70
     1
102
RTVSPropertyOp2
 70
     1
102
RTVSPropertyOp3
 70
     1
102
RTVSPropertyOp4
 70
     1
102
RTVSPropertyOp5
 70
     1
102
RTVSPropertyOp6
 70
     1
102
RTVSPropertyOp7
 70
     1
102
RTVSPropertyOp8
 70
     1
102
RTVSPropertyOp9
 70
     1
102
RTVSPropertyOp10
 70
     1
102
RTVSPropertyOp11
 70
     1
102
RTVSPropertyOp12
 70
     1
102
RTVSPropertyOp13
 70
     1
102
RTVSPropertyOp14
 70
     1
102
RTVSPropertyOp15
 70
     1
102
RTVSPropertyOp16
 70
     1
102
RTVSPropertyOp17
 70
     1
102
RTVSPropertyOp18
 70
     1
102
RTVSPropertyOp19
 70
     1
102
RTVSPropertyOp20
 70
     1
102
RTVSPropertyOp21
 70
     1
102
RTVSPropertyOp22
 70
     1
102
RTVSPropertyOp23
 70
     1
102
RTVSPropertyOp24
 70
     1
102
RTVSPropertyOp25
 70
     1
102
RTVSPropertyOp26
 70
     1
102
RTVSPropertyOp27
 70
     1
102
RTVSPropertyOp28
 70
     1
102
RTVSPropertyOp29
 70
     1
102
RTVSPropertyOp30
 70
     1
102
RTVSPropertyOp31
 70
     1
102
RTVSPropertyOp32
 70
     1
102
RTVSPropertyOp33
 70
     1
102
RTVSPropertyOp34
 70
     1
102
RTVSPropertyOp35
 70
     1
102
RTVSPropertyOp36
 70
     1
102
RTVSPropertyOp37
 70
     1
102
RTVSPropertyOp38
 70
     1
102
RTVSPropertyOp39
 70
     1
102
RTVSPropertyOp40
 70
     1
102
RTVSPropertyOp41
 70
     1
102
RTVSPropertyOp42
 70
     1
102
RTVSPropertyOp43
 70
     1
102
RTVSPropertyOp44
 70
     1
102
RTVSPropertyOp45
 70
     1
102
RTVSPropertyOp46
 70
     1
102
RTVSPropertyOp47
 70
     1
102
RTVSPropertyOp48
 70
     1
102
RTVSPropertyOp49
 70
     1
102
RTVSPropertyOp50
 70
     1
102
RTVSPropertyOp51
 70
     0
102
RTVSPropertyOp52
 70
     0
102
RTVSPropertyOp53
 70
     1
102
RTVSPropertyOp54
 70
     1
102
RTVSPropertyOp55
 70
     1
102
RTVSPropertyOp56
 70
     1
102
RTVSPropertyOp57
 70
     1
102
RTVSPost2010Prop28
280
     0
102
RTVSPost2010PropOp28
 70
     1
102
RTVSPost2010Prop29
280
     1
102
RTVSPost2010PropOp29
 70
     1
102
RTVSPost2010Prop30
280
     1
102
RTVSPost2010PropOp30
 70
     1
102
RTVSPost2010Prop31
280
     0
102
RTVSPost2010PropOp31
 70
     1
102
RTVSPost2010Prop32
280
     0
102
RTVSPost2010PropOp32
 70
     1
102
RTVSPost2010Prop33
280
     0
102
RTVSPost2010PropOp33
 70
     1
102
RTVSPost2010Prop34
280
     0
102
RTVSPost2010PropOp34
 70
     1
102
RTVSPost2010Prop35
280
     0
102
RTVSPost2010PropOp35
 70
     1
102
RTVSPost2010Prop36
280
     0
102
RTVSPost2010PropOp36
 70
     1
102
RTVSPost2010Prop37
 90
       50
102
RTVSPost2010PropOp37
 70
     1
102
RTVSPost2010Prop38
140
0.0
102
RTVSPost2010PropOp38
 70
     1
102
RTVSPost2010Prop39
140
1.0
102
RTVSPost2010PropOp39
 70
     1
102
RTVSPost2010Prop40
 90
        0
102
RTVSPost2010PropOp40
 70
     1
102
RTVSPost2010Prop41ColorIndex
 90
       18
102
RTVSPost2010Prop41ColorRGB
 90
        0
102
RTVSPost2010PropOp41
 70
     1
102
RTVSPost2010Prop42
 90
       50
102
RTVSPost2010PropOp42
 70
     1
102
RTVSPost2010Prop43
 90
        3
102
RTVSPost2010PropOp43
 70
     1
102
RTVSPost2010Prop44ColorIndex
 90
        5
102
RTVSPost2010Prop44ColorRGB
 90
      255
102
RTVSPost2010PropOp44
 70
     1
102
RTVSPost2010Prop45
280
     0
102
RTVSPost2010PropOp45
 70
     1
102
RTVSPost2010Prop46
 90
       50
102
RTVSPost2010PropOp46
 70
     1
102
RTVSPost2010Prop47
 90
       50
102
RTVSPost2010PropOp47
 70
     1
102
RTVSPost2010Prop48
 90
       50
102
RTVSPost2010PropOp48
 70
     1
102
RTVSPost2010Prop49
280
     0
102
RTVSPost2010PropOp49
 70
     1
102
RTVSPost2010Prop50
 90
       50
102
RTVSPost2010PropOp50
 70
     1
102
RTVSPost2010Prop51ColorIndex
 90
      256
102
RTVSPost2010Prop51ColorRGB
 90
-16777216
102
RTVSPost2010PropOp51
 70
     0
102
RTVSPost2010Prop52
140
1.0
102
RTVSPost2010PropOp52
 70
     0
102
RTVSPost2010Prop53
 90
        2
102
RTVSPost2010PropOp53
 70
     1
102
RTVSPost2010Prop54
  1
strokes_ogs.tif
102
RTVSPost2010PropOp54
 70
     1
102
RTVSPost2010Prop55
280
     0
102
RTVSPost2010PropOp55
 70
     1
102
RTVSPost2010Prop56
140
1.0
102
RTVSPost2010PropOp56
 70
     1
102
RTVSPost2010Prop57
140
1.0
102
RTVSPost2010PropOp57
 70
     1
  0
XRECORD
  5
2DB
102
{ACAD_REACTORS
330
2DA
102
}
330
2DA
100
AcDbXrecord
280
     1
102
RTVSPropertyOp0
 70
     1
102
RTVSPropertyOp1
 70
     1
102
RTVSPropertyOp2
 70
     1
102
RTVSPropertyOp3
 70
     1
102
RTVSPropertyOp4
 70
     1
102
RTVSPropertyOp5
 70
     1
102
RTVSPropertyOp6
 70
     1
102
RTVSPropertyOp7
 70
     1
102
RTVSPropertyOp8
 70
     1
102
RTVSPropertyOp9
 70
     1
102
RTVSPropertyOp10
 70
     1
102
RTVSPropertyOp11
 70
     1
102
RTVSPropertyOp12
 70
     1
102
RTVSPropertyOp13
 70
     1
102
RTVSPropertyOp14
 70
     1
102
RTVSPropertyOp15
 70
     1
102
RTVSPropertyOp16
 70
     1
102
RTVSPropertyOp17
 70
     1
102
RTVSPropertyOp18
 70
     1
102
RTVSPropertyOp19
 70
     1
102
RTVSPropertyOp20
 70
     1
102
RTVSPropertyOp21
 70
     1
102
RTVSPropertyOp22
 70
     1
102
RTVSPropertyOp23
 70
     1
102
RTVSPropertyOp24
 70
     1
102
RTVSPropertyOp25
 70
     1
102
RTVSPropertyOp26
 70
     1
102
RTVSPropertyOp27
 70
     1
102
RTVSPropertyOp28
 70
     1
102
RTVSPropertyOp29
 70
     1
102
RTVSPropertyOp30
 70
     1
102
RTVSPropertyOp31
 70
     1
102
RTVSPropertyOp32
 70
     1
102
RTVSPropertyOp33
 70
     1
102
RTVSPropertyOp34
 70
     1
102
RTVSPropertyOp35
 70
     1
102
RTVSPropertyOp36
 70
     1
102
RTVSPropertyOp37
 70
     1
102
RTVSPropertyOp38
 70
     1
102
RTVSPropertyOp39
 70
     1
102
RTVSPropertyOp40
 70
     1
102
RTVSPropertyOp41
 70
     1
102
RTVSPropertyOp42
 70
     1
102
RTVSPropertyOp43
 70
     1
102
RTVSPropertyOp44
 70
     1
102
RTVSPropertyOp45
 70
     1
102
RTVSPropertyOp46
 70
     1
102
RTVSPropertyOp47
 70
     1
102
RTVSPropertyOp48
 70
     1
102
RTVSPropertyOp49
 70
     1
102
RTVSPropertyOp50
 70
     1
102
RTVSPropertyOp51
 70
     0
102
RTVSPropertyOp52
 70
     0
102
RTVSPropertyOp53
 70
     1
102
RTVSPropertyOp54
 70
     1
102
RTVSPropertyOp55
 70
     1
102
RTVSPropertyOp56
 70
     1
102
RTVSPropertyOp57
 70
     1
102
RTVSPost2010Prop28
280
     0
102
RTVSPost2010PropOp28
 70
     1
102
RTVSPost2010Prop29
280
     1
102
RTVSPost2010PropOp29
 70
     1
102
RTVSPost2010Prop30
280
     1
102
RTVSPost2010PropOp30
 70
     1
102
RTVSPost2010Prop31
280
     0
102
RTVSPost2010PropOp31
 70
     1
102
RTVSPost2010Prop32
280
     0
102
RTVSPost2010PropOp32
 70
     1
102
RTVSPost2010Prop33
280
     0
102
RTVSPost2010PropOp33
 70
     1
102
RTVSPost2010Prop34
280
     0
102
RTVSPost2010PropOp34
 70
     1
102
RTVSPost2010Prop35
280
     0
102
RTVSPost2010PropOp35
 70
     1
102
RTVSPost2010Prop36
280
     0
102
RTVSPost2010PropOp36
 70
     1
102
RTVSPost2010Prop37
 90
       50
102
RTVSPost2010PropOp37
 70
     1
102
RTVSPost2010Prop38
140
0.0
102
RTVSPost2010PropOp38
 70
     1
102
RTVSPost2010Prop39
140
1.0
102
RTVSPost2010PropOp39
 70
     1
102
RTVSPost2010Prop40
 90
        0
102
RTVSPost2010PropOp40
 70
     1
102
RTVSPost2010Prop41ColorIndex
 90
       18
102
RTVSPost2010Prop41ColorRGB
 90
        0
102
RTVSPost2010PropOp41
 70
     1
102
RTVSPost2010Prop42
 90
       50
102
RTVSPost2010PropOp42
 70
     1
102
RTVSPost2010Prop43
 90
        3
102
RTVSPost2010PropOp43
 70
     1
102
RTVSPost2010Prop44ColorIndex
 90
        5
102
RTVSPost2010Prop44ColorRGB
 90
      255
102
RTVSPost2010PropOp44
 70
     1
102
RTVSPost2010Prop45
280
     0
102
RTVSPost2010PropOp45
 70
     1
102
RTVSPost2010Prop46
 90
       50
102
RTVSPost2010PropOp46
 70
     1
102
RTVSPost2010Prop47
 90
       50
102
RTVSPost2010PropOp47
 70
     1
102
RTVSPost2010Prop48
 90
       50
102
RTVSPost2010PropOp48
 70
     1
102
RTVSPost2010Prop49
280
     0
102
RTVSPost2010PropOp49
 70
     1
102
RTVSPost2010Prop50
 90
       50
102
RTVSPost2010PropOp50
 70
     1
102
RTVSPost2010Prop51ColorIndex
 90
      256
102
RTVSPost2010Prop51ColorRGB
 90
-16777216
102
RTVSPost2010PropOp51
 70
     0
102
RTVSPost2010Prop52
140
1.0
102
RTVSPost2010PropOp52
 70
     0
102
RTVSPost2010Prop53
 90
        2
102
RTVSPost2010PropOp53
 70
     1
102
RTVSPost2010Prop54
  1
strokes_ogs.tif
102
RTVSPost2010PropOp54
 70
     1
102
RTVSPost2010Prop55
280
     0
102
RTVSPost2010PropOp55
 70
     1
102
RTVSPost2010Prop56
140
1.0
102
RTVSPost2010PropOp56
 70
     1
102
RTVSPost2010Prop57
140
1.0
102
RTVSPost2010PropOp57
 70
     1
  0
XRECORD
  5
2CF
102
{ACAD_REACTORS
330
2CE
102
}
330
2CE
100
AcDbXrecord
280
     1
102
RTVSPropertyOp0
 70
     1
102
RTVSPropertyOp1
 70
     1
102
RTVSPropertyOp2
 70
     1
102
RTVSPropertyOp3
 70
     1
102
RTVSPropertyOp4
 70
     1
102
RTVSPropertyOp5
 70
     1
102
RTVSPropertyOp6
 70
     1
102
RTVSPropertyOp7
 70
     1
102
RTVSPropertyOp8
 70
     1
102
RTVSPropertyOp9
 70
     1
102
RTVSPropertyOp10
 70
     1
102
RTVSPropertyOp11
 70
     1
102
RTVSPropertyOp12
 70
     1
102
RTVSPropertyOp13
 70
     1
102
RTVSPropertyOp14
 70
     1
102
RTVSPropertyOp15
 70
     1
102
RTVSPropertyOp16
 70
     1
102
RTVSPropertyOp17
 70
     1
102
RTVSPropertyOp18
 70
     1
102
RTVSPropertyOp19
 70
     1
102
RTVSPropertyOp20
 70
     1
102
RTVSPropertyOp21
 70
     1
102
RTVSPropertyOp22
 70
     1
102
RTVSPropertyOp23
 70
     1
102
RTVSPropertyOp24
 70
     1
102
RTVSPropertyOp25
 70
     1
102
RTVSPropertyOp26
 70
     1
102
RTVSPropertyOp27
 70
     1
102
RTVSPropertyOp28
 70
     1
102
RTVSPropertyOp29
 70
     1
102
RTVSPropertyOp30
 70
     1
102
RTVSPropertyOp31
 70
     1
102
RTVSPropertyOp32
 70
     1
102
RTVSPropertyOp33
 70
     1
102
RTVSPropertyOp34
 70
     1
102
RTVSPropertyOp35
 70
     1
102
RTVSPropertyOp36
 70
     1
102
RTVSPropertyOp37
 70
     1
102
RTVSPropertyOp38
 70
     1
102
RTVSPropertyOp39
 70
     1
102
RTVSPropertyOp40
 70
     1
102
RTVSPropertyOp41
 70
     1
102
RTVSPropertyOp42
 70
     1
102
RTVSPropertyOp43
 70
     1
102
RTVSPropertyOp44
 70
     1
102
RTVSPropertyOp45
 70
     1
102
RTVSPropertyOp46
 70
     1
102
RTVSPropertyOp47
 70
     1
102
RTVSPropertyOp48
 70
     1
102
RTVSPropertyOp49
 70
     1
102
RTVSPropertyOp50
 70
     1
102
RTVSPropertyOp51
 70
     0
102
RTVSPropertyOp52
 70
     0
102
RTVSPropertyOp53
 70
     1
102
RTVSPropertyOp54
 70
     1
102
RTVSPropertyOp55
 70
     1
102
RTVSPropertyOp56
 70
     1
102
RTVSPropertyOp57
 70
     1
102
RTVSPost2010Prop28
280
     0
102
RTVSPost2010PropOp28
 70
     1
102
RTVSPost2010Prop29
280
     1
102
RTVSPost2010PropOp29
 70
     1
102
RTVSPost2010Prop30
280
     1
102
RTVSPost2010PropOp30
 70
     1
102
RTVSPost2010Prop31
280
     0
102
RTVSPost2010PropOp31
 70
     1
102
RTVSPost2010Prop32
280
     0
102
RTVSPost2010PropOp32
 70
     1
102
RTVSPost2010Prop33
280
     0
102
RTVSPost2010PropOp33
 70
     1
102
RTVSPost2010Prop34
280
     0
102
RTVSPost2010PropOp34
 70
     1
102
RTVSPost2010Prop35
280
     0
102
RTVSPost2010PropOp35
 70
     1
102
RTVSPost2010Prop36
280
     0
102
RTVSPost2010PropOp36
 70
     1
102
RTVSPost2010Prop37
 90
       50
102
RTVSPost2010PropOp37
 70
     1
102
RTVSPost2010Prop38
140
0.0
102
RTVSPost2010PropOp38
 70
     1
102
RTVSPost2010Prop39
140
1.0
102
RTVSPost2010PropOp39
 70
     1
102
RTVSPost2010Prop40
 90
        0
102
RTVSPost2010PropOp40
 70
     1
102
RTVSPost2010Prop41ColorIndex
 90
       18
102
RTVSPost2010Prop41ColorRGB
 90
        0
102
RTVSPost2010PropOp41
 70
     1
102
RTVSPost2010Prop42
 90
       50
102
RTVSPost2010PropOp42
 70
     1
102
RTVSPost2010Prop43
 90
        3
102
RTVSPost2010PropOp43
 70
     1
102
RTVSPost2010Prop44ColorIndex
 90
        5
102
RTVSPost2010Prop44ColorRGB
 90
      255
102
RTVSPost2010PropOp44
 70
     1
102
RTVSPost2010Prop45
280
     0
102
RTVSPost2010PropOp45
 70
     1
102
RTVSPost2010Prop46
 90
       50
102
RTVSPost2010PropOp46
 70
     1
102
RTVSPost2010Prop47
 90
       50
102
RTVSPost2010PropOp47
 70
     1
102
RTVSPost2010Prop48
 90
       50
102
RTVSPost2010PropOp48
 70
     1
102
RTVSPost2010Prop49
280
     0
102
RTVSPost2010PropOp49
 70
     1
102
RTVSPost2010Prop50
 90
       50
102
RTVSPost2010PropOp50
 70
     1
102
RTVSPost2010Prop51ColorIndex
 90
      256
102
RTVSPost2010Prop51ColorRGB
 90
-16777216
102
RTVSPost2010PropOp51
 70
     0
102
RTVSPost2010Prop52
140
1.0
102
RTVSPost2010PropOp52
 70
     0
102
RTVSPost2010Prop53
 90
        2
102
RTVSPost2010PropOp53
 70
     1
102
RTVSPost2010Prop54
  1
strokes_ogs.tif
102
RTVSPost2010PropOp54
 70
     1
102
RTVSPost2010Prop55
280
     0
102
RTVSPost2010PropOp55
 70
     1
102
RTVSPost2010Prop56
140
1.0
102
RTVSPost2010PropOp56
 70
     1
102
RTVSPost2010Prop57
140
1.0
102
RTVSPost2010PropOp57
 70
     1
  0
XRECORD
  5
2D1
102
{ACAD_REACTORS
330
2D0
102
}
330
2D0
100
AcDbXrecord
280
     1
102
RTVSPropertyOp0
 70
     1
102
RTVSPropertyOp1
 70
     1
102
RTVSPropertyOp2
 70
     1
102
RTVSPropertyOp3
 70
     1
102
RTVSPropertyOp4
 70
     1
102
RTVSPropertyOp5
 70
     1
102
RTVSPropertyOp6
 70
     1
102
RTVSPropertyOp7
 70
     1
102
RTVSPropertyOp8
 70
     1
102
RTVSPropertyOp9
 70
     1
102
RTVSPropertyOp10
 70
     1
102
RTVSPropertyOp11
 70
     1
102
RTVSPropertyOp12
 70
     1
102
RTVSPropertyOp13
 70
     1
102
RTVSPropertyOp14
 70
     1
102
RTVSPropertyOp15
 70
     1
102
RTVSPropertyOp16
 70
     1
102
RTVSPropertyOp17
 70
     1
102
RTVSPropertyOp18
 70
     1
102
RTVSPropertyOp19
 70
     1
102
RTVSPropertyOp20
 70
     1
102
RTVSPropertyOp21
 70
     1
102
RTVSPropertyOp22
 70
     1
102
RTVSPropertyOp23
 70
     1
102
RTVSPropertyOp24
 70
     1
102
RTVSPropertyOp25
 70
     1
102
RTVSPropertyOp26
 70
     1
102
RTVSPropertyOp27
 70
     1
102
RTVSPropertyOp28
 70
     1
102
RTVSPropertyOp29
 70
     1
102
RTVSPropertyOp30
 70
     1
102
RTVSPropertyOp31
 70
     1
102
RTVSPropertyOp32
 70
     1
102
RTVSPropertyOp33
 70
     1
102
RTVSPropertyOp34
 70
     1
102
RTVSPropertyOp35
 70
     1
102
RTVSPropertyOp36
 70
     1
102
RTVSPropertyOp37
 70
     1
102
RTVSPropertyOp38
 70
     1
102
RTVSPropertyOp39
 70
     1
102
RTVSPropertyOp40
 70
     1
102
RTVSPropertyOp41
 70
     1
102
RTVSPropertyOp42
 70
     1
102
RTVSPropertyOp43
 70
     1
102
RTVSPropertyOp44
 70
     1
102
RTVSPropertyOp45
 70
     1
102
RTVSPropertyOp46
 70
     1
102
RTVSPropertyOp47
 70
     1
102
RTVSPropertyOp48
 70
     1
102
RTVSPropertyOp49
 70
     1
102
RTVSPropertyOp50
 70
     1
102
RTVSPropertyOp51
 70
     0
102
RTVSPropertyOp52
 70
     0
102
RTVSPropertyOp53
 70
     1
102
RTVSPropertyOp54
 70
     1
102
RTVSPropertyOp55
 70
     1
102
RTVSPropertyOp56
 70
     1
102
RTVSPropertyOp57
 70
     1
102
RTVSPost2010Prop28
280
     0
102
RTVSPost2010PropOp28
 70
     1
102
RTVSPost2010Prop29
280
     1
102
RTVSPost2010PropOp29
 70
     1
102
RTVSPost2010Prop30
280
     1
102
RTVSPost2010PropOp30
 70
     1
102
RTVSPost2010Prop31
280
     0
102
RTVSPost2010PropOp31
 70
     1
102
RTVSPost2010Prop32
280
     0
102
RTVSPost2010PropOp32
 70
     1
102
RTVSPost2010Prop33
280
     0
102
RTVSPost2010PropOp33
 70
     1
102
RTVSPost2010Prop34
280
     0
102
RTVSPost2010PropOp34
 70
     1
102
RTVSPost2010Prop35
280
     0
102
RTVSPost2010PropOp35
 70
     1
102
RTVSPost2010Prop36
280
     0
102
RTVSPost2010PropOp36
 70
     1
102
RTVSPost2010Prop37
 90
       50
102
RTVSPost2010PropOp37
 70
     1
102
RTVSPost2010Prop38
140
0.0
102
RTVSPost2010PropOp38
 70
     1
102
RTVSPost2010Prop39
140
1.0
102
RTVSPost2010PropOp39
 70
     1
102
RTVSPost2010Prop40
 90
        0
102
RTVSPost2010PropOp40
 70
     1
102
RTVSPost2010Prop41ColorIndex
 90
       18
102
RTVSPost2010Prop41ColorRGB
 90
        0
102
RTVSPost2010PropOp41
 70
     1
102
RTVSPost2010Prop42
 90
       50
102
RTVSPost2010PropOp42
 70
     1
102
RTVSPost2010Prop43
 90
        3
102
RTVSPost2010PropOp43
 70
     1
102
RTVSPost2010Prop44ColorIndex
 90
        5
102
RTVSPost2010Prop44ColorRGB
 90
      255
102
RTVSPost2010PropOp44
 70
     1
102
RTVSPost2010Prop45
280
     0
102
RTVSPost2010PropOp45
 70
     1
102
RTVSPost2010Prop46
 90
       50
102
RTVSPost2010PropOp46
 70
     1
102
RTVSPost2010Prop47
 90
       50
102
RTVSPost2010PropOp47
 70
     1
102
RTVSPost2010Prop48
 90
       50
102
RTVSPost2010PropOp48
 70
     1
102
RTVSPost2010Prop49
280
     0
102
RTVSPost2010PropOp49
 70
     1
102
RTVSPost2010Prop50
 90
       50
102
RTVSPost2010PropOp50
 70
     1
102
RTVSPost2010Prop51ColorIndex
 90
      256
102
RTVSPost2010Prop51ColorRGB
 90
-16777216
102
RTVSPost2010PropOp51
 70
     0
102
RTVSPost2010Prop52
140
1.0
102
RTVSPost2010PropOp52
 70
     0
102
RTVSPost2010Prop53
 90
        2
102
RTVSPost2010PropOp53
 70
     1
102
RTVSPost2010Prop54
  1
strokes_ogs.tif
102
RTVSPost2010PropOp54
 70
     1
102
RTVSPost2010Prop55
280
     0
102
RTVSPost2010PropOp55
 70
     1
102
RTVSPost2010Prop56
140
1.0
102
RTVSPost2010PropOp56
 70
     1
102
RTVSPost2010Prop57
140
1.0
102
RTVSPost2010PropOp57
 70
     1
  0
XRECORD
  5
2E1
102
{ACAD_REACTORS
330
2E0
102
}
330
2E0
100
AcDbXrecord
280
     1
102
RTVSPropertyOp0
 70
     0
102
RTVSPropertyOp1
 70
     0
102
RTVSPropertyOp2
 70
     0
102
RTVSPropertyOp3
 70
     0
102
RTVSPropertyOp4
 70
     0
102
RTVSPropertyOp5
 70
     0
102
RTVSPropertyOp6
 70
     0
102
RTVSPropertyOp7
 70
     0
102
RTVSPropertyOp8
 70
     0
102
RTVSPropertyOp9
 70
     0
102
RTVSPropertyOp10
 70
     0
102
RTVSPropertyOp11
 70
     0
102
RTVSPropertyOp12
 70
     0
102
RTVSPropertyOp13
 70
     0
102
RTVSPropertyOp14
 70
     2
102
RTVSPropertyOp15
 70
     0
102
RTVSPropertyOp16
 70
     0
102
RTVSPropertyOp17
 70
     0
102
RTVSPropertyOp18
 70
     0
102
RTVSPropertyOp19
 70
     0
102
RTVSPropertyOp20
 70
     0
102
RTVSPropertyOp21
 70
     0
102
RTVSPropertyOp22
 70
     0
102
RTVSPropertyOp23
 70
     0
102
RTVSPropertyOp24
 70
     0
102
RTVSPropertyOp25
 70
     0
102
RTVSPropertyOp26
 70
     0
102
RTVSPropertyOp27
 70
     0
102
RTVSPropertyOp28
 70
     0
102
RTVSPropertyOp29
 70
     0
102
RTVSPropertyOp30
 70
     0
102
RTVSPropertyOp31
 70
     0
102
RTVSPropertyOp32
 70
     0
102
RTVSPropertyOp33
 70
     0
102
RTVSPropertyOp34
 70
     0
102
RTVSPropertyOp35
 70
     0
102
RTVSPropertyOp36
 70
     0
102
RTVSPropertyOp37
 70
     0
102
RTVSPropertyOp38
 70
     0
102
RTVSPropertyOp39
 70
     0
102
RTVSPropertyOp40
 70
     0
102
RTVSPropertyOp41
 70
     0
102
RTVSPropertyOp42
 70
     0
102
RTVSPropertyOp43
 70
     0
102
RTVSPropertyOp44
 70
     0
102
RTVSPropertyOp45
 70
     0
102
RTVSPropertyOp46
 70
     0
102
RTVSPropertyOp47
 70
     0
102
RTVSPropertyOp48
 70
     0
102
RTVSPropertyOp49
 70
     0
102
RTVSPropertyOp50
 70
     0
102
RTVSPropertyOp51
 70
     0
102
RTVSPropertyOp52
 70
     0
102
RTVSPropertyOp53
 70
     0
102
RTVSPropertyOp54
 70
     0
102
RTVSPropertyOp55
 70
     0
102
RTVSPropertyOp56
 70
     0
102
RTVSPropertyOp57
 70
     0
102
RTVSPost2010Prop28
280
     0
102
RTVSPost2010PropOp28
 70
     0
102
RTVSPost2010Prop29
280
     1
102
RTVSPost2010PropOp29
 70
     0
102
RTVSPost2010Prop30
280
     1
102
RTVSPost2010PropOp30
 70
     0
102
RTVSPost2010Prop31
280
     0
102
RTVSPost2010PropOp31
 70
     0
102
RTVSPost2010Prop32
280
     0
102
RTVSPost2010PropOp32
 70
     0
102
RTVSPost2010Prop33
280
     0
102
RTVSPost2010PropOp33
 70
     0
102
RTVSPost2010Prop34
280
     0
102
RTVSPost2010PropOp34
 70
     0
102
RTVSPost2010Prop35
280
     0
102
RTVSPost2010PropOp35
 70
     0
102
RTVSPost2010Prop36
280
     0
102
RTVSPost2010PropOp36
 70
     0
102
RTVSPost2010Prop37
 90
       50
102
RTVSPost2010PropOp37
 70
     0
102
RTVSPost2010Prop38
140
0.0
102
RTVSPost2010PropOp38
 70
     0
102
RTVSPost2010Prop39
140
1.0
102
RTVSPost2010PropOp39
 70
     0
102
RTVSPost2010Prop40
 90
        0
102
RTVSPost2010PropOp40
 70
     0
102
RTVSPost2010Prop41ColorIndex
 90
       18
102
RTVSPost2010Prop41ColorRGB
 90
        0
102
RTVSPost2010PropOp41
 70
     0
102
RTVSPost2010Prop42
 90
       50
102
RTVSPost2010PropOp42
 70
     0
102
RTVSPost2010Prop43
 90
        3
102
RTVSPost2010PropOp43
 70
     0
102
RTVSPost2010Prop44ColorIndex
 90
        5
102
RTVSPost2010Prop44ColorRGB
 90
      255
102
RTVSPost2010PropOp44
 70
     0
102
RTVSPost2010Prop45
280
     0
102
RTVSPost2010PropOp45
 70
     0
102
RTVSPost2010Prop46
 90
       50
102
RTVSPost2010PropOp46
 70
     0
102
RTVSPost2010Prop47
 90
       50
102
RTVSPost2010PropOp47
 70
     0
102
RTVSPost2010Prop48
 90
       50
102
RTVSPost2010PropOp48
 70
     0
102
RTVSPost2010Prop49
280
     0
102
RTVSPost2010PropOp49
 70
     0
102
RTVSPost2010Prop50
 90
       50
102
RTVSPost2010PropOp50
 70
     0
102
RTVSPost2010Prop51ColorIndex
 90
      256
102
RTVSPost2010Prop51ColorRGB
 90
-16777216
102
RTVSPost2010PropOp51
 70
     0
102
RTVSPost2010Prop52
140
1.0
102
RTVSPost2010PropOp52
 70
     0
102
RTVSPost2010Prop53
 90
        2
102
RTVSPost2010PropOp53
 70
     0
102
RTVSPost2010Prop54
  1
strokes_ogs.tif
102
RTVSPost2010PropOp54
 70
     0
102
RTVSPost2010Prop55
280
     0
102
RTVSPost2010PropOp55
 70
     0
102
RTVSPost2010Prop56
140
1.0
102
RTVSPost2010PropOp56
 70
     0
102
RTVSPost2010Prop57
140
1.0
102
RTVSPost2010PropOp57
 70
     0
  0
XRECORD
  5
2D9
102
{ACAD_REACTORS
330
2D8
102
}
330
2D8
100
AcDbXrecord
280
     1
102
RTVSPropertyOp0
 70
     1
102
RTVSPropertyOp1
 70
     1
102
RTVSPropertyOp2
 70
     1
102
RTVSPropertyOp3
 70
     1
102
RTVSPropertyOp4
 70
     1
102
RTVSPropertyOp5
 70
     1
102
RTVSPropertyOp6
 70
     1
102
RTVSPropertyOp7
 70
     1
102
RTVSPropertyOp8
 70
     1
102
RTVSPropertyOp9
 70
     1
102
RTVSPropertyOp10
 70
     1
102
RTVSPropertyOp11
 70
     1
102
RTVSPropertyOp12
 70
     1
102
RTVSPropertyOp13
 70
     1
102
RTVSPropertyOp14
 70
     1
102
RTVSPropertyOp15
 70
     1
102
RTVSPropertyOp16
 70
     1
102
RTVSPropertyOp17
 70
     1
102
RTVSPropertyOp18
 70
     1
102
RTVSPropertyOp19
 70
     1
102
RTVSPropertyOp20
 70
     1
102
RTVSPropertyOp21
 70
     1
102
RTVSPropertyOp22
 70
     1
102
RTVSPropertyOp23
 70
     1
102
RTVSPropertyOp24
 70
     1
102
RTVSPropertyOp25
 70
     1
102
RTVSPropertyOp26
 70
     1
102
RTVSPropertyOp27
 70
     1
102
RTVSPropertyOp28
 70
     1
102
RTVSPropertyOp29
 70
     1
102
RTVSPropertyOp30
 70
     1
102
RTVSPropertyOp31
 70
     1
102
RTVSPropertyOp32
 70
     1
102
RTVSPropertyOp33
 70
     1
102
RTVSPropertyOp34
 70
     1
102
RTVSPropertyOp35
 70
     1
102
RTVSPropertyOp36
 70
     1
102
RTVSPropertyOp37
 70
     1
102
RTVSPropertyOp38
 70
     1
102
RTVSPropertyOp39
 70
     1
102
RTVSPropertyOp40
 70
     1
102
RTVSPropertyOp41
 70
     1
102
RTVSPropertyOp42
 70
     1
102
RTVSPropertyOp43
 70
     1
102
RTVSPropertyOp44
 70
     1
102
RTVSPropertyOp45
 70
     1
102
RTVSPropertyOp46
 70
     1
102
RTVSPropertyOp47
 70
     1
102
RTVSPropertyOp48
 70
     1
102
RTVSPropertyOp49
 70
     1
102
RTVSPropertyOp50
 70
     1
102
RTVSPropertyOp51
 70
     0
102
RTVSPropertyOp52
 70
     0
102
RTVSPropertyOp53
 70
     1
102
RTVSPropertyOp54
 70
     1
102
RTVSPropertyOp55
 70
     1
102
RTVSPropertyOp56
 70
     1
102
RTVSPropertyOp57
 70
     1
102
RTVSPost2010Prop28
280
     0
102
RTVSPost2010PropOp28
 70
     1
102
RTVSPost2010Prop29
280
     1
102
RTVSPost2010PropOp29
 70
     1
102
RTVSPost2010Prop30
280
     1
102
RTVSPost2010PropOp30
 70
     1
102
RTVSPost2010Prop31
280
     0
102
RTVSPost2010PropOp31
 70
     1
102
RTVSPost2010Prop32
280
     0
102
RTVSPost2010PropOp32
 70
     1
102
RTVSPost2010Prop33
280
     0
102
RTVSPost2010PropOp33
 70
     1
102
RTVSPost2010Prop34
280
     0
102
RTVSPost2010PropOp34
 70
     1
102
RTVSPost2010Prop35
280
     0
102
RTVSPost2010PropOp35
 70
     1
102
RTVSPost2010Prop36
280
     0
102
RTVSPost2010PropOp36
 70
     1
102
RTVSPost2010Prop37
 90
       50
102
RTVSPost2010PropOp37
 70
     1
102
RTVSPost2010Prop38
140
0.0
102
RTVSPost2010PropOp38
 70
     1
102
RTVSPost2010Prop39
140
1.0
102
RTVSPost2010PropOp39
 70
     1
102
RTVSPost2010Prop40
 90
        0
102
RTVSPost2010PropOp40
 70
     1
102
RTVSPost2010Prop41ColorIndex
 90
       18
102
RTVSPost2010Prop41ColorRGB
 90
        0
102
RTVSPost2010PropOp41
 70
     1
102
RTVSPost2010Prop42
 90
       50
102
RTVSPost2010PropOp42
 70
     1
102
RTVSPost2010Prop43
 90
        3
102
RTVSPost2010PropOp43
 70
     1
102
RTVSPost2010Prop44ColorIndex
 90
        5
102
RTVSPost2010Prop44ColorRGB
 90
      255
102
RTVSPost2010PropOp44
 70
     1
102
RTVSPost2010Prop45
280
     0
102
RTVSPost2010PropOp45
 70
     1
102
RTVSPost2010Prop46
 90
       50
102
RTVSPost2010PropOp46
 70
     1
102
RTVSPost2010Prop47
 90
       50
102
RTVSPost2010PropOp47
 70
     1
102
RTVSPost2010Prop48
 90
       50
102
RTVSPost2010PropOp48
 70
     1
102
RTVSPost2010Prop49
280
     0
102
RTVSPost2010PropOp49
 70
     1
102
RTVSPost2010Prop50
 90
       50
102
RTVSPost2010PropOp50
 70
     1
102
RTVSPost2010Prop51ColorIndex
 90
      256
102
RTVSPost2010Prop51ColorRGB
 90
-16777216
102
RTVSPost2010PropOp51
 70
     0
102
RTVSPost2010Prop52
140
1.0
102
RTVSPost2010PropOp52
 70
     0
102
RTVSPost2010Prop53
 90
        2
102
RTVSPost2010PropOp53
 70
     1
102
RTVSPost2010Prop54
  1
strokes_ogs.tif
102
RTVSPost2010PropOp54
 70
     1
102
RTVSPost2010Prop55
280
     0
102
RTVSPost2010PropOp55
 70
     1
102
RTVSPost2010Prop56
140
1.0
102
RTVSPost2010PropOp56
 70
     1
102
RTVSPost2010Prop57
140
1.0
102
RTVSPost2010PropOp57
 70
     1
  0
XRECORD
  5
2BD
102
{ACAD_REACTORS
330
2BC
102
}
330
2BC
100
AcDbXrecord
280
     1
102
RTVSPropertyOp0
 70
     1
102
RTVSPropertyOp1
 70
     1
102
RTVSPropertyOp2
 70
     1
102
RTVSPropertyOp3
 70
     1
102
RTVSPropertyOp4
 70
     1
102
RTVSPropertyOp5
 70
     1
102
RTVSPropertyOp6
 70
     1
102
RTVSPropertyOp7
 70
     1
102
RTVSPropertyOp8
 70
     1
102
RTVSPropertyOp9
 70
     1
102
RTVSPropertyOp10
 70
     1
102
RTVSPropertyOp11
 70
     1
102
RTVSPropertyOp12
 70
     1
102
RTVSPropertyOp13
 70
     1
102
RTVSPropertyOp14
 70
     1
102
RTVSPropertyOp15
 70
     1
102
RTVSPropertyOp16
 70
     1
102
RTVSPropertyOp17
 70
     1
102
RTVSPropertyOp18
 70
     1
102
RTVSPropertyOp19
 70
     1
102
RTVSPropertyOp20
 70
     1
102
RTVSPropertyOp21
 70
     1
102
RTVSPropertyOp22
 70
     1
102
RTVSPropertyOp23
 70
     1
102
RTVSPropertyOp24
 70
     1
102
RTVSPropertyOp25
 70
     1
102
RTVSPropertyOp26
 70
     1
102
RTVSPropertyOp27
 70
     1
102
RTVSPropertyOp28
 70
     1
102
RTVSPropertyOp29
 70
     1
102
RTVSPropertyOp30
 70
     1
102
RTVSPropertyOp31
 70
     1
102
RTVSPropertyOp32
 70
     1
102
RTVSPropertyOp33
 70
     1
102
RTVSPropertyOp34
 70
     1
102
RTVSPropertyOp35
 70
     1
102
RTVSPropertyOp36
 70
     1
102
RTVSPropertyOp37
 70
     1
102
RTVSPropertyOp38
 70
     1
102
RTVSPropertyOp39
 70
     1
102
RTVSPropertyOp40
 70
     1
102
RTVSPropertyOp41
 70
     1
102
RTVSPropertyOp42
 70
     1
102
RTVSPropertyOp43
 70
     1
102
RTVSPropertyOp44
 70
     1
102
RTVSPropertyOp45
 70
     1
102
RTVSPropertyOp46
 70
     1
102
RTVSPropertyOp47
 70
     1
102
RTVSPropertyOp48
 70
     1
102
RTVSPropertyOp49
 70
     1
102
RTVSPropertyOp50
 70
     1
102
RTVSPropertyOp51
 70
     0
102
RTVSPropertyOp52
 70
     0
102
RTVSPropertyOp53
 70
     1
102
RTVSPropertyOp54
 70
     1
102
RTVSPropertyOp55
 70
     1
102
RTVSPropertyOp56
 70
     1
102
RTVSPropertyOp57
 70
     1
102
RTVSPost2010Prop28
280
     0
102
RTVSPost2010PropOp28
 70
     1
102
RTVSPost2010Prop29
280
     1
102
RTVSPost2010PropOp29
 70
     1
102
RTVSPost2010Prop30
280
     1
102
RTVSPost2010PropOp30
 70
     1
102
RTVSPost2010Prop31
280
     0
102
RTVSPost2010PropOp31
 70
     1
102
RTVSPost2010Prop32
280
     0
102
RTVSPost2010PropOp32
 70
     1
102
RTVSPost2010Prop33
280
     0
102
RTVSPost2010PropOp33
 70
     1
102
RTVSPost2010Prop34
280
     0
102
RTVSPost2010PropOp34
 70
     1
102
RTVSPost2010Prop35
280
     0
102
RTVSPost2010PropOp35
 70
     1
102
RTVSPost2010Prop36
280
     0
102
RTVSPost2010PropOp36
 70
     1
102
RTVSPost2010Prop37
 90
       50
102
RTVSPost2010PropOp37
 70
     1
102
RTVSPost2010Prop38
140
0.0
102
RTVSPost2010PropOp38
 70
     1
102
RTVSPost2010Prop39
140
1.0
102
RTVSPost2010PropOp39
 70
     1
102
RTVSPost2010Prop40
 90
        0
102
RTVSPost2010PropOp40
 70
     1
102
RTVSPost2010Prop41ColorIndex
 90
       18
102
RTVSPost2010Prop41ColorRGB
 90
        0
102
RTVSPost2010PropOp41
 70
     1
102
RTVSPost2010Prop42
 90
       50
102
RTVSPost2010PropOp42
 70
     1
102
RTVSPost2010Prop43
 90
        3
102
RTVSPost2010PropOp43
 70
     1
102
RTVSPost2010Prop44ColorIndex
 90
        5
102
RTVSPost2010Prop44ColorRGB
 90
      255
102
RTVSPost2010PropOp44
 70
     1
102
RTVSPost2010Prop45
280
     0
102
RTVSPost2010PropOp45
 70
     1
102
RTVSPost2010Prop46
 90
       50
102
RTVSPost2010PropOp46
 70
     1
102
RTVSPost2010Prop47
 90
       50
102
RTVSPost2010PropOp47
 70
     1
102
RTVSPost2010Prop48
 90
       50
102
RTVSPost2010PropOp48
 70
     1
102
RTVSPost2010Prop49
280
     0
102
RTVSPost2010PropOp49
 70
     1
102
RTVSPost2010Prop50
 90
       50
102
RTVSPost2010PropOp50
 70
     1
102
RTVSPost2010Prop51ColorIndex
 90
      256
102
RTVSPost2010Prop51ColorRGB
 90
-16777216
102
RTVSPost2010PropOp51
 70
     0
102
RTVSPost2010Prop52
140
1.0
102
RTVSPost2010PropOp52
 70
     0
102
RTVSPost2010Prop53
 90
        2
102
RTVSPost2010PropOp53
 70
     1
102
RTVSPost2010Prop54
  1
strokes_ogs.tif
102
RTVSPost2010PropOp54
 70
     1
102
RTVSPost2010Prop55
280
     0
102
RTVSPost2010PropOp55
 70
     1
102
RTVSPost2010Prop56
140
1.0
102
RTVSPost2010PropOp56
 70
     1
102
RTVSPost2010Prop57
140
1.0
102
RTVSPost2010PropOp57
 70
     1
  0
XRECORD
  5
2BF
102
{ACAD_REACTORS
330
2BE
102
}
330
2BE
100
AcDbXrecord
280
     1
102
RTVSPropertyOp0
 70
     1
102
RTVSPropertyOp1
 70
     1
102
RTVSPropertyOp2
 70
     1
102
RTVSPropertyOp3
 70
     1
102
RTVSPropertyOp4
 70
     1
102
RTVSPropertyOp5
 70
     1
102
RTVSPropertyOp6
 70
     1
102
RTVSPropertyOp7
 70
     1
102
RTVSPropertyOp8
 70
     1
102
RTVSPropertyOp9
 70
     1
102
RTVSPropertyOp10
 70
     1
102
RTVSPropertyOp11
 70
     1
102
RTVSPropertyOp12
 70
     1
102
RTVSPropertyOp13
 70
     1
102
RTVSPropertyOp14
 70
     1
102
RTVSPropertyOp15
 70
     1
102
RTVSPropertyOp16
 70
     1
102
RTVSPropertyOp17
 70
     1
102
RTVSPropertyOp18
 70
     1
102
RTVSPropertyOp19
 70
     1
102
RTVSPropertyOp20
 70
     1
102
RTVSPropertyOp21
 70
     1
102
RTVSPropertyOp22
 70
     1
102
RTVSPropertyOp23
 70
     1
102
RTVSPropertyOp24
 70
     1
102
RTVSPropertyOp25
 70
     1
102
RTVSPropertyOp26
 70
     1
102
RTVSPropertyOp27
 70
     1
102
RTVSPropertyOp28
 70
     1
102
RTVSPropertyOp29
 70
     1
102
RTVSPropertyOp30
 70
     1
102
RTVSPropertyOp31
 70
     1
102
RTVSPropertyOp32
 70
     1
102
RTVSPropertyOp33
 70
     1
102
RTVSPropertyOp34
 70
     1
102
RTVSPropertyOp35
 70
     1
102
RTVSPropertyOp36
 70
     1
102
RTVSPropertyOp37
 70
     1
102
RTVSPropertyOp38
 70
     1
102
RTVSPropertyOp39
 70
     1
102
RTVSPropertyOp40
 70
     1
102
RTVSPropertyOp41
 70
     1
102
RTVSPropertyOp42
 70
     1
102
RTVSPropertyOp43
 70
     1
102
RTVSPropertyOp44
 70
     1
102
RTVSPropertyOp45
 70
     1
102
RTVSPropertyOp46
 70
     1
102
RTVSPropertyOp47
 70
     1
102
RTVSPropertyOp48
 70
     1
102
RTVSPropertyOp49
 70
     1
102
RTVSPropertyOp50
 70
     1
102
RTVSPropertyOp51
 70
     0
102
RTVSPropertyOp52
 70
     0
102
RTVSPropertyOp53
 70
     1
102
RTVSPropertyOp54
 70
     1
102
RTVSPropertyOp55
 70
     1
102
RTVSPropertyOp56
 70
     1
102
RTVSPropertyOp57
 70
     1
102
RTVSPost2010Prop28
280
     0
102
RTVSPost2010PropOp28
 70
     1
102
RTVSPost2010Prop29
280
     1
102
RTVSPost2010PropOp29
 70
     1
102
RTVSPost2010Prop30
280
     1
102
RTVSPost2010PropOp30
 70
     1
102
RTVSPost2010Prop31
280
     0
102
RTVSPost2010PropOp31
 70
     1
102
RTVSPost2010Prop32
280
     0
102
RTVSPost2010PropOp32
 70
     1
102
RTVSPost2010Prop33
280
     0
102
RTVSPost2010PropOp33
 70
     1
102
RTVSPost2010Prop34
280
     0
102
RTVSPost2010PropOp34
 70
     1
102
RTVSPost2010Prop35
280
     0
102
RTVSPost2010PropOp35
 70
     1
102
RTVSPost2010Prop36
280
     0
102
RTVSPost2010PropOp36
 70
     1
102
RTVSPost2010Prop37
 90
       50
102
RTVSPost2010PropOp37
 70
     1
102
RTVSPost2010Prop38
140
0.0
102
RTVSPost2010PropOp38
 70
     1
102
RTVSPost2010Prop39
140
1.0
102
RTVSPost2010PropOp39
 70
     1
102
RTVSPost2010Prop40
 90
        0
102
RTVSPost2010PropOp40
 70
     1
102
RTVSPost2010Prop41ColorIndex
 90
       18
102
RTVSPost2010Prop41ColorRGB
 90
        0
102
RTVSPost2010PropOp41
 70
     1
102
RTVSPost2010Prop42
 90
       50
102
RTVSPost2010PropOp42
 70
     1
102
RTVSPost2010Prop43
 90
        3
102
RTVSPost2010PropOp43
 70
     1
102
RTVSPost2010Prop44ColorIndex
 90
        5
102
RTVSPost2010Prop44ColorRGB
 90
      255
102
RTVSPost2010PropOp44
 70
     1
102
RTVSPost2010Prop45
280
     0
102
RTVSPost2010PropOp45
 70
     1
102
RTVSPost2010Prop46
 90
       50
102
RTVSPost2010PropOp46
 70
     1
102
RTVSPost2010Prop47
 90
       50
102
RTVSPost2010PropOp47
 70
     1
102
RTVSPost2010Prop48
 90
       50
102
RTVSPost2010PropOp48
 70
     1
102
RTVSPost2010Prop49
280
     0
102
RTVSPost2010PropOp49
 70
     1
102
RTVSPost2010Prop50
 90
       50
102
RTVSPost2010PropOp50
 70
     1
102
RTVSPost2010Prop51ColorIndex
 90
      256
102
RTVSPost2010Prop51ColorRGB
 90
-16777216
102
RTVSPost2010PropOp51
 70
     0
102
RTVSPost2010Prop52
140
1.0
102
RTVSPost2010PropOp52
 70
     0
102
RTVSPost2010Prop53
 90
        2
102
RTVSPost2010PropOp53
 70
     1
102
RTVSPost2010Prop54
  1
strokes_ogs.tif
102
RTVSPost2010PropOp54
 70
     1
102
RTVSPost2010Prop55
280
     0
102
RTVSPost2010PropOp55
 70
     1
102
RTVSPost2010Prop56
140
1.0
102
RTVSPost2010PropOp56
 70
     1
102
RTVSPost2010Prop57
140
1.0
102
RTVSPost2010PropOp57
 70
     1
  0
XRECORD
  5
2C1
102
{ACAD_REACTORS
330
2C0
102
}
330
2C0
100
AcDbXrecord
280
     1
102
RTVSPropertyOp0
 70
     1
102
RTVSPropertyOp1
 70
     1
102
RTVSPropertyOp2
 70
     1
102
RTVSPropertyOp3
 70
     1
102
RTVSPropertyOp4
 70
     1
102
RTVSPropertyOp5
 70
     1
102
RTVSPropertyOp6
 70
     1
102
RTVSPropertyOp7
 70
     1
102
RTVSPropertyOp8
 70
     1
102
RTVSPropertyOp9
 70
     1
102
RTVSPropertyOp10
 70
     1
102
RTVSPropertyOp11
 70
     1
102
RTVSPropertyOp12
 70
     1
102
RTVSPropertyOp13
 70
     1
102
RTVSPropertyOp14
 70
     1
102
RTVSPropertyOp15
 70
     1
102
RTVSPropertyOp16
 70
     1
102
RTVSPropertyOp17
 70
     1
102
RTVSPropertyOp18
 70
     1
102
RTVSPropertyOp19
 70
     1
102
RTVSPropertyOp20
 70
     1
102
RTVSPropertyOp21
 70
     1
102
RTVSPropertyOp22
 70
     1
102
RTVSPropertyOp23
 70
     1
102
RTVSPropertyOp24
 70
     1
102
RTVSPropertyOp25
 70
     1
102
RTVSPropertyOp26
 70
     1
102
RTVSPropertyOp27
 70
     1
102
RTVSPropertyOp28
 70
     1
102
RTVSPropertyOp29
 70
     1
102
RTVSPropertyOp30
 70
     1
102
RTVSPropertyOp31
 70
     1
102
RTVSPropertyOp32
 70
     1
102
RTVSPropertyOp33
 70
     1
102
RTVSPropertyOp34
 70
     1
102
RTVSPropertyOp35
 70
     1
102
RTVSPropertyOp36
 70
     1
102
RTVSPropertyOp37
 70
     1
102
RTVSPropertyOp38
 70
     1
102
RTVSPropertyOp39
 70
     1
102
RTVSPropertyOp40
 70
     1
102
RTVSPropertyOp41
 70
     1
102
RTVSPropertyOp42
 70
     1
102
RTVSPropertyOp43
 70
     1
102
RTVSPropertyOp44
 70
     1
102
RTVSPropertyOp45
 70
     1
102
RTVSPropertyOp46
 70
     1
102
RTVSPropertyOp47
 70
     1
102
RTVSPropertyOp48
 70
     1
102
RTVSPropertyOp49
 70
     1
102
RTVSPropertyOp50
 70
     1
102
RTVSPropertyOp51
 70
     0
102
RTVSPropertyOp52
 70
     0
102
RTVSPropertyOp53
 70
     1
102
RTVSPropertyOp54
 70
     1
102
RTVSPropertyOp55
 70
     1
102
RTVSPropertyOp56
 70
     1
102
RTVSPropertyOp57
 70
     1
102
RTVSPost2010Prop28
280
     0
102
RTVSPost2010PropOp28
 70
     1
102
RTVSPost2010Prop29
280
     1
102
RTVSPost2010PropOp29
 70
     1
102
RTVSPost2010Prop30
280
     1
102
RTVSPost2010PropOp30
 70
     1
102
RTVSPost2010Prop31
280
     0
102
RTVSPost2010PropOp31
 70
     1
102
RTVSPost2010Prop32
280
     0
102
RTVSPost2010PropOp32
 70
     1
102
RTVSPost2010Prop33
280
     0
102
RTVSPost2010PropOp33
 70
     1
102
RTVSPost2010Prop34
280
     0
102
RTVSPost2010PropOp34
 70
     1
102
RTVSPost2010Prop35
280
     0
102
RTVSPost2010PropOp35
 70
     1
102
RTVSPost2010Prop36
280
     0
102
RTVSPost2010PropOp36
 70
     1
102
RTVSPost2010Prop37
 90
       50
102
RTVSPost2010PropOp37
 70
     1
102
RTVSPost2010Prop38
140
0.0
102
RTVSPost2010PropOp38
 70
     1
102
RTVSPost2010Prop39
140
1.0
102
RTVSPost2010PropOp39
 70
     1
102
RTVSPost2010Prop40
 90
        0
102
RTVSPost2010PropOp40
 70
     1
102
RTVSPost2010Prop41ColorIndex
 90
       18
102
RTVSPost2010Prop41ColorRGB
 90
        0
102
RTVSPost2010PropOp41
 70
     1
102
RTVSPost2010Prop42
 90
       50
102
RTVSPost2010PropOp42
 70
     1
102
RTVSPost2010Prop43
 90
        3
102
RTVSPost2010PropOp43
 70
     1
102
RTVSPost2010Prop44ColorIndex
 90
        5
102
RTVSPost2010Prop44ColorRGB
 90
      255
102
RTVSPost2010PropOp44
 70
     1
102
RTVSPost2010Prop45
280
     0
102
RTVSPost2010PropOp45
 70
     1
102
RTVSPost2010Prop46
 90
       50
102
RTVSPost2010PropOp46
 70
     1
102
RTVSPost2010Prop47
 90
       50
102
RTVSPost2010PropOp47
 70
     1
102
RTVSPost2010Prop48
 90
       50
102
RTVSPost2010PropOp48
 70
     1
102
RTVSPost2010Prop49
280
     0
102
RTVSPost2010PropOp49
 70
     1
102
RTVSPost2010Prop50
 90
       50
102
RTVSPost2010PropOp50
 70
     1
102
RTVSPost2010Prop51ColorIndex
 90
      256
102
RTVSPost2010Prop51ColorRGB
 90
-16777216
102
RTVSPost2010PropOp51
 70
     0
102
RTVSPost2010Prop52
140
1.0
102
RTVSPost2010PropOp52
 70
     0
102
RTVSPost2010Prop53
 90
        2
102
RTVSPost2010PropOp53
 70
     1
102
RTVSPost2010Prop54
  1
strokes_ogs.tif
102
RTVSPost2010PropOp54
 70
     1
102
RTVSPost2010Prop55
280
     0
102
RTVSPost2010PropOp55
 70
     1
102
RTVSPost2010Prop56
140
1.0
102
RTVSPost2010PropOp56
 70
     1
102
RTVSPost2010Prop57
140
1.0
102
RTVSPost2010PropOp57
 70
     1
  0
XRECORD
  5
2C3
102
{ACAD_REACTORS
330
2C2
102
}
330
2C2
100
AcDbXrecord
280
     1
102
RTVSPropertyOp0
 70
     1
102
RTVSPropertyOp1
 70
     1
102
RTVSPropertyOp2
 70
     1
102
RTVSPropertyOp3
 70
     1
102
RTVSPropertyOp4
 70
     1
102
RTVSPropertyOp5
 70
     1
102
RTVSPropertyOp6
 70
     1
102
RTVSPropertyOp7
 70
     1
102
RTVSPropertyOp8
 70
     1
102
RTVSPropertyOp9
 70
     1
102
RTVSPropertyOp10
 70
     1
102
RTVSPropertyOp11
 70
     1
102
RTVSPropertyOp12
 70
     1
102
RTVSPropertyOp13
 70
     1
102
RTVSPropertyOp14
 70
     1
102
RTVSPropertyOp15
 70
     1
102
RTVSPropertyOp16
 70
     1
102
RTVSPropertyOp17
 70
     1
102
RTVSPropertyOp18
 70
     1
102
RTVSPropertyOp19
 70
     1
102
RTVSPropertyOp20
 70
     1
102
RTVSPropertyOp21
 70
     1
102
RTVSPropertyOp22
 70
     1
102
RTVSPropertyOp23
 70
     1
102
RTVSPropertyOp24
 70
     1
102
RTVSPropertyOp25
 70
     1
102
RTVSPropertyOp26
 70
     1
102
RTVSPropertyOp27
 70
     1
102
RTVSPropertyOp28
 70
     1
102
RTVSPropertyOp29
 70
     1
102
RTVSPropertyOp30
 70
     1
102
RTVSPropertyOp31
 70
     1
102
RTVSPropertyOp32
 70
     1
102
RTVSPropertyOp33
 70
     1
102
RTVSPropertyOp34
 70
     1
102
RTVSPropertyOp35
 70
     1
102
RTVSPropertyOp36
 70
     1
102
RTVSPropertyOp37
 70
     1
102
RTVSPropertyOp38
 70
     1
102
RTVSPropertyOp39
 70
     1
102
RTVSPropertyOp40
 70
     1
102
RTVSPropertyOp41
 70
     1
102
RTVSPropertyOp42
 70
     1
102
RTVSPropertyOp43
 70
     1
102
RTVSPropertyOp44
 70
     1
102
RTVSPropertyOp45
 70
     1
102
RTVSPropertyOp46
 70
     1
102
RTVSPropertyOp47
 70
     1
102
RTVSPropertyOp48
 70
     1
102
RTVSPropertyOp49
 70
     1
102
RTVSPropertyOp50
 70
     1
102
RTVSPropertyOp51
 70
     0
102
RTVSPropertyOp52
 70
     0
102
RTVSPropertyOp53
 70
     1
102
RTVSPropertyOp54
 70
     1
102
RTVSPropertyOp55
 70
     1
102
RTVSPropertyOp56
 70
     1
102
RTVSPropertyOp57
 70
     1
102
RTVSPost2010Prop28
280
     0
102
RTVSPost2010PropOp28
 70
     1
102
RTVSPost2010Prop29
280
     1
102
RTVSPost2010PropOp29
 70
     1
102
RTVSPost2010Prop30
280
     1
102
RTVSPost2010PropOp30
 70
     1
102
RTVSPost2010Prop31
280
     0
102
RTVSPost2010PropOp31
 70
     1
102
RTVSPost2010Prop32
280
     0
102
RTVSPost2010PropOp32
 70
     1
102
RTVSPost2010Prop33
280
     0
102
RTVSPost2010PropOp33
 70
     1
102
RTVSPost2010Prop34
280
     0
102
RTVSPost2010PropOp34
 70
     1
102
RTVSPost2010Prop35
280
     0
102
RTVSPost2010PropOp35
 70
     1
102
RTVSPost2010Prop36
280
     0
102
RTVSPost2010PropOp36
 70
     1
102
RTVSPost2010Prop37
 90
       50
102
RTVSPost2010PropOp37
 70
     1
102
RTVSPost2010Prop38
140
0.0
102
RTVSPost2010PropOp38
 70
     1
102
RTVSPost2010Prop39
140
1.0
102
RTVSPost2010PropOp39
 70
     1
102
RTVSPost2010Prop40
 90
        0
102
RTVSPost2010PropOp40
 70
     1
102
RTVSPost2010Prop41ColorIndex
 90
       18
102
RTVSPost2010Prop41ColorRGB
 90
        0
102
RTVSPost2010PropOp41
 70
     1
102
RTVSPost2010Prop42
 90
       50
102
RTVSPost2010PropOp42
 70
     1
102
RTVSPost2010Prop43
 90
        3
102
RTVSPost2010PropOp43
 70
     1
102
RTVSPost2010Prop44ColorIndex
 90
        5
102
RTVSPost2010Prop44ColorRGB
 90
      255
102
RTVSPost2010PropOp44
 70
     1
102
RTVSPost2010Prop45
280
     0
102
RTVSPost2010PropOp45
 70
     1
102
RTVSPost2010Prop46
 90
       50
102
RTVSPost2010PropOp46
 70
     1
102
RTVSPost2010Prop47
 90
       50
102
RTVSPost2010PropOp47
 70
     1
102
RTVSPost2010Prop48
 90
       50
102
RTVSPost2010PropOp48
 70
     1
102
RTVSPost2010Prop49
280
     0
102
RTVSPost2010PropOp49
 70
     1
102
RTVSPost2010Prop50
 90
       50
102
RTVSPost2010PropOp50
 70
     1
102
RTVSPost2010Prop51ColorIndex
 90
      256
102
RTVSPost2010Prop51ColorRGB
 90
-16777216
102
RTVSPost2010PropOp51
 70
     0
102
RTVSPost2010Prop52
140
1.0
102
RTVSPost2010PropOp52
 70
     0
102
RTVSPost2010Prop53
 90
        2
102
RTVSPost2010PropOp53
 70
     1
102
RTVSPost2010Prop54
  1
strokes_ogs.tif
102
RTVSPost2010PropOp54
 70
     1
102
RTVSPost2010Prop55
280
     0
102
RTVSPost2010PropOp55
 70
     1
102
RTVSPost2010Prop56
140
1.0
102
RTVSPost2010PropOp56
 70
     1
102
RTVSPost2010Prop57
140
1.0
102
RTVSPost2010PropOp57
 70
     1
  0
XRECORD
  5
2C9
102
{ACAD_REACTORS
330
2C8
102
}
330
2C8
100
AcDbXrecord
280
     1
102
RTVSPropertyOp0
 70
     1
102
RTVSPropertyOp1
 70
     1
102
RTVSPropertyOp2
 70
     1
102
RTVSPropertyOp3
 70
     1
102
RTVSPropertyOp4
 70
     1
102
RTVSPropertyOp5
 70
     1
102
RTVSPropertyOp6
 70
     1
102
RTVSPropertyOp7
 70
     1
102
RTVSPropertyOp8
 70
     1
102
RTVSPropertyOp9
 70
     1
102
RTVSPropertyOp10
 70
     1
102
RTVSPropertyOp11
 70
     1
102
RTVSPropertyOp12
 70
     1
102
RTVSPropertyOp13
 70
     1
102
RTVSPropertyOp14
 70
     1
102
RTVSPropertyOp15
 70
     1
102
RTVSPropertyOp16
 70
     1
102
RTVSPropertyOp17
 70
     1
102
RTVSPropertyOp18
 70
     1
102
RTVSPropertyOp19
 70
     1
102
RTVSPropertyOp20
 70
     1
102
RTVSPropertyOp21
 70
     1
102
RTVSPropertyOp22
 70
     1
102
RTVSPropertyOp23
 70
     1
102
RTVSPropertyOp24
 70
     1
102
RTVSPropertyOp25
 70
     1
102
RTVSPropertyOp26
 70
     1
102
RTVSPropertyOp27
 70
     1
102
RTVSPropertyOp28
 70
     1
102
RTVSPropertyOp29
 70
     1
102
RTVSPropertyOp30
 70
     1
102
RTVSPropertyOp31
 70
     1
102
RTVSPropertyOp32
 70
     1
102
RTVSPropertyOp33
 70
     1
102
RTVSPropertyOp34
 70
     1
102
RTVSPropertyOp35
 70
     1
102
RTVSPropertyOp36
 70
     1
102
RTVSPropertyOp37
 70
     1
102
RTVSPropertyOp38
 70
     1
102
RTVSPropertyOp39
 70
     1
102
RTVSPropertyOp40
 70
     1
102
RTVSPropertyOp41
 70
     1
102
RTVSPropertyOp42
 70
     1
102
RTVSPropertyOp43
 70
     1
102
RTVSPropertyOp44
 70
     1
102
RTVSPropertyOp45
 70
     1
102
RTVSPropertyOp46
 70
     1
102
RTVSPropertyOp47
 70
     1
102
RTVSPropertyOp48
 70
     1
102
RTVSPropertyOp49
 70
     1
102
RTVSPropertyOp50
 70
     1
102
RTVSPropertyOp51
 70
     0
102
RTVSPropertyOp52
 70
     0
102
RTVSPropertyOp53
 70
     1
102
RTVSPropertyOp54
 70
     1
102
RTVSPropertyOp55
 70
     1
102
RTVSPropertyOp56
 70
     1
102
RTVSPropertyOp57
 70
     1
102
RTVSPost2010Prop28
280
     0
102
RTVSPost2010PropOp28
 70
     1
102
RTVSPost2010Prop29
280
     1
102
RTVSPost2010PropOp29
 70
     1
102
RTVSPost2010Prop30
280
     1
102
RTVSPost2010PropOp30
 70
     1
102
RTVSPost2010Prop31
280
     0
102
RTVSPost2010PropOp31
 70
     1
102
RTVSPost2010Prop32
280
     0
102
RTVSPost2010PropOp32
 70
     1
102
RTVSPost2010Prop33
280
     0
102
RTVSPost2010PropOp33
 70
     1
102
RTVSPost2010Prop34
280
     0
102
RTVSPost2010PropOp34
 70
     1
102
RTVSPost2010Prop35
280
     0
102
RTVSPost2010PropOp35
 70
     1
102
RTVSPost2010Prop36
280
     0
102
RTVSPost2010PropOp36
 70
     1
102
RTVSPost2010Prop37
 90
       50
102
RTVSPost2010PropOp37
 70
     1
102
RTVSPost2010Prop38
140
0.0
102
RTVSPost2010PropOp38
 70
     1
102
RTVSPost2010Prop39
140
1.0
102
RTVSPost2010PropOp39
 70
     1
102
RTVSPost2010Prop40
 90
        0
102
RTVSPost2010PropOp40
 70
     1
102
RTVSPost2010Prop41ColorIndex
 90
       18
102
RTVSPost2010Prop41ColorRGB
 90
        0
102
RTVSPost2010PropOp41
 70
     1
102
RTVSPost2010Prop42
 90
       50
102
RTVSPost2010PropOp42
 70
     1
102
RTVSPost2010Prop43
 90
        3
102
RTVSPost2010PropOp43
 70
     1
102
RTVSPost2010Prop44ColorIndex
 90
        5
102
RTVSPost2010Prop44ColorRGB
 90
      255
102
RTVSPost2010PropOp44
 70
     1
102
RTVSPost2010Prop45
280
     0
102
RTVSPost2010PropOp45
 70
     1
102
RTVSPost2010Prop46
 90
       50
102
RTVSPost2010PropOp46
 70
     1
102
RTVSPost2010Prop47
 90
       50
102
RTVSPost2010PropOp47
 70
     1
102
RTVSPost2010Prop48
 90
       50
102
RTVSPost2010PropOp48
 70
     1
102
RTVSPost2010Prop49
280
     0
102
RTVSPost2010PropOp49
 70
     1
102
RTVSPost2010Prop50
 90
       50
102
RTVSPost2010PropOp50
 70
     1
102
RTVSPost2010Prop51ColorIndex
 90
      256
102
RTVSPost2010Prop51ColorRGB
 90
-16777216
102
RTVSPost2010PropOp51
 70
     0
102
RTVSPost2010Prop52
140
1.0
102
RTVSPost2010PropOp52
 70
     0
102
RTVSPost2010Prop53
 90
        2
102
RTVSPost2010PropOp53
 70
     1
102
RTVSPost2010Prop54
  1
strokes_ogs.tif
102
RTVSPost2010PropOp54
 70
     1
102
RTVSPost2010Prop55
280
     0
102
RTVSPost2010PropOp55
 70
     1
102
RTVSPost2010Prop56
140
1.0
102
RTVSPost2010PropOp56
 70
     1
102
RTVSPost2010Prop57
140
1.0
102
RTVSPost2010PropOp57
 70
     1
  0
XRECORD
  5
2DD
102
{ACAD_REACTORS
330
2DC
102
}
330
2DC
100
AcDbXrecord
280
     1
102
RTVSPropertyOp0
 70
     0
102
RTVSPropertyOp1
 70
     0
102
RTVSPropertyOp2
 70
     0
102
RTVSPropertyOp3
 70
     0
102
RTVSPropertyOp4
 70
     0
102
RTVSPropertyOp5
 70
     0
102
RTVSPropertyOp6
 70
     0
102
RTVSPropertyOp7
 70
     0
102
RTVSPropertyOp8
 70
     0
102
RTVSPropertyOp9
 70
     0
102
RTVSPropertyOp10
 70
     0
102
RTVSPropertyOp11
 70
     0
102
RTVSPropertyOp12
 70
     0
102
RTVSPropertyOp13
 70
     0
102
RTVSPropertyOp14
 70
     2
102
RTVSPropertyOp15
 70
     0
102
RTVSPropertyOp16
 70
     0
102
RTVSPropertyOp17
 70
     0
102
RTVSPropertyOp18
 70
     0
102
RTVSPropertyOp19
 70
     0
102
RTVSPropertyOp20
 70
     0
102
RTVSPropertyOp21
 70
     0
102
RTVSPropertyOp22
 70
     0
102
RTVSPropertyOp23
 70
     0
102
RTVSPropertyOp24
 70
     0
102
RTVSPropertyOp25
 70
     0
102
RTVSPropertyOp26
 70
     0
102
RTVSPropertyOp27
 70
     0
102
RTVSPropertyOp28
 70
     0
102
RTVSPropertyOp29
 70
     0
102
RTVSPropertyOp30
 70
     0
102
RTVSPropertyOp31
 70
     0
102
RTVSPropertyOp32
 70
     0
102
RTVSPropertyOp33
 70
     0
102
RTVSPropertyOp34
 70
     0
102
RTVSPropertyOp35
 70
     0
102
RTVSPropertyOp36
 70
     0
102
RTVSPropertyOp37
 70
     0
102
RTVSPropertyOp38
 70
     0
102
RTVSPropertyOp39
 70
     0
102
RTVSPropertyOp40
 70
     0
102
RTVSPropertyOp41
 70
     0
102
RTVSPropertyOp42
 70
     0
102
RTVSPropertyOp43
 70
     0
102
RTVSPropertyOp44
 70
     0
102
RTVSPropertyOp45
 70
     0
102
RTVSPropertyOp46
 70
     0
102
RTVSPropertyOp47
 70
     0
102
RTVSPropertyOp48
 70
     0
102
RTVSPropertyOp49
 70
     0
102
RTVSPropertyOp50
 70
     0
102
RTVSPropertyOp51
 70
     0
102
RTVSPropertyOp52
 70
     0
102
RTVSPropertyOp53
 70
     0
102
RTVSPropertyOp54
 70
     0
102
RTVSPropertyOp55
 70
     0
102
RTVSPropertyOp56
 70
     0
102
RTVSPropertyOp57
 70
     0
102
RTVSPost2010Prop28
280
     0
102
RTVSPost2010PropOp28
 70
     0
102
RTVSPost2010Prop29
280
     1
102
RTVSPost2010PropOp29
 70
     0
102
RTVSPost2010Prop30
280
     1
102
RTVSPost2010PropOp30
 70
     0
102
RTVSPost2010Prop31
280
     0
102
RTVSPost2010PropOp31
 70
     0
102
RTVSPost2010Prop32
280
     0
102
RTVSPost2010PropOp32
 70
     0
102
RTVSPost2010Prop33
280
     0
102
RTVSPost2010PropOp33
 70
     0
102
RTVSPost2010Prop34
280
     0
102
RTVSPost2010PropOp34
 70
     0
102
RTVSPost2010Prop35
280
     0
102
RTVSPost2010PropOp35
 70
     0
102
RTVSPost2010Prop36
280
     0
102
RTVSPost2010PropOp36
 70
     0
102
RTVSPost2010Prop37
 90
       50
102
RTVSPost2010PropOp37
 70
     0
102
RTVSPost2010Prop38
140
0.0
102
RTVSPost2010PropOp38
 70
     0
102
RTVSPost2010Prop39
140
1.0
102
RTVSPost2010PropOp39
 70
     0
102
RTVSPost2010Prop40
 90
        0
102
RTVSPost2010PropOp40
 70
     0
102
RTVSPost2010Prop41ColorIndex
 90
       18
102
RTVSPost2010Prop41ColorRGB
 90
        0
102
RTVSPost2010PropOp41
 70
     0
102
RTVSPost2010Prop42
 90
       50
102
RTVSPost2010PropOp42
 70
     0
102
RTVSPost2010Prop43
 90
        3
102
RTVSPost2010PropOp43
 70
     0
102
RTVSPost2010Prop44ColorIndex
 90
        5
102
RTVSPost2010Prop44ColorRGB
 90
      255
102
RTVSPost2010PropOp44
 70
     0
102
RTVSPost2010Prop45
280
     0
102
RTVSPost2010PropOp45
 70
     0
102
RTVSPost2010Prop46
 90
       50
102
RTVSPost2010PropOp46
 70
     0
102
RTVSPost2010Prop47
 90
       50
102
RTVSPost2010PropOp47
 70
     0
102
RTVSPost2010Prop48
 90
       50
102
RTVSPost2010PropOp48
 70
     0
102
RTVSPost2010Prop49
280
     0
102
RTVSPost2010PropOp49
 70
     0
102
RTVSPost2010Prop50
 90
       50
102
RTVSPost2010PropOp50
 70
     0
102
RTVSPost2010Prop51ColorIndex
 90
      256
102
RTVSPost2010Prop51ColorRGB
 90
-16777216
102
RTVSPost2010PropOp51
 70
     0
102
RTVSPost2010Prop52
140
1.0
102
RTVSPost2010PropOp52
 70
     0
102
RTVSPost2010Prop53
 90
        2
102
RTVSPost2010PropOp53
 70
     0
102
RTVSPost2010Prop54
  1
strokes_ogs.tif
102
RTVSPost2010PropOp54
 70
     0
102
RTVSPost2010Prop55
280
     0
102
RTVSPost2010PropOp55
 70
     0
102
RTVSPost2010Prop56
140
1.0
102
RTVSPost2010PropOp56
 70
     0
102
RTVSPost2010Prop57
140
1.0
102
RTVSPost2010PropOp57
 70
     0
  0
XRECORD
  5
2D7
102
{ACAD_REACTORS
330
2D6
102
}
330
2D6
100
AcDbXrecord
280
     1
102
RTVSPropertyOp0
 70
     1
102
RTVSPropertyOp1
 70
     1
102
RTVSPropertyOp2
 70
     1
102
RTVSPropertyOp3
 70
     1
102
RTVSPropertyOp4
 70
     1
102
RTVSPropertyOp5
 70
     1
102
RTVSPropertyOp6
 70
     1
102
RTVSPropertyOp7
 70
     1
102
RTVSPropertyOp8
 70
     1
102
RTVSPropertyOp9
 70
     1
102
RTVSPropertyOp10
 70
     1
102
RTVSPropertyOp11
 70
     1
102
RTVSPropertyOp12
 70
     1
102
RTVSPropertyOp13
 70
     1
102
RTVSPropertyOp14
 70
     1
102
RTVSPropertyOp15
 70
     1
102
RTVSPropertyOp16
 70
     1
102
RTVSPropertyOp17
 70
     1
102
RTVSPropertyOp18
 70
     1
102
RTVSPropertyOp19
 70
     1
102
RTVSPropertyOp20
 70
     1
102
RTVSPropertyOp21
 70
     1
102
RTVSPropertyOp22
 70
     1
102
RTVSPropertyOp23
 70
     1
102
RTVSPropertyOp24
 70
     1
102
RTVSPropertyOp25
 70
     1
102
RTVSPropertyOp26
 70
     1
102
RTVSPropertyOp27
 70
     1
102
RTVSPropertyOp28
 70
     1
102
RTVSPropertyOp29
 70
     1
102
RTVSPropertyOp30
 70
     1
102
RTVSPropertyOp31
 70
     1
102
RTVSPropertyOp32
 70
     1
102
RTVSPropertyOp33
 70
     1
102
RTVSPropertyOp34
 70
     1
102
RTVSPropertyOp35
 70
     1
102
RTVSPropertyOp36
 70
     1
102
RTVSPropertyOp37
 70
     1
102
RTVSPropertyOp38
 70
     1
102
RTVSPropertyOp39
 70
     1
102
RTVSPropertyOp40
 70
     1
102
RTVSPropertyOp41
 70
     1
102
RTVSPropertyOp42
 70
     1
102
RTVSPropertyOp43
 70
     1
102
RTVSPropertyOp44
 70
     1
102
RTVSPropertyOp45
 70
     1
102
RTVSPropertyOp46
 70
     1
102
RTVSPropertyOp47
 70
     1
102
RTVSPropertyOp48
 70
     1
102
RTVSPropertyOp49
 70
     1
102
RTVSPropertyOp50
 70
     1
102
RTVSPropertyOp51
 70
     0
102
RTVSPropertyOp52
 70
     0
102
RTVSPropertyOp53
 70
     1
102
RTVSPropertyOp54
 70
     1
102
RTVSPropertyOp55
 70
     1
102
RTVSPropertyOp56
 70
     1
102
RTVSPropertyOp57
 70
     1
102
RTVSPost2010Prop28
280
     0
102
RTVSPost2010PropOp28
 70
     1
102
RTVSPost2010Prop29
280
     1
102
RTVSPost2010PropOp29
 70
     1
102
RTVSPost2010Prop30
280
     1
102
RTVSPost2010PropOp30
 70
     1
102
RTVSPost2010Prop31
280
     0
102
RTVSPost2010PropOp31
 70
     1
102
RTVSPost2010Prop32
280
     0
102
RTVSPost2010PropOp32
 70
     1
102
RTVSPost2010Prop33
280
     0
102
RTVSPost2010PropOp33
 70
     1
102
RTVSPost2010Prop34
280
     0
102
RTVSPost2010PropOp34
 70
     1
102
RTVSPost2010Prop35
280
     0
102
RTVSPost2010PropOp35
 70
     1
102
RTVSPost2010Prop36
280
     0
102
RTVSPost2010PropOp36
 70
     1
102
RTVSPost2010Prop37
 90
       50
102
RTVSPost2010PropOp37
 70
     1
102
RTVSPost2010Prop38
140
0.0
102
RTVSPost2010PropOp38
 70
     1
102
RTVSPost2010Prop39
140
1.0
102
RTVSPost2010PropOp39
 70
     1
102
RTVSPost2010Prop40
 90
        0
102
RTVSPost2010PropOp40
 70
     1
102
RTVSPost2010Prop41ColorIndex
 90
       18
102
RTVSPost2010Prop41ColorRGB
 90
        0
102
RTVSPost2010PropOp41
 70
     1
102
RTVSPost2010Prop42
 90
       50
102
RTVSPost2010PropOp42
 70
     1
102
RTVSPost2010Prop43
 90
        3
102
RTVSPost2010PropOp43
 70
     1
102
RTVSPost2010Prop44ColorIndex
 90
        5
102
RTVSPost2010Prop44ColorRGB
 90
      255
102
RTVSPost2010PropOp44
 70
     1
102
RTVSPost2010Prop45
280
     0
102
RTVSPost2010PropOp45
 70
     1
102
RTVSPost2010Prop46
 90
       50
102
RTVSPost2010PropOp46
 70
     1
102
RTVSPost2010Prop47
 90
       50
102
RTVSPost2010PropOp47
 70
     1
102
RTVSPost2010Prop48
 90
       50
102
RTVSPost2010PropOp48
 70
     1
102
RTVSPost2010Prop49
280
     0
102
RTVSPost2010PropOp49
 70
     1
102
RTVSPost2010Prop50
 90
       50
102
RTVSPost2010PropOp50
 70
     1
102
RTVSPost2010Prop51ColorIndex
 90
      256
102
RTVSPost2010Prop51ColorRGB
 90
-16777216
102
RTVSPost2010PropOp51
 70
     0
102
RTVSPost2010Prop52
140
1.0
102
RTVSPost2010PropOp52
 70
     0
102
RTVSPost2010Prop53
 90
        2
102
RTVSPost2010PropOp53
 70
     1
102
RTVSPost2010Prop54
  1
strokes_ogs.tif
102
RTVSPost2010PropOp54
 70
     1
102
RTVSPost2010Prop55
280
     0
102
RTVSPost2010PropOp55
 70
     1
102
RTVSPost2010Prop56
140
1.0
102
RTVSPost2010PropOp56
 70
     1
102
RTVSPost2010Prop57
140
1.0
102
RTVSPost2010PropOp57
 70
     1
  0
XRECORD
  5
2DF
102
{ACAD_REACTORS
330
2DE
102
}
330
2DE
100
AcDbXrecord
280
     1
102
RTVSPropertyOp0
 70
     0
102
RTVSPropertyOp1
 70
     0
102
RTVSPropertyOp2
 70
     0
102
RTVSPropertyOp3
 70
     0
102
RTVSPropertyOp4
 70
     0
102
RTVSPropertyOp5
 70
     0
102
RTVSPropertyOp6
 70
     0
102
RTVSPropertyOp7
 70
     0
102
RTVSPropertyOp8
 70
     0
102
RTVSPropertyOp9
 70
     0
102
RTVSPropertyOp10
 70
     0
102
RTVSPropertyOp11
 70
     0
102
RTVSPropertyOp12
 70
     0
102
RTVSPropertyOp13
 70
     0
102
RTVSPropertyOp14
 70
     2
102
RTVSPropertyOp15
 70
     0
102
RTVSPropertyOp16
 70
     0
102
RTVSPropertyOp17
 70
     0
102
RTVSPropertyOp18
 70
     0
102
RTVSPropertyOp19
 70
     0
102
RTVSPropertyOp20
 70
     0
102
RTVSPropertyOp21
 70
     0
102
RTVSPropertyOp22
 70
     0
102
RTVSPropertyOp23
 70
     0
102
RTVSPropertyOp24
 70
     0
102
RTVSPropertyOp25
 70
     0
102
RTVSPropertyOp26
 70
     0
102
RTVSPropertyOp27
 70
     0
102
RTVSPropertyOp28
 70
     0
102
RTVSPropertyOp29
 70
     0
102
RTVSPropertyOp30
 70
     0
102
RTVSPropertyOp31
 70
     0
102
RTVSPropertyOp32
 70
     0
102
RTVSPropertyOp33
 70
     0
102
RTVSPropertyOp34
 70
     0
102
RTVSPropertyOp35
 70
     0
102
RTVSPropertyOp36
 70
     0
102
RTVSPropertyOp37
 70
     0
102
RTVSPropertyOp38
 70
     0
102
RTVSPropertyOp39
 70
     0
102
RTVSPropertyOp40
 70
     0
102
RTVSPropertyOp41
 70
     0
102
RTVSPropertyOp42
 70
     0
102
RTVSPropertyOp43
 70
     0
102
RTVSPropertyOp44
 70
     0
102
RTVSPropertyOp45
 70
     0
102
RTVSPropertyOp46
 70
     0
102
RTVSPropertyOp47
 70
     0
102
RTVSPropertyOp48
 70
     0
102
RTVSPropertyOp49
 70
     0
102
RTVSPropertyOp50
 70
     0
102
RTVSPropertyOp51
 70
     0
102
RTVSPropertyOp52
 70
     0
102
RTVSPropertyOp53
 70
     0
102
RTVSPropertyOp54
 70
     0
102
RTVSPropertyOp55
 70
     0
102
RTVSPropertyOp56
 70
     0
102
RTVSPropertyOp57
 70
     0
102
RTVSPost2010Prop28
280
     0
102
RTVSPost2010PropOp28
 70
     0
102
RTVSPost2010Prop29
280
     1
102
RTVSPost2010PropOp29
 70
     0
102
RTVSPost2010Prop30
280
     1
102
RTVSPost2010PropOp30
 70
     0
102
RTVSPost2010Prop31
280
     0
102
RTVSPost2010PropOp31
 70
     0
102
RTVSPost2010Prop32
280
     0
102
RTVSPost2010PropOp32
 70
     0
102
RTVSPost2010Prop33
280
     0
102
RTVSPost2010PropOp33
 70
     0
102
RTVSPost2010Prop34
280
     0
102
RTVSPost2010PropOp34
 70
     0
102
RTVSPost2010Prop35
280
     0
102
RTVSPost2010PropOp35
 70
     0
102
RTVSPost2010Prop36
280
     0
102
RTVSPost2010PropOp36
 70
     0
102
RTVSPost2010Prop37
 90
       50
102
RTVSPost2010PropOp37
 70
     0
102
RTVSPost2010Prop38
140
0.0
102
RTVSPost2010PropOp38
 70
     0
102
RTVSPost2010Prop39
140
1.0
102
RTVSPost2010PropOp39
 70
     0
102
RTVSPost2010Prop40
 90
        0
102
RTVSPost2010PropOp40
 70
     0
102
RTVSPost2010Prop41ColorIndex
 90
       18
102
RTVSPost2010Prop41ColorRGB
 90
        0
102
RTVSPost2010PropOp41
 70
     0
102
RTVSPost2010Prop42
 90
       50
102
RTVSPost2010PropOp42
 70
     0
102
RTVSPost2010Prop43
 90
        3
102
RTVSPost2010PropOp43
 70
     0
102
RTVSPost2010Prop44ColorIndex
 90
        5
102
RTVSPost2010Prop44ColorRGB
 90
      255
102
RTVSPost2010PropOp44
 70
     0
102
RTVSPost2010Prop45
280
     0
102
RTVSPost2010PropOp45
 70
     0
102
RTVSPost2010Prop46
 90
       50
102
RTVSPost2010PropOp46
 70
     0
102
RTVSPost2010Prop47
 90
       50
102
RTVSPost2010PropOp47
 70
     0
102
RTVSPost2010Prop48
 90
       50
102
RTVSPost2010PropOp48
 70
     0
102
RTVSPost2010Prop49
280
     0
102
RTVSPost2010PropOp49
 70
     0
102
RTVSPost2010Prop50
 90
       50
102
RTVSPost2010PropOp50
 70
     0
102
RTVSPost2010Prop51ColorIndex
 90
      256
102
RTVSPost2010Prop51ColorRGB
 90
-16777216
102
RTVSPost2010PropOp51
 70
     0
102
RTVSPost2010Prop52
140
1.0
102
RTVSPost2010PropOp52
 70
     0
102
RTVSPost2010Prop53
 90
        2
102
RTVSPost2010PropOp53
 70
     0
102
RTVSPost2010Prop54
  1
strokes_ogs.tif
102
RTVSPost2010PropOp54
 70
     0
102
RTVSPost2010Prop55
280
     0
102
RTVSPost2010PropOp55
 70
     0
102
RTVSPost2010Prop56
140
1.0
102
RTVSPost2010PropOp56
 70
     0
102
RTVSPost2010Prop57
140
1.0
102
RTVSPost2010PropOp57
 70
     0
  0
XRECORD
  5
2CD
102
{ACAD_REACTORS
330
2CC
102
}
330
2CC
100
AcDbXrecord
280
     1
102
RTVSPropertyOp0
 70
     1
102
RTVSPropertyOp1
 70
     1
102
RTVSPropertyOp2
 70
     1
102
RTVSPropertyOp3
 70
     1
102
RTVSPropertyOp4
 70
     1
102
RTVSPropertyOp5
 70
     1
102
RTVSPropertyOp6
 70
     1
102
RTVSPropertyOp7
 70
     1
102
RTVSPropertyOp8
 70
     1
102
RTVSPropertyOp9
 70
     1
102
RTVSPropertyOp10
 70
     1
102
RTVSPropertyOp11
 70
     1
102
RTVSPropertyOp12
 70
     1
102
RTVSPropertyOp13
 70
     1
102
RTVSPropertyOp14
 70
     1
102
RTVSPropertyOp15
 70
     1
102
RTVSPropertyOp16
 70
     1
102
RTVSPropertyOp17
 70
     1
102
RTVSPropertyOp18
 70
     1
102
RTVSPropertyOp19
 70
     1
102
RTVSPropertyOp20
 70
     1
102
RTVSPropertyOp21
 70
     1
102
RTVSPropertyOp22
 70
     1
102
RTVSPropertyOp23
 70
     1
102
RTVSPropertyOp24
 70
     1
102
RTVSPropertyOp25
 70
     1
102
RTVSPropertyOp26
 70
     1
102
RTVSPropertyOp27
 70
     1
102
RTVSPropertyOp28
 70
     1
102
RTVSPropertyOp29
 70
     1
102
RTVSPropertyOp30
 70
     1
102
RTVSPropertyOp31
 70
     1
102
RTVSPropertyOp32
 70
     1
102
RTVSPropertyOp33
 70
     1
102
RTVSPropertyOp34
 70
     1
102
RTVSPropertyOp35
 70
     1
102
RTVSPropertyOp36
 70
     1
102
RTVSPropertyOp37
 70
     1
102
RTVSPropertyOp38
 70
     1
102
RTVSPropertyOp39
 70
     1
102
RTVSPropertyOp40
 70
     1
102
RTVSPropertyOp41
 70
     1
102
RTVSPropertyOp42
 70
     1
102
RTVSPropertyOp43
 70
     1
102
RTVSPropertyOp44
 70
     1
102
RTVSPropertyOp45
 70
     1
102
RTVSPropertyOp46
 70
     1
102
RTVSPropertyOp47
 70
     1
102
RTVSPropertyOp48
 70
     1
102
RTVSPropertyOp49
 70
     1
102
RTVSPropertyOp50
 70
     1
102
RTVSPropertyOp51
 70
     0
102
RTVSPropertyOp52
 70
     0
102
RTVSPropertyOp53
 70
     1
102
RTVSPropertyOp54
 70
     1
102
RTVSPropertyOp55
 70
     1
102
RTVSPropertyOp56
 70
     1
102
RTVSPropertyOp57
 70
     1
102
RTVSPost2010Prop28
280
     0
102
RTVSPost2010PropOp28
 70
     1
102
RTVSPost2010Prop29
280
     1
102
RTVSPost2010PropOp29
 70
     1
102
RTVSPost2010Prop30
280
     1
102
RTVSPost2010PropOp30
 70
     1
102
RTVSPost2010Prop31
280
     0
102
RTVSPost2010PropOp31
 70
     1
102
RTVSPost2010Prop32
280
     0
102
RTVSPost2010PropOp32
 70
     1
102
RTVSPost2010Prop33
280
     0
102
RTVSPost2010PropOp33
 70
     1
102
RTVSPost2010Prop34
280
     0
102
RTVSPost2010PropOp34
 70
     1
102
RTVSPost2010Prop35
280
     0
102
RTVSPost2010PropOp35
 70
     1
102
RTVSPost2010Prop36
280
     0
102
RTVSPost2010PropOp36
 70
     1
102
RTVSPost2010Prop37
 90
       50
102
RTVSPost2010PropOp37
 70
     1
102
RTVSPost2010Prop38
140
0.0
102
RTVSPost2010PropOp38
 70
     1
102
RTVSPost2010Prop39
140
1.0
102
RTVSPost2010PropOp39
 70
     1
102
RTVSPost2010Prop40
 90
        0
102
RTVSPost2010PropOp40
 70
     1
102
RTVSPost2010Prop41ColorIndex
 90
       18
102
RTVSPost2010Prop41ColorRGB
 90
        0
102
RTVSPost2010PropOp41
 70
     1
102
RTVSPost2010Prop42
 90
       50
102
RTVSPost2010PropOp42
 70
     1
102
RTVSPost2010Prop43
 90
        3
102
RTVSPost2010PropOp43
 70
     1
102
RTVSPost2010Prop44ColorIndex
 90
        5
102
RTVSPost2010Prop44ColorRGB
 90
      255
102
RTVSPost2010PropOp44
 70
     1
102
RTVSPost2010Prop45
280
     0
102
RTVSPost2010PropOp45
 70
     1
102
RTVSPost2010Prop46
 90
       50
102
RTVSPost2010PropOp46
 70
     1
102
RTVSPost2010Prop47
 90
       50
102
RTVSPost2010PropOp47
 70
     1
102
RTVSPost2010Prop48
 90
       50
102
RTVSPost2010PropOp48
 70
     1
102
RTVSPost2010Prop49
280
     0
102
RTVSPost2010PropOp49
 70
     1
102
RTVSPost2010Prop50
 90
       50
102
RTVSPost2010PropOp50
 70
     1
102
RTVSPost2010Prop51ColorIndex
 90
      256
102
RTVSPost2010Prop51ColorRGB
 90
-16777216
102
RTVSPost2010PropOp51
 70
     0
102
RTVSPost2010Prop52
140
1.0
102
RTVSPost2010PropOp52
 70
     0
102
RTVSPost2010Prop53
 90
        2
102
RTVSPost2010PropOp53
 70
     1
102
RTVSPost2010Prop54
  1
strokes_ogs.tif
102
RTVSPost2010PropOp54
 70
     1
102
RTVSPost2010Prop55
280
     0
102
RTVSPost2010PropOp55
 70
     1
102
RTVSPost2010Prop56
140
1.0
102
RTVSPost2010PropOp56
 70
     1
102
RTVSPost2010Prop57
140
1.0
102
RTVSPost2010PropOp57
 70
     1
  0
XRECORD
  5
2EB
102
{ACAD_REACTORS
330
2EA
102
}
330
2EA
100
AcDbXrecord
280
     1
102
RTVSPropertyOp0
 70
     1
102
RTVSPropertyOp1
 70
     1
102
RTVSPropertyOp2
 70
     1
102
RTVSPropertyOp3
 70
     1
102
RTVSPropertyOp4
 70
     1
102
RTVSPropertyOp5
 70
     1
102
RTVSPropertyOp6
 70
     1
102
RTVSPropertyOp7
 70
     1
102
RTVSPropertyOp8
 70
     1
102
RTVSPropertyOp9
 70
     1
102
RTVSPropertyOp10
 70
     1
102
RTVSPropertyOp11
 70
     1
102
RTVSPropertyOp12
 70
     1
102
RTVSPropertyOp13
 70
     1
102
RTVSPropertyOp14
 70
     1
102
RTVSPropertyOp15
 70
     1
102
RTVSPropertyOp16
 70
     1
102
RTVSPropertyOp17
 70
     1
102
RTVSPropertyOp18
 70
     1
102
RTVSPropertyOp19
 70
     1
102
RTVSPropertyOp20
 70
     1
102
RTVSPropertyOp21
 70
     1
102
RTVSPropertyOp22
 70
     1
102
RTVSPropertyOp23
 70
     1
102
RTVSPropertyOp24
 70
     1
102
RTVSPropertyOp25
 70
     1
102
RTVSPropertyOp26
 70
     1
102
RTVSPropertyOp27
 70
     1
102
RTVSPropertyOp28
 70
     1
102
RTVSPropertyOp29
 70
     1
102
RTVSPropertyOp30
 70
     1
102
RTVSPropertyOp31
 70
     1
102
RTVSPropertyOp32
 70
     1
102
RTVSPropertyOp33
 70
     1
102
RTVSPropertyOp34
 70
     1
102
RTVSPropertyOp35
 70
     1
102
RTVSPropertyOp36
 70
     1
102
RTVSPropertyOp37
 70
     1
102
RTVSPropertyOp38
 70
     1
102
RTVSPropertyOp39
 70
     1
102
RTVSPropertyOp40
 70
     1
102
RTVSPropertyOp41
 70
     1
102
RTVSPropertyOp42
 70
     1
102
RTVSPropertyOp43
 70
     1
102
RTVSPropertyOp44
 70
     1
102
RTVSPropertyOp45
 70
     1
102
RTVSPropertyOp46
 70
     1
102
RTVSPropertyOp47
 70
     1
102
RTVSPropertyOp48
 70
     1
102
RTVSPropertyOp49
 70
     1
102
RTVSPropertyOp50
 70
     1
102
RTVSPropertyOp51
 70
     0
102
RTVSPropertyOp52
 70
     0
102
RTVSPropertyOp53
 70
     1
102
RTVSPropertyOp54
 70
     1
102
RTVSPropertyOp55
 70
     1
102
RTVSPropertyOp56
 70
     1
102
RTVSPropertyOp57
 70
     1
102
RTVSPost2010Prop28
280
     0
102
RTVSPost2010PropOp28
 70
     1
102
RTVSPost2010Prop29
280
     1
102
RTVSPost2010PropOp29
 70
     1
102
RTVSPost2010Prop30
280
     1
102
RTVSPost2010PropOp30
 70
     1
102
RTVSPost2010Prop31
280
     0
102
RTVSPost2010PropOp31
 70
     1
102
RTVSPost2010Prop32
280
     0
102
RTVSPost2010PropOp32
 70
     1
102
RTVSPost2010Prop33
280
     0
102
RTVSPost2010PropOp33
 70
     1
102
RTVSPost2010Prop34
280
     0
102
RTVSPost2010PropOp34
 70
     1
102
RTVSPost2010Prop35
280
     0
102
RTVSPost2010PropOp35
 70
     1
102
RTVSPost2010Prop36
280
     0
102
RTVSPost2010PropOp36
 70
     1
102
RTVSPost2010Prop37
 90
       50
102
RTVSPost2010PropOp37
 70
     1
102
RTVSPost2010Prop38
140
0.0
102
RTVSPost2010PropOp38
 70
     1
102
RTVSPost2010Prop39
140
1.0
102
RTVSPost2010PropOp39
 70
     1
102
RTVSPost2010Prop40
 90
        0
102
RTVSPost2010PropOp40
 70
     1
102
RTVSPost2010Prop41ColorIndex
 90
       18
102
RTVSPost2010Prop41ColorRGB
 90
        0
102
RTVSPost2010PropOp41
 70
     1
102
RTVSPost2010Prop42
 90
       50
102
RTVSPost2010PropOp42
 70
     1
102
RTVSPost2010Prop43
 90
        3
102
RTVSPost2010PropOp43
 70
     1
102
RTVSPost2010Prop44ColorIndex
 90
        5
102
RTVSPost2010Prop44ColorRGB
 90
      255
102
RTVSPost2010PropOp44
 70
     1
102
RTVSPost2010Prop45
280
     0
102
RTVSPost2010PropOp45
 70
     1
102
RTVSPost2010Prop46
 90
       50
102
RTVSPost2010PropOp46
 70
     1
102
RTVSPost2010Prop47
 90
       50
102
RTVSPost2010PropOp47
 70
     1
102
RTVSPost2010Prop48
 90
       50
102
RTVSPost2010PropOp48
 70
     1
102
RTVSPost2010Prop49
280
     0
102
RTVSPost2010PropOp49
 70
     1
102
RTVSPost2010Prop50
 90
       50
102
RTVSPost2010PropOp50
 70
     1
102
RTVSPost2010Prop51ColorIndex
 90
      256
102
RTVSPost2010Prop51ColorRGB
 90
-16777216
102
RTVSPost2010PropOp51
 70
     0
102
RTVSPost2010Prop52
140
1.0
102
RTVSPost2010PropOp52
 70
     0
102
RTVSPost2010Prop53
 90
        2
102
RTVSPost2010PropOp53
 70
     1
102
RTVSPost2010Prop54
  1
strokes_ogs.tif
102
RTVSPost2010PropOp54
 70
     1
102
RTVSPost2010Prop55
280
     0
102
RTVSPost2010PropOp55
 70
     1
102
RTVSPost2010Prop56
140
1.0
102
RTVSPost2010PropOp56
 70
     1
102
RTVSPost2010Prop57
140
1.0
102
RTVSPost2010PropOp57
 70
     1
  0
XRECORD
  5
2E9
102
{ACAD_REACTORS
330
2E8
102
}
330
2E8
100
AcDbXrecord
280
     1
102
RTVSPropertyOp0
 70
     1
102
RTVSPropertyOp1
 70
     1
102
RTVSPropertyOp2
 70
     1
102
RTVSPropertyOp3
 70
     1
102
RTVSPropertyOp4
 70
     1
102
RTVSPropertyOp5
 70
     1
102
RTVSPropertyOp6
 70
     1
102
RTVSPropertyOp7
 70
     1
102
RTVSPropertyOp8
 70
     1
102
RTVSPropertyOp9
 70
     1
102
RTVSPropertyOp10
 70
     1
102
RTVSPropertyOp11
 70
     1
102
RTVSPropertyOp12
 70
     1
102
RTVSPropertyOp13
 70
     1
102
RTVSPropertyOp14
 70
     1
102
RTVSPropertyOp15
 70
     1
102
RTVSPropertyOp16
 70
     1
102
RTVSPropertyOp17
 70
     1
102
RTVSPropertyOp18
 70
     1
102
RTVSPropertyOp19
 70
     1
102
RTVSPropertyOp20
 70
     1
102
RTVSPropertyOp21
 70
     1
102
RTVSPropertyOp22
 70
     1
102
RTVSPropertyOp23
 70
     1
102
RTVSPropertyOp24
 70
     1
102
RTVSPropertyOp25
 70
     1
102
RTVSPropertyOp26
 70
     1
102
RTVSPropertyOp27
 70
     1
102
RTVSPropertyOp28
 70
     1
102
RTVSPropertyOp29
 70
     1
102
RTVSPropertyOp30
 70
     1
102
RTVSPropertyOp31
 70
     1
102
RTVSPropertyOp32
 70
     1
102
RTVSPropertyOp33
 70
     1
102
RTVSPropertyOp34
 70
     1
102
RTVSPropertyOp35
 70
     1
102
RTVSPropertyOp36
 70
     1
102
RTVSPropertyOp37
 70
     1
102
RTVSPropertyOp38
 70
     1
102
RTVSPropertyOp39
 70
     1
102
RTVSPropertyOp40
 70
     1
102
RTVSPropertyOp41
 70
     1
102
RTVSPropertyOp42
 70
     1
102
RTVSPropertyOp43
 70
     1
102
RTVSPropertyOp44
 70
     1
102
RTVSPropertyOp45
 70
     1
102
RTVSPropertyOp46
 70
     1
102
RTVSPropertyOp47
 70
     1
102
RTVSPropertyOp48
 70
     1
102
RTVSPropertyOp49
 70
     1
102
RTVSPropertyOp50
 70
     1
102
RTVSPropertyOp51
 70
     0
102
RTVSPropertyOp52
 70
     0
102
RTVSPropertyOp53
 70
     1
102
RTVSPropertyOp54
 70
     1
102
RTVSPropertyOp55
 70
     1
102
RTVSPropertyOp56
 70
     1
102
RTVSPropertyOp57
 70
     1
102
RTVSPost2010Prop28
280
     0
102
RTVSPost2010PropOp28
 70
     1
102
RTVSPost2010Prop29
280
     1
102
RTVSPost2010PropOp29
 70
     1
102
RTVSPost2010Prop30
280
     1
102
RTVSPost2010PropOp30
 70
     1
102
RTVSPost2010Prop31
280
     0
102
RTVSPost2010PropOp31
 70
     1
102
RTVSPost2010Prop32
280
     0
102
RTVSPost2010PropOp32
 70
     1
102
RTVSPost2010Prop33
280
     0
102
RTVSPost2010PropOp33
 70
     1
102
RTVSPost2010Prop34
280
     0
102
RTVSPost2010PropOp34
 70
     1
102
RTVSPost2010Prop35
280
     0
102
RTVSPost2010PropOp35
 70
     1
102
RTVSPost2010Prop36
280
     0
102
RTVSPost2010PropOp36
 70
     1
102
RTVSPost2010Prop37
 90
       50
102
RTVSPost2010PropOp37
 70
     1
102
RTVSPost2010Prop38
140
0.0
102
RTVSPost2010PropOp38
 70
     1
102
RTVSPost2010Prop39
140
1.0
102
RTVSPost2010PropOp39
 70
     1
102
RTVSPost2010Prop40
 90
        0
102
RTVSPost2010PropOp40
 70
     1
102
RTVSPost2010Prop41ColorIndex
 90
       18
102
RTVSPost2010Prop41ColorRGB
 90
        0
102
RTVSPost2010PropOp41
 70
     1
102
RTVSPost2010Prop42
 90
       50
102
RTVSPost2010PropOp42
 70
     1
102
RTVSPost2010Prop43
 90
        3
102
RTVSPost2010PropOp43
 70
     1
102
RTVSPost2010Prop44ColorIndex
 90
        5
102
RTVSPost2010Prop44ColorRGB
 90
      255
102
RTVSPost2010PropOp44
 70
     1
102
RTVSPost2010Prop45
280
     0
102
RTVSPost2010PropOp45
 70
     1
102
RTVSPost2010Prop46
 90
       50
102
RTVSPost2010PropOp46
 70
     1
102
RTVSPost2010Prop47
 90
       50
102
RTVSPost2010PropOp47
 70
     1
102
RTVSPost2010Prop48
 90
       50
102
RTVSPost2010PropOp48
 70
     1
102
RTVSPost2010Prop49
280
     0
102
RTVSPost2010PropOp49
 70
     1
102
RTVSPost2010Prop50
 90
       50
102
RTVSPost2010PropOp50
 70
     1
102
RTVSPost2010Prop51ColorIndex
 90
      256
102
RTVSPost2010Prop51ColorRGB
 90
-16777216
102
RTVSPost2010PropOp51
 70
     0
102
RTVSPost2010Prop52
140
1.0
102
RTVSPost2010PropOp52
 70
     0
102
RTVSPost2010Prop53
 90
        2
102
RTVSPost2010PropOp53
 70
     1
102
RTVSPost2010Prop54
  1
strokes_ogs.tif
102
RTVSPost2010PropOp54
 70
     1
102
RTVSPost2010Prop55
280
     0
102
RTVSPost2010PropOp55
 70
     1
102
RTVSPost2010Prop56
140
1.0
102
RTVSPost2010PropOp56
 70
     1
102
RTVSPost2010Prop57
140
1.0
102
RTVSPost2010PropOp57
 70
     1
  0
XRECORD
  5
2E3
102
{ACAD_REACTORS
330
2E2
102
}
330
2E2
100
AcDbXrecord
280
     1
102
RTVSPropertyOp0
 70
     1
102
RTVSPropertyOp1
 70
     1
102
RTVSPropertyOp2
 70
     1
102
RTVSPropertyOp3
 70
     1
102
RTVSPropertyOp4
 70
     1
102
RTVSPropertyOp5
 70
     1
102
RTVSPropertyOp6
 70
     1
102
RTVSPropertyOp7
 70
     1
102
RTVSPropertyOp8
 70
     1
102
RTVSPropertyOp9
 70
     1
102
RTVSPropertyOp10
 70
     1
102
RTVSPropertyOp11
 70
     1
102
RTVSPropertyOp12
 70
     1
102
RTVSPropertyOp13
 70
     1
102
RTVSPropertyOp14
 70
     1
102
RTVSPropertyOp15
 70
     1
102
RTVSPropertyOp16
 70
     1
102
RTVSPropertyOp17
 70
     1
102
RTVSPropertyOp18
 70
     1
102
RTVSPropertyOp19
 70
     1
102
RTVSPropertyOp20
 70
     1
102
RTVSPropertyOp21
 70
     1
102
RTVSPropertyOp22
 70
     1
102
RTVSPropertyOp23
 70
     1
102
RTVSPropertyOp24
 70
     1
102
RTVSPropertyOp25
 70
     1
102
RTVSPropertyOp26
 70
     1
102
RTVSPropertyOp27
 70
     1
102
RTVSPropertyOp28
 70
     1
102
RTVSPropertyOp29
 70
     1
102
RTVSPropertyOp30
 70
     1
102
RTVSPropertyOp31
 70
     1
102
RTVSPropertyOp32
 70
     1
102
RTVSPropertyOp33
 70
     1
102
RTVSPropertyOp34
 70
     1
102
RTVSPropertyOp35
 70
     1
102
RTVSPropertyOp36
 70
     1
102
RTVSPropertyOp37
 70
     1
102
RTVSPropertyOp38
 70
     1
102
RTVSPropertyOp39
 70
     1
102
RTVSPropertyOp40
 70
     1
102
RTVSPropertyOp41
 70
     1
102
RTVSPropertyOp42
 70
     1
102
RTVSPropertyOp43
 70
     1
102
RTVSPropertyOp44
 70
     1
102
RTVSPropertyOp45
 70
     1
102
RTVSPropertyOp46
 70
     1
102
RTVSPropertyOp47
 70
     1
102
RTVSPropertyOp48
 70
     1
102
RTVSPropertyOp49
 70
     1
102
RTVSPropertyOp50
 70
     1
102
RTVSPropertyOp51
 70
     0
102
RTVSPropertyOp52
 70
     0
102
RTVSPropertyOp53
 70
     1
102
RTVSPropertyOp54
 70
     1
102
RTVSPropertyOp55
 70
     1
102
RTVSPropertyOp56
 70
     1
102
RTVSPropertyOp57
 70
     1
102
RTVSPost2010Prop28
280
     0
102
RTVSPost2010PropOp28
 70
     1
102
RTVSPost2010Prop29
280
     1
102
RTVSPost2010PropOp29
 70
     1
102
RTVSPost2010Prop30
280
     1
102
RTVSPost2010PropOp30
 70
     1
102
RTVSPost2010Prop31
280
     0
102
RTVSPost2010PropOp31
 70
     1
102
RTVSPost2010Prop32
280
     0
102
RTVSPost2010PropOp32
 70
     1
102
RTVSPost2010Prop33
280
     0
102
RTVSPost2010PropOp33
 70
     1
102
RTVSPost2010Prop34
280
     0
102
RTVSPost2010PropOp34
 70
     1
102
RTVSPost2010Prop35
280
     0
102
RTVSPost2010PropOp35
 70
     1
102
RTVSPost2010Prop36
280
     0
102
RTVSPost2010PropOp36
 70
     1
102
RTVSPost2010Prop37
 90
       50
102
RTVSPost2010PropOp37
 70
     1
102
RTVSPost2010Prop38
140
0.0
102
RTVSPost2010PropOp38
 70
     1
102
RTVSPost2010Prop39
140
1.0
102
RTVSPost2010PropOp39
 70
     1
102
RTVSPost2010Prop40
 90
        0
102
RTVSPost2010PropOp40
 70
     1
102
RTVSPost2010Prop41ColorIndex
 90
       18
102
RTVSPost2010Prop41ColorRGB
 90
        0
102
RTVSPost2010PropOp41
 70
     1
102
RTVSPost2010Prop42
 90
       50
102
RTVSPost2010PropOp42
 70
     1
102
RTVSPost2010Prop43
 90
        3
102
RTVSPost2010PropOp43
 70
     1
102
RTVSPost2010Prop44ColorIndex
 90
        5
102
RTVSPost2010Prop44ColorRGB
 90
      255
102
RTVSPost2010PropOp44
 70
     1
102
RTVSPost2010Prop45
280
     0
102
RTVSPost2010PropOp45
 70
     1
102
RTVSPost2010Prop46
 90
       50
102
RTVSPost2010PropOp46
 70
     1
102
RTVSPost2010Prop47
 90
       50
102
RTVSPost2010PropOp47
 70
     1
102
RTVSPost2010Prop48
 90
       50
102
RTVSPost2010PropOp48
 70
     1
102
RTVSPost2010Prop49
280
     0
102
RTVSPost2010PropOp49
 70
     1
102
RTVSPost2010Prop50
 90
       50
102
RTVSPost2010PropOp50
 70
     1
102
RTVSPost2010Prop51ColorIndex
 90
      256
102
RTVSPost2010Prop51ColorRGB
 90
-16777216
102
RTVSPost2010PropOp51
 70
     0
102
RTVSPost2010Prop52
140
1.0
102
RTVSPost2010PropOp52
 70
     0
102
RTVSPost2010Prop53
 90
        2
102
RTVSPost2010PropOp53
 70
     1
102
RTVSPost2010Prop54
  1
strokes_ogs.tif
102
RTVSPost2010PropOp54
 70
     1
102
RTVSPost2010Prop55
280
     0
102
RTVSPost2010PropOp55
 70
     1
102
RTVSPost2010Prop56
140
1.0
102
RTVSPost2010PropOp56
 70
     1
102
RTVSPost2010Prop57
140
1.0
102
RTVSPost2010PropOp57
 70
     1
  0
XRECORD
  5
2E5
102
{ACAD_REACTORS
330
2E4
102
}
330
2E4
100
AcDbXrecord
280
     1
102
RTVSPropertyOp0
 70
     1
102
RTVSPropertyOp1
 70
     1
102
RTVSPropertyOp2
 70
     1
102
RTVSPropertyOp3
 70
     1
102
RTVSPropertyOp4
 70
     1
102
RTVSPropertyOp5
 70
     1
102
RTVSPropertyOp6
 70
     1
102
RTVSPropertyOp7
 70
     1
102
RTVSPropertyOp8
 70
     1
102
RTVSPropertyOp9
 70
     1
102
RTVSPropertyOp10
 70
     1
102
RTVSPropertyOp11
 70
     1
102
RTVSPropertyOp12
 70
     1
102
RTVSPropertyOp13
 70
     1
102
RTVSPropertyOp14
 70
     1
102
RTVSPropertyOp15
 70
     1
102
RTVSPropertyOp16
 70
     1
102
RTVSPropertyOp17
 70
     1
102
RTVSPropertyOp18
 70
     1
102
RTVSPropertyOp19
 70
     1
102
RTVSPropertyOp20
 70
     1
102
RTVSPropertyOp21
 70
     1
102
RTVSPropertyOp22
 70
     1
102
RTVSPropertyOp23
 70
     1
102
RTVSPropertyOp24
 70
     1
102
RTVSPropertyOp25
 70
     1
102
RTVSPropertyOp26
 70
     1
102
RTVSPropertyOp27
 70
     1
102
RTVSPropertyOp28
 70
     1
102
RTVSPropertyOp29
 70
     1
102
RTVSPropertyOp30
 70
     1
102
RTVSPropertyOp31
 70
     1
102
RTVSPropertyOp32
 70
     1
102
RTVSPropertyOp33
 70
     1
102
RTVSPropertyOp34
 70
     1
102
RTVSPropertyOp35
 70
     1
102
RTVSPropertyOp36
 70
     1
102
RTVSPropertyOp37
 70
     1
102
RTVSPropertyOp38
 70
     1
102
RTVSPropertyOp39
 70
     1
102
RTVSPropertyOp40
 70
     1
102
RTVSPropertyOp41
 70
     1
102
RTVSPropertyOp42
 70
     1
102
RTVSPropertyOp43
 70
     1
102
RTVSPropertyOp44
 70
     1
102
RTVSPropertyOp45
 70
     1
102
RTVSPropertyOp46
 70
     1
102
RTVSPropertyOp47
 70
     1
102
RTVSPropertyOp48
 70
     1
102
RTVSPropertyOp49
 70
     1
102
RTVSPropertyOp50
 70
     1
102
RTVSPropertyOp51
 70
     0
102
RTVSPropertyOp52
 70
     0
102
RTVSPropertyOp53
 70
     1
102
RTVSPropertyOp54
 70
     1
102
RTVSPropertyOp55
 70
     1
102
RTVSPropertyOp56
 70
     1
102
RTVSPropertyOp57
 70
     1
102
RTVSPost2010Prop28
280
     0
102
RTVSPost2010PropOp28
 70
     1
102
RTVSPost2010Prop29
280
     1
102
RTVSPost2010PropOp29
 70
     1
102
RTVSPost2010Prop30
280
     1
102
RTVSPost2010PropOp30
 70
     1
102
RTVSPost2010Prop31
280
     0
102
RTVSPost2010PropOp31
 70
     1
102
RTVSPost2010Prop32
280
     0
102
RTVSPost2010PropOp32
 70
     1
102
RTVSPost2010Prop33
280
     0
102
RTVSPost2010PropOp33
 70
     1
102
RTVSPost2010Prop34
280
     0
102
RTVSPost2010PropOp34
 70
     1
102
RTVSPost2010Prop35
280
     0
102
RTVSPost2010PropOp35
 70
     1
102
RTVSPost2010Prop36
280
     0
102
RTVSPost2010PropOp36
 70
     1
102
RTVSPost2010Prop37
 90
       50
102
RTVSPost2010PropOp37
 70
     1
102
RTVSPost2010Prop38
140
0.0
102
RTVSPost2010PropOp38
 70
     1
102
RTVSPost2010Prop39
140
1.0
102
RTVSPost2010PropOp39
 70
     1
102
RTVSPost2010Prop40
 90
        0
102
RTVSPost2010PropOp40
 70
     1
102
RTVSPost2010Prop41ColorIndex
 90
       18
102
RTVSPost2010Prop41ColorRGB
 90
        0
102
RTVSPost2010PropOp41
 70
     1
102
RTVSPost2010Prop42
 90
       50
102
RTVSPost2010PropOp42
 70
     1
102
RTVSPost2010Prop43
 90
        3
102
RTVSPost2010PropOp43
 70
     1
102
RTVSPost2010Prop44ColorIndex
 90
        5
102
RTVSPost2010Prop44ColorRGB
 90
      255
102
RTVSPost2010PropOp44
 70
     1
102
RTVSPost2010Prop45
280
     0
102
RTVSPost2010PropOp45
 70
     1
102
RTVSPost2010Prop46
 90
       50
102
RTVSPost2010PropOp46
 70
     1
102
RTVSPost2010Prop47
 90
       50
102
RTVSPost2010PropOp47
 70
     1
102
RTVSPost2010Prop48
 90
       50
102
RTVSPost2010PropOp48
 70
     1
102
RTVSPost2010Prop49
280
     0
102
RTVSPost2010PropOp49
 70
     1
102
RTVSPost2010Prop50
 90
       50
102
RTVSPost2010PropOp50
 70
     1
102
RTVSPost2010Prop51ColorIndex
 90
      256
102
RTVSPost2010Prop51ColorRGB
 90
-16777216
102
RTVSPost2010PropOp51
 70
     0
102
RTVSPost2010Prop52
140
1.0
102
RTVSPost2010PropOp52
 70
     0
102
RTVSPost2010Prop53
 90
        2
102
RTVSPost2010PropOp53
 70
     1
102
RTVSPost2010Prop54
  1
strokes_ogs.tif
102
RTVSPost2010PropOp54
 70
     1
102
RTVSPost2010Prop55
280
     0
102
RTVSPost2010PropOp55
 70
     1
102
RTVSPost2010Prop56
140
1.0
102
RTVSPost2010PropOp56
 70
     1
102
RTVSPost2010Prop57
140
1.0
102
RTVSPost2010PropOp57
 70
     1
  0
XRECORD
  5
2D5
102
{ACAD_REACTORS
330
2D4
102
}
330
2D4
100
AcDbXrecord
280
     1
102
RTVSPropertyOp0
 70
     1
102
RTVSPropertyOp1
 70
     1
102
RTVSPropertyOp2
 70
     1
102
RTVSPropertyOp3
 70
     1
102
RTVSPropertyOp4
 70
     1
102
RTVSPropertyOp5
 70
     1
102
RTVSPropertyOp6
 70
     1
102
RTVSPropertyOp7
 70
     1
102
RTVSPropertyOp8
 70
     1
102
RTVSPropertyOp9
 70
     1
102
RTVSPropertyOp10
 70
     1
102
RTVSPropertyOp11
 70
     1
102
RTVSPropertyOp12
 70
     1
102
RTVSPropertyOp13
 70
     1
102
RTVSPropertyOp14
 70
     1
102
RTVSPropertyOp15
 70
     1
102
RTVSPropertyOp16
 70
     1
102
RTVSPropertyOp17
 70
     1
102
RTVSPropertyOp18
 70
     1
102
RTVSPropertyOp19
 70
     1
102
RTVSPropertyOp20
 70
     1
102
RTVSPropertyOp21
 70
     1
102
RTVSPropertyOp22
 70
     1
102
RTVSPropertyOp23
 70
     1
102
RTVSPropertyOp24
 70
     1
102
RTVSPropertyOp25
 70
     1
102
RTVSPropertyOp26
 70
     1
102
RTVSPropertyOp27
 70
     1
102
RTVSPropertyOp28
 70
     1
102
RTVSPropertyOp29
 70
     1
102
RTVSPropertyOp30
 70
     1
102
RTVSPropertyOp31
 70
     1
102
RTVSPropertyOp32
 70
     1
102
RTVSPropertyOp33
 70
     1
102
RTVSPropertyOp34
 70
     1
102
RTVSPropertyOp35
 70
     1
102
RTVSPropertyOp36
 70
     1
102
RTVSPropertyOp37
 70
     1
102
RTVSPropertyOp38
 70
     1
102
RTVSPropertyOp39
 70
     1
102
RTVSPropertyOp40
 70
     1
102
RTVSPropertyOp41
 70
     1
102
RTVSPropertyOp42
 70
     1
102
RTVSPropertyOp43
 70
     1
102
RTVSPropertyOp44
 70
     1
102
RTVSPropertyOp45
 70
     1
102
RTVSPropertyOp46
 70
     1
102
RTVSPropertyOp47
 70
     1
102
RTVSPropertyOp48
 70
     1
102
RTVSPropertyOp49
 70
     1
102
RTVSPropertyOp50
 70
     1
102
RTVSPropertyOp51
 70
     0
102
RTVSPropertyOp52
 70
     0
102
RTVSPropertyOp53
 70
     1
102
RTVSPropertyOp54
 70
     1
102
RTVSPropertyOp55
 70
     1
102
RTVSPropertyOp56
 70
     1
102
RTVSPropertyOp57
 70
     1
102
RTVSPost2010Prop28
280
     0
102
RTVSPost2010PropOp28
 70
     1
102
RTVSPost2010Prop29
280
     1
102
RTVSPost2010PropOp29
 70
     1
102
RTVSPost2010Prop30
280
     1
102
RTVSPost2010PropOp30
 70
     1
102
RTVSPost2010Prop31
280
     0
102
RTVSPost2010PropOp31
 70
     1
102
RTVSPost2010Prop32
280
     0
102
RTVSPost2010PropOp32
 70
     1
102
RTVSPost2010Prop33
280
     0
102
RTVSPost2010PropOp33
 70
     1
102
RTVSPost2010Prop34
280
     0
102
RTVSPost2010PropOp34
 70
     1
102
RTVSPost2010Prop35
280
     0
102
RTVSPost2010PropOp35
 70
     1
102
RTVSPost2010Prop36
280
     0
102
RTVSPost2010PropOp36
 70
     1
102
RTVSPost2010Prop37
 90
       50
102
RTVSPost2010PropOp37
 70
     1
102
RTVSPost2010Prop38
140
0.0
102
RTVSPost2010PropOp38
 70
     1
102
RTVSPost2010Prop39
140
1.0
102
RTVSPost2010PropOp39
 70
     1
102
RTVSPost2010Prop40
 90
        0
102
RTVSPost2010PropOp40
 70
     1
102
RTVSPost2010Prop41ColorIndex
 90
       18
102
RTVSPost2010Prop41ColorRGB
 90
        0
102
RTVSPost2010PropOp41
 70
     1
102
RTVSPost2010Prop42
 90
       50
102
RTVSPost2010PropOp42
 70
     1
102
RTVSPost2010Prop43
 90
        3
102
RTVSPost2010PropOp43
 70
     1
102
RTVSPost2010Prop44ColorIndex
 90
        5
102
RTVSPost2010Prop44ColorRGB
 90
      255
102
RTVSPost2010PropOp44
 70
     1
102
RTVSPost2010Prop45
280
     0
102
RTVSPost2010PropOp45
 70
     1
102
RTVSPost2010Prop46
 90
       50
102
RTVSPost2010PropOp46
 70
     1
102
RTVSPost2010Prop47
 90
       50
102
RTVSPost2010PropOp47
 70
     1
102
RTVSPost2010Prop48
 90
       50
102
RTVSPost2010PropOp48
 70
     1
102
RTVSPost2010Prop49
280
     0
102
RTVSPost2010PropOp49
 70
     1
102
RTVSPost2010Prop50
 90
       50
102
RTVSPost2010PropOp50
 70
     1
102
RTVSPost2010Prop51ColorIndex
 90
      256
102
RTVSPost2010Prop51ColorRGB
 90
-16777216
102
RTVSPost2010PropOp51
 70
     0
102
RTVSPost2010Prop52
140
1.0
102
RTVSPost2010PropOp52
 70
     0
102
RTVSPost2010Prop53
 90
        2
102
RTVSPost2010PropOp53
 70
     1
102
RTVSPost2010Prop54
  1
strokes_ogs.tif
102
RTVSPost2010PropOp54
 70
     1
102
RTVSPost2010Prop55
280
     0
102
RTVSPost2010PropOp55
 70
     1
102
RTVSPost2010Prop56
140
1.0
102
RTVSPost2010PropOp56
 70
     1
102
RTVSPost2010Prop57
140
1.0
102
RTVSPost2010PropOp57
 70
     1
  0
XRECORD
  5
2C7
102
{ACAD_REACTORS
330
2C6
102
}
330
2C6
100
AcDbXrecord
280
     1
102
RTVSPropertyOp0
 70
     1
102
RTVSPropertyOp1
 70
     1
102
RTVSPropertyOp2
 70
     1
102
RTVSPropertyOp3
 70
     1
102
RTVSPropertyOp4
 70
     1
102
RTVSPropertyOp5
 70
     1
102
RTVSPropertyOp6
 70
     1
102
RTVSPropertyOp7
 70
     1
102
RTVSPropertyOp8
 70
     1
102
RTVSPropertyOp9
 70
     1
102
RTVSPropertyOp10
 70
     1
102
RTVSPropertyOp11
 70
     1
102
RTVSPropertyOp12
 70
     1
102
RTVSPropertyOp13
 70
     1
102
RTVSPropertyOp14
 70
     1
102
RTVSPropertyOp15
 70
     1
102
RTVSPropertyOp16
 70
     1
102
RTVSPropertyOp17
 70
     1
102
RTVSPropertyOp18
 70
     1
102
RTVSPropertyOp19
 70
     1
102
RTVSPropertyOp20
 70
     1
102
RTVSPropertyOp21
 70
     1
102
RTVSPropertyOp22
 70
     1
102
RTVSPropertyOp23
 70
     1
102
RTVSPropertyOp24
 70
     1
102
RTVSPropertyOp25
 70
     1
102
RTVSPropertyOp26
 70
     1
102
RTVSPropertyOp27
 70
     1
102
RTVSPropertyOp28
 70
     1
102
RTVSPropertyOp29
 70
     1
102
RTVSPropertyOp30
 70
     1
102
RTVSPropertyOp31
 70
     1
102
RTVSPropertyOp32
 70
     1
102
RTVSPropertyOp33
 70
     1
102
RTVSPropertyOp34
 70
     1
102
RTVSPropertyOp35
 70
     1
102
RTVSPropertyOp36
 70
     1
102
RTVSPropertyOp37
 70
     1
102
RTVSPropertyOp38
 70
     1
102
RTVSPropertyOp39
 70
     1
102
RTVSPropertyOp40
 70
     1
102
RTVSPropertyOp41
 70
     1
102
RTVSPropertyOp42
 70
     1
102
RTVSPropertyOp43
 70
     1
102
RTVSPropertyOp44
 70
     1
102
RTVSPropertyOp45
 70
     1
102
RTVSPropertyOp46
 70
     1
102
RTVSPropertyOp47
 70
     1
102
RTVSPropertyOp48
 70
     1
102
RTVSPropertyOp49
 70
     1
102
RTVSPropertyOp50
 70
     1
102
RTVSPropertyOp51
 70
     0
102
RTVSPropertyOp52
 70
     0
102
RTVSPropertyOp53
 70
     1
102
RTVSPropertyOp54
 70
     1
102
RTVSPropertyOp55
 70
     1
102
RTVSPropertyOp56
 70
     1
102
RTVSPropertyOp57
 70
     1
102
RTVSPost2010Prop28
280
     0
102
RTVSPost2010PropOp28
 70
     1
102
RTVSPost2010Prop29
280
     1
102
RTVSPost2010PropOp29
 70
     1
102
RTVSPost2010Prop30
280
     1
102
RTVSPost2010PropOp30
 70
     1
102
RTVSPost2010Prop31
280
     0
102
RTVSPost2010PropOp31
 70
     1
102
RTVSPost2010Prop32
280
     0
102
RTVSPost2010PropOp32
 70
     1
102
RTVSPost2010Prop33
280
     0
102
RTVSPost2010PropOp33
 70
     1
102
RTVSPost2010Prop34
280
     0
102
RTVSPost2010PropOp34
 70
     1
102
RTVSPost2010Prop35
280
     0
102
RTVSPost2010PropOp35
 70
     1
102
RTVSPost2010Prop36
280
     0
102
RTVSPost2010PropOp36
 70
     1
102
RTVSPost2010Prop37
 90
       50
102
RTVSPost2010PropOp37
 70
     1
102
RTVSPost2010Prop38
140
0.0
102
RTVSPost2010PropOp38
 70
     1
102
RTVSPost2010Prop39
140
1.0
102
RTVSPost2010PropOp39
 70
     1
102
RTVSPost2010Prop40
 90
        0
102
RTVSPost2010PropOp40
 70
     1
102
RTVSPost2010Prop41ColorIndex
 90
       18
102
RTVSPost2010Prop41ColorRGB
 90
        0
102
RTVSPost2010PropOp41
 70
     1
102
RTVSPost2010Prop42
 90
       50
102
RTVSPost2010PropOp42
 70
     1
102
RTVSPost2010Prop43
 90
        3
102
RTVSPost2010PropOp43
 70
     1
102
RTVSPost2010Prop44ColorIndex
 90
        5
102
RTVSPost2010Prop44ColorRGB
 90
      255
102
RTVSPost2010PropOp44
 70
     1
102
RTVSPost2010Prop45
280
     0
102
RTVSPost2010PropOp45
 70
     1
102
RTVSPost2010Prop46
 90
       50
102
RTVSPost2010PropOp46
 70
     1
102
RTVSPost2010Prop47
 90
       50
102
RTVSPost2010PropOp47
 70
     1
102
RTVSPost2010Prop48
 90
       50
102
RTVSPost2010PropOp48
 70
     1
102
RTVSPost2010Prop49
280
     0
102
RTVSPost2010PropOp49
 70
     1
102
RTVSPost2010Prop50
 90
       50
102
RTVSPost2010PropOp50
 70
     1
102
RTVSPost2010Prop51ColorIndex
 90
      256
102
RTVSPost2010Prop51ColorRGB
 90
-16777216
102
RTVSPost2010PropOp51
 70
     0
102
RTVSPost2010Prop52
140
1.0
102
RTVSPost2010PropOp52
 70
     0
102
RTVSPost2010Prop53
 90
        2
102
RTVSPost2010PropOp53
 70
     1
102
RTVSPost2010Prop54
  1
strokes_ogs.tif
102
RTVSPost2010PropOp54
 70
     1
102
RTVSPost2010Prop55
280
     0
102
RTVSPost2010PropOp55
 70
     1
102
RTVSPost2010Prop56
140
1.0
102
RTVSPost2010PropOp56
 70
     1
102
RTVSPost2010Prop57
140
1.0
102
RTVSPost2010PropOp57
 70
     1
  0
XRECORD
  5
2E7
102
{ACAD_REACTORS
330
2E6
102
}
330
2E6
100
AcDbXrecord
280
     1
102
RTVSPropertyOp0
 70
     1
102
RTVSPropertyOp1
 70
     1
102
RTVSPropertyOp2
 70
     1
102
RTVSPropertyOp3
 70
     1
102
RTVSPropertyOp4
 70
     1
102
RTVSPropertyOp5
 70
     1
102
RTVSPropertyOp6
 70
     1
102
RTVSPropertyOp7
 70
     1
102
RTVSPropertyOp8
 70
     1
102
RTVSPropertyOp9
 70
     1
102
RTVSPropertyOp10
 70
     1
102
RTVSPropertyOp11
 70
     1
102
RTVSPropertyOp12
 70
     1
102
RTVSPropertyOp13
 70
     1
102
RTVSPropertyOp14
 70
     1
102
RTVSPropertyOp15
 70
     1
102
RTVSPropertyOp16
 70
     1
102
RTVSPropertyOp17
 70
     1
102
RTVSPropertyOp18
 70
     1
102
RTVSPropertyOp19
 70
     1
102
RTVSPropertyOp20
 70
     1
102
RTVSPropertyOp21
 70
     1
102
RTVSPropertyOp22
 70
     1
102
RTVSPropertyOp23
 70
     1
102
RTVSPropertyOp24
 70
     1
102
RTVSPropertyOp25
 70
     1
102
RTVSPropertyOp26
 70
     1
102
RTVSPropertyOp27
 70
     1
102
RTVSPropertyOp28
 70
     1
102
RTVSPropertyOp29
 70
     1
102
RTVSPropertyOp30
 70
     1
102
RTVSPropertyOp31
 70
     1
102
RTVSPropertyOp32
 70
     1
102
RTVSPropertyOp33
 70
     1
102
RTVSPropertyOp34
 70
     1
102
RTVSPropertyOp35
 70
     1
102
RTVSPropertyOp36
 70
     1
102
RTVSPropertyOp37
 70
     1
102
RTVSPropertyOp38
 70
     1
102
RTVSPropertyOp39
 70
     1
102
RTVSPropertyOp40
 70
     1
102
RTVSPropertyOp41
 70
     1
102
RTVSPropertyOp42
 70
     1
102
RTVSPropertyOp43
 70
     1
102
RTVSPropertyOp44
 70
     1
102
RTVSPropertyOp45
 70
     1
102
RTVSPropertyOp46
 70
     1
102
RTVSPropertyOp47
 70
     1
102
RTVSPropertyOp48
 70
     1
102
RTVSPropertyOp49
 70
     1
102
RTVSPropertyOp50
 70
     1
102
RTVSPropertyOp51
 70
     0
102
RTVSPropertyOp52
 70
     0
102
RTVSPropertyOp53
 70
     1
102
RTVSPropertyOp54
 70
     1
102
RTVSPropertyOp55
 70
     1
102
RTVSPropertyOp56
 70
     1
102
RTVSPropertyOp57
 70
     1
102
RTVSPost2010Prop28
280
     0
102
RTVSPost2010PropOp28
 70
     1
102
RTVSPost2010Prop29
280
     1
102
RTVSPost2010PropOp29
 70
     1
102
RTVSPost2010Prop30
280
     1
102
RTVSPost2010PropOp30
 70
     1
102
RTVSPost2010Prop31
280
     0
102
RTVSPost2010PropOp31
 70
     1
102
RTVSPost2010Prop32
280
     0
102
RTVSPost2010PropOp32
 70
     1
102
RTVSPost2010Prop33
280
     0
102
RTVSPost2010PropOp33
 70
     1
102
RTVSPost2010Prop34
280
     0
102
RTVSPost2010PropOp34
 70
     1
102
RTVSPost2010Prop35
280
     0
102
RTVSPost2010PropOp35
 70
     1
102
RTVSPost2010Prop36
280
     0
102
RTVSPost2010PropOp36
 70
     1
102
RTVSPost2010Prop37
 90
       50
102
RTVSPost2010PropOp37
 70
     1
102
RTVSPost2010Prop38
140
0.0
102
RTVSPost2010PropOp38
 70
     1
102
RTVSPost2010Prop39
140
1.0
102
RTVSPost2010PropOp39
 70
     1
102
RTVSPost2010Prop40
 90
        0
102
RTVSPost2010PropOp40
 70
     1
102
RTVSPost2010Prop41ColorIndex
 90
       18
102
RTVSPost2010Prop41ColorRGB
 90
        0
102
RTVSPost2010PropOp41
 70
     1
102
RTVSPost2010Prop42
 90
       50
102
RTVSPost2010PropOp42
 70
     1
102
RTVSPost2010Prop43
 90
        3
102
RTVSPost2010PropOp43
 70
     1
102
RTVSPost2010Prop44ColorIndex
 90
        5
102
RTVSPost2010Prop44ColorRGB
 90
      255
102
RTVSPost2010PropOp44
 70
     1
102
RTVSPost2010Prop45
280
     0
102
RTVSPost2010PropOp45
 70
     1
102
RTVSPost2010Prop46
 90
       50
102
RTVSPost2010PropOp46
 70
     1
102
RTVSPost2010Prop47
 90
       50
102
RTVSPost2010PropOp47
 70
     1
102
RTVSPost2010Prop48
 90
       50
102
RTVSPost2010PropOp48
 70
     1
102
RTVSPost2010Prop49
280
     0
102
RTVSPost2010PropOp49
 70
     1
102
RTVSPost2010Prop50
 90
       50
102
RTVSPost2010PropOp50
 70
     1
102
RTVSPost2010Prop51ColorIndex
 90
      256
102
RTVSPost2010Prop51ColorRGB
 90
-16777216
102
RTVSPost2010PropOp51
 70
     0
102
RTVSPost2010Prop52
140
1.0
102
RTVSPost2010PropOp52
 70
     0
102
RTVSPost2010Prop53
 90
        2
102
RTVSPost2010PropOp53
 70
     1
102
RTVSPost2010Prop54
  1
strokes_ogs.tif
102
RTVSPost2010PropOp54
 70
     1
102
RTVSPost2010Prop55
280
     0
102
RTVSPost2010PropOp55
 70
     1
102
RTVSPost2010Prop56
140
1.0
102
RTVSPost2010PropOp56
 70
     1
102
RTVSPost2010Prop57
140
1.0
102
RTVSPost2010PropOp57
 70
     1
  0
ENDSEC
  0
EOF
