  0
SECTION
  2
HEADER
  9
$ACADVER
  1
AC1014
  9
$ACADMAINTVER
 70
     9
  9
$DWGCODEPAGE
  3
ANSI_1252
  9
$INSBASE
 10
0.0
 20
0.0
 30
0.0
  9
$EXTMIN
 10
1.000000000000000E+20
 20
1.000000000000000E+20
 30
1.000000000000000E+20
  9
$EXTMAX
 10
-1.000000000000000E+20
 20
-1.000000000000000E+20
 30
-1.000000000000000E+20
  9
$LIMMIN
 10
0.0
 20
0.0
  9
$LIMMAX
 10
12.0
 20
9.0
  9
$ORTHOMODE
 70
     0
  9
$REGENMODE
 70
     1
  9
$FILLMODE
 70
     1
  9
$QTEXTMODE
 70
     0
  9
$MIRRTEXT
 70
     1
  9
$DRAGMODE
 70
     2
  9
$LTSCALE
 40
1.0
  9
$OSMODE
 70
    37
  9
$ATTMODE
 70
     1
  9
$TEXTSIZE
 40
0.2
  9
$TRACEWID
 40
0.05
  9
$TEXTSTYLE
  7
STANDARD
  9
$CLAYER
  8
MAKE2D$VISIBLE$CURVES
  9
$CELTYPE
  6
BYLAYER
  9
$CECOLOR
 62
   256
  9
$CELTSCALE
 40
1.0
  9
$DELOBJ
 70
     1
  9
$DISPSILH
 70
     0
  9
$DIMSCALE
 40
1.0
  9
$DIMASZ
 40
0.18
  9
$DIMEXO
 40
0.0625
  9
$DIMDLI
 40
0.38
  9
$DIMRND
 40
0.0
  9
$DIMDLE
 40
0.0
  9
$DIMEXE
 40
0.18
  9
$DIMTP
 40
0.0
  9
$DIMTM
 40
0.0
  9
$DIMTXT
 40
0.18
  9
$DIMCEN
 40
0.09
  9
$DIMTSZ
 40
0.0
  9
$DIMTOL
 70
     0
  9
$DIMLIM
 70
     0
  9
$DIMTIH
 70
     1
  9
$DIMTOH
 70
     1
  9
$DIMSE1
 70
     0
  9
$DIMSE2
 70
     0
  9
$DIMTAD
 70
     0
  9
$DIMZIN
 70
     0
  9
$DIMBLK
  1

  9
$DIMASO
 70
     1
  9
$DIMSHO
 70
     1
  9
$DIMPOST
  1

  9
$DIMAPOST
  1

  9
$DIMALT
 70
     0
  9
$DIMALTD
 70
     2
  9
$DIMALTF
 40
25.4
  9
$DIMLFAC
 40
1.0
  9
$DIMTOFL
 70
     0
  9
$DIMTVP
 40
0.0
  9
$DIMTIX
 70
     0
  9
$DIMSOXD
 70
     0
  9
$DIMSAH
 70
     0
  9
$DIMBLK1
  1

  9
$DIMBLK2
  1

  9
$DIMSTYLE
  2
STANDARD_ACAD
  9
$DIMCLRD
 70
     0
  9
$DIMCLRE
 70
     0
  9
$DIMCLRT
 70
     0
  9
$DIMTFAC
 40
1.0
  9
$DIMGAP
 40
0.09
  9
$DIMJUST
 70
     0
  9
$DIMSD1
 70
     0
  9
$DIMSD2
 70
     0
  9
$DIMTOLJ
 70
     1
  9
$DIMTZIN
 70
     0
  9
$DIMALTZ
 70
     0
  9
$DIMALTTZ
 70
     0
  9
$DIMFIT
 70
     5
  9
$DIMUPT
 70
     0
  9
$DIMUNIT
 70
     2
  9
$DIMDEC
 70
     4
  9
$DIMTDEC
 70
     4
  9
$DIMALTU
 70
     2
  9
$DIMALTTD
 70
     2
  9
$DIMTXSTY
  7
STANDARD
  9
$DIMAUNIT
 70
     0
  9
$LUNITS
 70
     2
  9
$LUPREC
 70
     3
  9
$SKETCHINC
 40
0.1
  9
$FILLETRAD
 40
0.5
  9
$AUNITS
 70
     0
  9
$AUPREC
 70
     0
  9
$MENU
  1
.
  9
$ELEVATION
 40
0.0
  9
$PELEVATION
 40
0.0
  9
$THICKNESS
 40
0.0
  9
$LIMCHECK
 70
     0
  9
$CHAMFERA
 40
0.0
  9
$CHAMFERB
 40
0.0
  9
$CHAMFERC
 40
0.0
  9
$CHAMFERD
 40
0.0
  9
$SKPOLY
 70
     0
  9
$TDCREATE
 40
2459516.578517616
  9
$TDUPDATE
 40
2459516.578535127
  9
$TDINDWG
 40
0.0000000116
  9
$TDUSRTIMER
 40
0.0000000116
  9
$USRTIMER
 70
     1
  9
$ANGBASE
 50
0.0
  9
$ANGDIR
 70
     0
  9
$PDMODE
 70
     0
  9
$PDSIZE
 40
0.0
  9
$PLINEWID
 40
0.0
  9
$COORDS
 70
     1
  9
$SPLFRAME
 70
     0
  9
$SPLINETYPE
 70
     6
  9
$SPLINESEGS
 70
     8
  9
$ATTDIA
 70
     0
  9
$ATTREQ
 70
     1
  9
$HANDLING
 70
     1
  9
$HANDSEED
  5
1F1
  9
$SURFTAB1
 70
     6
  9
$SURFTAB2
 70
     6
  9
$SURFTYPE
 70
     6
  9
$SURFU
 70
     6
  9
$SURFV
 70
     6
  9
$UCSNAME
  2

  9
$UCSORG
 10
0.0
 20
0.0
 30
0.0
  9
$UCSXDIR
 10
1.0
 20
0.0
 30
0.0
  9
$UCSYDIR
 10
0.0
 20
1.0
 30
0.0
  9
$PUCSNAME
  2

  9
$PUCSORG
 10
0.0
 20
0.0
 30
0.0
  9
$PUCSXDIR
 10
1.0
 20
0.0
 30
0.0
  9
$PUCSYDIR
 10
0.0
 20
1.0
 30
0.0
  9
$USERI1
 70
     0
  9
$USERI2
 70
     0
  9
$USERI3
 70
     0
  9
$USERI4
 70
     0
  9
$USERI5
 70
     0
  9
$USERR1
 40
0.0
  9
$USERR2
 40
0.0
  9
$USERR3
 40
0.0
  9
$USERR4
 40
0.0
  9
$USERR5
 40
0.0
  9
$WORLDVIEW
 70
     1
  9
$SHADEDGE
 70
     3
  9
$SHADEDIF
 70
    70
  9
$TILEMODE
 70
     1
  9
$MAXACTVP
 70
    64
  9
$PINSBASE
 10
0.0
 20
0.0
 30
0.0
  9
$PLIMCHECK
 70
     0
  9
$PEXTMIN
 10
1.000000000000000E+20
 20
1.000000000000000E+20
 30
1.000000000000000E+20
  9
$PEXTMAX
 10
-1.000000000000000E+20
 20
-1.000000000000000E+20
 30
-1.000000000000000E+20
  9
$PLIMMIN
 10
0.0
 20
0.0
  9
$PLIMMAX
 10
12.0
 20
9.0
  9
$UNITMODE
 70
     0
  9
$VISRETAIN
 70
     1
  9
$PLINEGEN
 70
     0
  9
$PSLTSCALE
 70
     1
  9
$TREEDEPTH
 70
  3020
  9
$PICKSTYLE
 70
     1
  9
$CMLSTYLE
  2
STANDARD
  9
$CMLJUST
 70
     0
  9
$CMLSCALE
 40
1.0
  9
$PROXYGRAPHICS
 70
     1
  9
$MEASUREMENT
 70
     1
  0
ENDSEC
  0
SECTION
  2
CLASSES
  0
CLASS
  1
ACDBDICTIONARYWDFLT
  2
AcDbDictionaryWithDefault
  3
ObjectDBX Classes
 90
        0
280
     0
281
     0
  0
CLASS
  1
VISUALSTYLE
  2
AcDbVisualStyle
  3
ObjectDBX Classes
 90
     4095
280
     0
281
     0
  0
CLASS
  1
MATERIAL
  2
AcDbMaterial
  3
ObjectDBX Classes
 90
     1153
280
     0
281
     0
  0
CLASS
  1
SCALE
  2
AcDbScale
  3
ObjectDBX Classes
 90
     1153
280
     0
281
     0
  0
CLASS
  1
TABLESTYLE
  2
AcDbTableStyle
  3
ObjectDBX Classes
 90
     4095
280
     0
281
     0
  0
CLASS
  1
MLEADERSTYLE
  2
AcDbMLeaderStyle
  3
ACDB_MLEADERSTYLE_CLASS
 90
     4095
280
     0
281
     0
  0
CLASS
  1
SUN
  2
AcDbSun
  3
SCENEOE
 90
     1153
280
     0
281
     0
  0
CLASS
  1
DICTIONARYVAR
  2
AcDbDictionaryVar
  3
ObjectDBX Classes
 90
        0
280
     0
281
     0
  0
CLASS
  1
XRECORD
  2
AcDbXrecord
  3
ObjectDBX Classes
 90
        0
280
     0
281
     0
  0
CLASS
  1
LWPOLYLINE
  2
AcDbPolyline
  3
ObjectDBX Classes
 90
        0
280
     0
281
     1
  0
CLASS
  1
HATCH
  2
AcDbHatch
  3
ObjectDBX Classes
 90
        0
280
     0
281
     1
  0
CLASS
  1
ACDBPLACEHOLDER
  2
AcDbPlaceHolder
  3
ObjectDBX Classes
 90
        0
280
     0
281
     0
  0
CLASS
  1
LAYOUT
  2
AcDbLayout
  3
ObjectDBX Classes
 90
        0
280
     0
281
     0
  0
ENDSEC
  0
SECTION
  2
TABLES
  0
TABLE
  2
VPORT
  5
8
102
{ACAD_XDICTIONARY
360
1E6
102
}
330
0
100
AcDbSymbolTable
 70
     1
  0
VPORT
  5
29
330
8
100
AcDbSymbolTableRecord
100
AcDbViewportTableRecord
  2
*ACTIVE
 70
     0
 10
0.0
 20
0.0
 11
1.0
 21
1.0
 12
10.42990654205607
 22
4.5
 13
0.0
 23
0.0
 14
0.5
 24
0.5
 15
0.5
 25
0.5
 16
0.0
 26
0.0
 36
1.0
 17
0.0
 27
0.0
 37
0.0
 40
9.0
 41
1.972972972850329
 42
50.0
 43
0.0
 44
0.0
 50
0.0
 51
0.0
 71
     0
 72
   100
 73
     1
 74
     3
 75
     0
 76
     0
 77
     0
 78
     0
  0
ENDTAB
  0
TABLE
  2
LTYPE
  5
5
330
0
100
AcDbSymbolTable
 70
     1
  0
LTYPE
  5
14
330
5
100
AcDbSymbolTableRecord
100
AcDbLinetypeTableRecord
  2
BYBLOCK
 70
     0
  3

 72
    65
 73
     0
 40
0.0
  0
LTYPE
  5
15
330
5
100
AcDbSymbolTableRecord
100
AcDbLinetypeTableRecord
  2
BYLAYER
 70
     0
  3

 72
    65
 73
     0
 40
0.0
  0
LTYPE
  5
16
330
5
100
AcDbSymbolTableRecord
100
AcDbLinetypeTableRecord
  2
CONTINUOUS
 70
     0
  3
Solid line
 72
    65
 73
     0
 40
0.0
  0
ENDTAB
  0
TABLE
  2
LAYER
  5
2
330
0
100
AcDbSymbolTable
 70
     4
  0
LAYER
  5
10
330
2
100
AcDbSymbolTableRecord
100
AcDbLayerTableRecord
  2
0
 70
     0
 62
     7
  6
CONTINUOUS
  0
LAYER
  5
6E
330
2
100
AcDbSymbolTableRecord
100
AcDbLayerTableRecord
  2
DEFAULT
 70
     0
 62
    18
  6
CONTINUOUS
  0
LAYER
  5
70
330
2
100
AcDbSymbolTableRecord
100
AcDbLayerTableRecord
  2
MAKE2D$VISIBLE$CURVES
 70
     0
 62
    18
  6
CONTINUOUS
  0
LAYER
  5
1B8
330
2
100
AcDbSymbolTableRecord
100
AcDbLayerTableRecord
  2
DEFPOINTS
 70
     0
 62
    18
  6
CONTINUOUS
  0
ENDTAB
  0
TABLE
  2
STYLE
  5
3
330
0
100
AcDbSymbolTable
 70
     2
  0
STYLE
  5
11
330
3
100
AcDbSymbolTableRecord
100
AcDbTextStyleTableRecord
  2
STANDARD
 70
     0
 40
0.0
 41
1.0
 50
0.0
 71
     0
 42
0.2
  3
txt
  4

  0
STYLE
  5
1B6
330
3
100
AcDbSymbolTableRecord
100
AcDbTextStyleTableRecord
  2
ARIAL_REGULAR
 70
     0
 40
0.0
 41
1.0
 50
0.0
 71
     0
 42
0.2
  3

  4

1001
ACAD
1000
Arial
1071
      256
  0
ENDTAB
  0
TABLE
  2
VIEW
  5
6
330
0
100
AcDbSymbolTable
 70
     0
  0
ENDTAB
  0
TABLE
  2
UCS
  5
7
330
0
100
AcDbSymbolTable
 70
     0
  0
ENDTAB
  0
TABLE
  2
APPID
  5
9
330
0
100
AcDbSymbolTable
 70
     2
  0
APPID
  5
12
330
9
100
AcDbSymbolTableRecord
100
AcDbRegAppTableRecord
  2
ACAD
 70
     0
  0
APPID
  5
1F0
330
9
100
AcDbSymbolTableRecord
100
AcDbRegAppTableRecord
  2
ACAD_MLEADERVER
 70
     0
  0
ENDTAB
  0
TABLE
  2
DIMSTYLE
  5
A
330
0
100
AcDbSymbolTable
 70
     1
  0
DIMSTYLE
105
27
330
A
100
AcDbSymbolTableRecord
100
AcDbDimStyleTableRecord
  2
STANDARD_ACAD
 70
     0
  3

  4

  5

  6

  7

 40
1.0
 41
0.18
 42
0.0625
 43
0.38
 44
0.18
 45
0.0
 46
0.0
 47
0.0
 48
0.0
140
0.18
141
0.09
142
0.0
143
25.4
144
1.0
145
0.0
146
1.0
147
0.09
 71
     0
 72
     0
 73
     1
 74
     1
 75
     0
 76
     0
 77
     0
 78
     0
170
     0
171
     2
172
     0
173
     0
174
     0
175
     0
176
     0
177
     0
178
     0
270
     2
271
     4
272
     4
273
     2
274
     2
340
11
275
     0
280
     0
281
     0
282
     0
283
     1
284
     0
285
     0
286
     0
287
     3
288
     0
  0
ENDTAB
  0
TABLE
  2
BLOCK_RECORD
  5
1
330
0
100
AcDbSymbolTable
 70
     1
  0
BLOCK_RECORD
  5
1F
330
1
100
AcDbSymbolTableRecord
100
AcDbBlockTableRecord
  2
*MODEL_SPACE
  0
BLOCK_RECORD
  5
1B
330
1
100
AcDbSymbolTableRecord
100
AcDbBlockTableRecord
  2
*PAPER_SPACE
  0
BLOCK_RECORD
  5
1A7
330
1
100
AcDbSymbolTableRecord
100
AcDbBlockTableRecord
  2
_D1
  0
ENDTAB
  0
ENDSEC
  0
SECTION
  2
BLOCKS
  0
BLOCK
  5
20
330
1F
100
AcDbEntity
  8
0
100
AcDbBlockBegin
  2
*MODEL_SPACE
 70
     0
 10
0.0
 20
0.0
 30
0.0
  3
*MODEL_SPACE
  1

  0
ENDBLK
  5
21
330
1F
100
AcDbEntity
  8
0
100
AcDbBlockEnd
  0
BLOCK
  5
1C
330
1B
100
AcDbEntity
 67
     1
  8
0
100
AcDbBlockBegin
  2
*PAPER_SPACE
 70
     0
 10
0.0
 20
0.0
 30
0.0
  3
*PAPER_SPACE
  1

  0
ENDBLK
  5
1D
330
1B
100
AcDbEntity
 67
     1
  8
0
100
AcDbBlockEnd
  0
BLOCK
  5
1BC
330
1A7
100
AcDbEntity
  8
0
100
AcDbBlockBegin
  2
_D1
 70
     0
 10
0.0
 20
0.0
 30
0.0
  3
_D1
  1

  0
LINE
  5
1A8
330
1A7
100
AcDbEntity
  8
DEFAULT
 62
     0
100
AcDbLine
 10
1598.06383031834
 20
2271.122291405094
 30
0.0
 11
1598.06383031834
 21
2276.122291405094
 31
0.0
  0
LINE
  5
1A9
330
1A7
100
AcDbEntity
  8
DEFAULT
 62
     0
100
AcDbLine
 10
1600.822890808451
 20
2271.122291405094
 30
0.0
 11
1600.822890808451
 21
2276.122291405094
 31
0.0
  0
LINE
  5
1AA
330
1A7
100
AcDbEntity
  8
DEFAULT
 62
     0
100
AcDbLine
 10
1600.822890808451
 20
2275.622291405094
 30
0.0
 11
1604.934890808451
 21
2275.622291405094
 31
0.0
  0
LINE
  5
1AB
330
1A7
100
AcDbEntity
  8
DEFAULT
 62
     0
100
AcDbLine
 10
1599.06383031834
 20
2275.622291405094
 30
0.0
 11
1599.822890808451
 21
2275.622291405094
 31
0.0
  0
LINE
  5
1AC
330
1A7
100
AcDbEntity
  8
DEFAULT
 62
     0
100
AcDbLine
 10
1599.06383031834
 20
2275.78895807176
 30
0.0
 11
1598.06383031834
 21
2275.622291405094
 31
0.0
  0
LINE
  5
1AD
330
1A7
100
AcDbEntity
  8
DEFAULT
 62
     0
100
AcDbLine
 10
1598.06383031834
 20
2275.622291405094
 30
0.0
 11
1599.06383031834
 21
2275.455624738427
 31
0.0
  0
LINE
  5
1AE
330
1A7
100
AcDbEntity
  8
DEFAULT
 62
     0
100
AcDbLine
 10
1599.06383031834
 20
2275.455624738427
 30
0.0
 11
1599.06383031834
 21
2275.78895807176
 31
0.0
  0
LINE
  5
1AF
330
1A7
100
AcDbEntity
  8
DEFAULT
 62
     0
100
AcDbLine
 10
1598.56383031834
 20
2275.705624738427
 30
0.0
 11
1598.56383031834
 21
2275.538958071761
 31
0.0
  0
LINE
  5
1B0
330
1A7
100
AcDbEntity
  8
DEFAULT
 62
     0
100
AcDbLine
 10
1598.063830318343
 20
2275.622291405094
 30
0.0
 11
1599.06383031834
 21
2275.622291405094
 31
0.0
  0
LINE
  5
1B1
330
1A7
100
AcDbEntity
  8
DEFAULT
 62
     0
100
AcDbLine
 10
1599.822890808451
 20
2275.455624738427
 30
0.0
 11
1600.822890808451
 21
2275.622291405094
 31
0.0
  0
LINE
  5
1B2
330
1A7
100
AcDbEntity
  8
DEFAULT
 62
     0
100
AcDbLine
 10
1600.822890808451
 20
2275.622291405094
 30
0.0
 11
1599.822890808451
 21
2275.78895807176
 31
0.0
  0
LINE
  5
1B3
330
1A7
100
AcDbEntity
  8
DEFAULT
 62
     0
100
AcDbLine
 10
1599.822890808451
 20
2275.78895807176
 30
0.0
 11
1599.822890808451
 21
2275.455624738427
 31
0.0
  0
LINE
  5
1B4
330
1A7
100
AcDbEntity
  8
DEFAULT
 62
     0
100
AcDbLine
 10
1600.322890808451
 20
2275.538958071761
 30
0.0
 11
1600.322890808451
 21
2275.705624738427
 31
0.0
  0
LINE
  5
1B5
330
1A7
100
AcDbEntity
  8
DEFAULT
 62
     0
100
AcDbLine
 10
1600.822890808448
 20
2275.622291405094
 30
0.0
 11
1599.822890808451
 21
2275.622291405094
 31
0.0
  0
MTEXT
  5
1B7
330
1A7
100
AcDbEntity
  8
DEFAULT
 62
     0
100
AcDbMText
 10
1603.378890808451
 20
2276.382791405093
 30
0.0
 40
1.0
 41
7.206521739130435
 71
     5
 72
     1
  1
2.76
  7
ARIAL_REGULAR
1001
ACAD
1000
ACAD_MTEXT_DEFINED_HEIGHT_BEGIN
1070
    46
1040
1.621739130434783
1000
ACAD_MTEXT_DEFINED_HEIGHT_END
  0
POINT
  5
1B9
330
1A7
100
AcDbEntity
  8
DEFPOINTS
 62
     0
100
AcDbPoint
 10
1598.06383031834
 20
2270.622291405094
 30
0.0
  0
POINT
  5
1BA
330
1A7
100
AcDbEntity
  8
DEFPOINTS
 62
     0
100
AcDbPoint
 10
1600.822890808451
 20
2270.622291405094
 30
0.0
  0
POINT
  5
1BB
330
1A7
100
AcDbEntity
  8
DEFPOINTS
 62
     0
100
AcDbPoint
 10
1600.822890808451
 20
2275.622291405094
 30
0.0
  0
ENDBLK
  5
1BD
330
1A7
100
AcDbEntity
  8
0
100
AcDbBlockEnd
  0
ENDSEC
  0
SECTION
  2
ENTITIES
  0
LINE
  5
6F
330
1F
100
AcDbEntity
  8
DEFAULT
 62
     4
100
AcDbLine
 10
210.95085250122
 20
2253.478334329488
 30
0.0
 11
3452.88702218288
 21
2253.478334329488
 31
0.0
  0
POLYLINE
  5
71
330
1F
100
AcDbEntity
  8
MAKE2D$VISIBLE$CURVES
 62
     1
100
AcDb2dPolyline
 66
     1
 10
0.0
 20
0.0
 30
0.0
 70
     1
  0
VERTEX
  5
72
330
71
100
AcDbEntity
  8
MAKE2D$VISIBLE$CURVES
 62
     1
100
AcDbVertex
100
AcDb2dVertex
 10
895.0
 20
3501.0
 30
0.0
  0
VERTEX
  5
73
330
71
100
AcDbEntity
  8
MAKE2D$VISIBLE$CURVES
 62
     1
100
AcDbVertex
100
AcDb2dVertex
 10
1545.0
 20
3501.0
 30
0.0
  0
VERTEX
  5
74
330
71
100
AcDbEntity
  8
MAKE2D$VISIBLE$CURVES
 62
     1
100
AcDbVertex
100
AcDb2dVertex
 10
1545.0
 20
4061.0
 30
0.0
  0
VERTEX
  5
75
330
71
100
AcDbEntity
  8
MAKE2D$VISIBLE$CURVES
 62
     1
100
AcDbVertex
100
AcDb2dVertex
 10
895.0
 20
4061.0
 30
0.0
  0
SEQEND
  5
76
330
71
100
AcDbEntity
  8
MAKE2D$VISIBLE$CURVES
 62
     1
  0
POLYLINE
  5
77
330
1F
100
AcDbEntity
  8
MAKE2D$VISIBLE$CURVES
 62
     1
100
AcDb2dPolyline
 66
     1
 10
0.0
 20
0.0
 30
0.0
 70
     1
  0
VERTEX
  5
78
330
77
100
AcDbEntity
  8
MAKE2D$VISIBLE$CURVES
 62
     1
100
AcDbVertex
100
AcDb2dVertex
 10
2487.98
 20
2253.56
 30
0.0
  0
VERTEX
  5
79
330
77
100
AcDbEntity
  8
MAKE2D$VISIBLE$CURVES
 62
     1
100
AcDbVertex
100
AcDb2dVertex
 10
3047.98
 20
2253.56
 30
0.0
  0
VERTEX
  5
7A
330
77
100
AcDbEntity
  8
MAKE2D$VISIBLE$CURVES
 62
     1
100
AcDbVertex
100
AcDb2dVertex
 10
3047.98
 20
2703.56
 30
0.0
  0
VERTEX
  5
7B
330
77
100
AcDbEntity
  8
MAKE2D$VISIBLE$CURVES
 62
     1
100
AcDbVertex
100
AcDb2dVertex
 10
2487.98
 20
2703.56
 30
0.0
  0
SEQEND
  5
7C
330
77
100
AcDbEntity
  8
MAKE2D$VISIBLE$CURVES
 62
     1
  0
POLYLINE
  5
7D
330
1F
100
AcDbEntity
  8
DEFAULT
 62
     6
100
AcDb2dPolyline
 66
     1
 10
0.0
 20
0.0
 30
0.0
  0
VERTEX
  5
7E
330
7D
100
AcDbEntity
  8
DEFAULT
 62
     6
100
AcDbVertex
100
AcDb2dVertex
 10
841.0
 20
3461.98
 30
0.0
  0
VERTEX
  5
7F
330
7D
100
AcDbEntity
  8
DEFAULT
 62
     6
100
AcDbVertex
100
AcDb2dVertex
 10
841.0
 20
3133.98
 30
0.0
  0
VERTEX
  5
80
330
7D
100
AcDbEntity
  8
DEFAULT
 62
     6
100
AcDbVertex
100
AcDb2dVertex
 10
1598.0
 20
3133.98
 30
0.0
  0
VERTEX
  5
81
330
7D
100
AcDbEntity
  8
DEFAULT
 62
     6
100
AcDbVertex
100
AcDb2dVertex
 10
1598.0
 20
3461.98
 30
0.0
  0
SEQEND
  5
82
330
7D
100
AcDbEntity
  8
DEFAULT
 62
     6
  0
LINE
  5
83
330
1F
100
AcDbEntity
  8
MAKE2D$VISIBLE$CURVES
 62
     6
100
AcDbLine
 10
2121.904117251543
 20
2252.091845614475
 30
0.0
 11
2122.392710205377
 21
2266.083317192742
 31
0.0
  0
ARC
  5
84
330
1F
100
AcDbEntity
  8
MAKE2D$VISIBLE$CURVES
 62
     6
100
AcDbCircle
 10
-2130.880023218564
 20
2265.571641373917
 30
0.0
 40
0.5000000000296848
210
0.0
220
0.0
230
-1.0
100
AcDbArc
 50
156.5119819686975
 51
181.9999999990507
  0
LINE
  5
85
330
1F
100
AcDbEntity
  8
MAKE2D$VISIBLE$CURVES
 62
     6
100
AcDbLine
 10
2129.423345491214
 20
2266.838411542844
 30
0.0
 11
2131.099208791989
 21
2266.021038397074
 31
0.0
  0
LINE
  5
86
330
1F
100
AcDbEntity
  8
MAKE2D$VISIBLE$CURVES
 62
     6
100
AcDbLine
 10
2131.099208791989
 20
2266.021038397074
 30
0.0
 11
2131.338594939918
 21
2265.770920014028
 31
0.0
  0
LINE
  5
87
330
1F
100
AcDbEntity
  8
MAKE2D$VISIBLE$CURVES
 62
     6
100
AcDbLine
 10
2122.392710205377
 20
2266.083317192742
 30
0.0
 11
2122.42760970208
 21
2267.082708019761
 31
0.0
  0
LINE
  5
88
330
1F
100
AcDbEntity
  8
MAKE2D$VISIBLE$CURVES
 62
     6
100
AcDbLine
 10
2131.379718632104
 20
2265.554191625573
 30
0.0
 11
2131.355818101517
 21
2264.869769978103
 31
0.0
  0
LINE
  5
89
330
1F
100
AcDbEntity
  8
MAKE2D$VISIBLE$CURVES
 62
     6
100
AcDbLine
 10
2131.355818101517
 20
2264.869769978103
 30
0.0
 11
2130.356427274498
 21
2264.904669474805
 31
0.0
  0
LINE
  5
8A
330
1F
100
AcDbEntity
  8
MAKE2D$VISIBLE$CURVES
 62
     6
100
AcDbLine
 10
2130.356427274498
 20
2264.904669474805
 30
0.0
 11
2130.365152148674
 21
2265.15451718156
 31
0.0
  0
LINE
  5
8B
330
1F
100
AcDbEntity
  8
MAKE2D$VISIBLE$CURVES
 62
     6
100
AcDbLine
 10
2129.882906483515
 20
2265.671662343421
 30
0.0
 11
2126.884734002458
 21
2265.776360833528
 31
0.0
  0
ARC
  5
8C
330
1F
100
AcDbEntity
  8
MAKE2D$VISIBLE$CURVES
 62
     6
100
AcDbCircle
 10
2129.865456735163
 20
2265.17196692991
 30
0.0
 40
0.5000000000016788
100
AcDbArc
 50
358.0000000002116
 51
87.99999999989917
  0
ARC
  5
8D
330
1F
100
AcDbEntity
  8
MAKE2D$VISIBLE$CURVES
 62
     6
100
AcDbCircle
 10
2126.867284254106
 20
2265.276665420019
 30
0.0
 40
0.4999999999995016
100
AcDbArc
 50
87.99999999989008
 51
178.0000000000463
  0
LINE
  5
8E
330
1F
100
AcDbEntity
  8
MAKE2D$VISIBLE$CURVES
 62
     6
100
AcDbLine
 10
2125.866781062917
 20
2250.952856800646
 30
0.0
 11
2121.86921775484
 21
2251.092454787456
 31
0.0
  0
LINE
  5
8F
330
1F
100
AcDbEntity
  8
MAKE2D$VISIBLE$CURVES
 62
     6
100
AcDbLine
 10
2121.86921775484
 20
2251.092454787456
 30
0.0
 11
2121.904117251543
 21
2252.091845614475
 31
0.0
  0
LINE
  5
90
330
1F
100
AcDbEntity
  8
MAKE2D$VISIBLE$CURVES
 62
     6
100
AcDbLine
 10
2122.42760970208
 20
2267.082708019761
 30
0.0
 11
2129.423345491214
 21
2266.838411542844
 31
0.0
  0
LINE
  5
91
330
1F
100
AcDbEntity
  8
MAKE2D$VISIBLE$CURVES
 62
     6
100
AcDbLine
 10
2459.712600314664
 20
2240.076044986669
 30
0.0
 11
2459.213515573716
 21
2239.88397479821
 31
0.0
  0
LINE
  5
92
330
1F
100
AcDbEntity
  8
MAKE2D$VISIBLE$CURVES
 62
     6
100
AcDbLine
 10
2460.110030844718
 20
2252.088627477134
 30
0.0
 11
2460.085601197027
 21
2251.38905389822
 31
0.0
  0
LINE
  5
93
330
1F
100
AcDbEntity
  8
MAKE2D$VISIBLE$CURVES
 62
     6
100
AcDbLine
 10
2461.109421671738
 20
2252.053727980432
 30
0.0
 11
2461.084992024046
 21
2251.354154401518
 31
0.0
  0
LINE
  5
94
330
1F
100
AcDbEntity
  8
MAKE2D$VISIBLE$CURVES
 62
     6
100
AcDbLine
 10
2459.213515573716
 20
2239.88397479821
 30
0.0
 11
2458.681376208259
 21
2239.831019801501
 31
0.0
  0
ARC
  5
95
330
1F
100
AcDbEntity
  8
MAKE2D$VISIBLE$CURVES
 62
     6
100
AcDbCircle
 10
2455.534240992385
 20
2251.07578951743
 30
0.0
 40
4.538224686089883
100
AcDbArc
 50
358.9079598095531
 51
25.16452665821243
  0
LINE
  5
96
330
1F
100
AcDbEntity
  8
MAKE2D$VISIBLE$CURVES
 62
     6
100
AcDbLine
 10
2459.641160370149
 20
2253.005546006857
 30
0.0
 11
2459.613390573213
 21
2252.998715018855
 31
0.0
  0
ARC
  5
97
330
1F
100
AcDbEntity
  8
MAKE2D$VISIBLE$CURVES
 62
     6
100
AcDbCircle
 10
-2458.751112734034
 20
2241.829839937032
 30
0.0
 40
2.000063772889767
210
0.0
220
0.0
230
-1.0
100
AcDbArc
 50
182.0010392538903
 51
241.2670101993126
  0
LINE
  5
98
330
1F
100
AcDbEntity
  8
MAKE2D$VISIBLE$CURVES
 62
     6
100
AcDbLine
 10
2460.085601197027
 20
2251.38905389822
 30
0.0
 11
2460.071641398346
 21
2250.989297567413
 31
0.0
  0
LINE
  5
99
330
1F
100
AcDbEntity
  8
MAKE2D$VISIBLE$CURVES
 62
     6
100
AcDbLine
 10
2460.144930341421
 20
2253.088018304153
 30
0.0
 11
2460.110030844718
 21
2252.088627477134
 31
0.0
  0
ARC
  5
9A
330
1F
100
AcDbEntity
  8
MAKE2D$VISIBLE$CURVES
 62
     6
100
AcDbCircle
 10
2142.273826297173
 20
2205.652079410132
 30
0.0
 40
12.79944217002151
100
AcDbArc
 50
178.9973537767811
 51
343.7361275776228
  0
LINE
  5
9B
330
1F
100
AcDbEntity
  8
MAKE2D$VISIBLE$CURVES
 62
     6
100
AcDbLine
 10
2168.535830448107
 20
2249.96312552972
 30
0.0
 11
2154.561061340164
 21
2202.06744904397
 31
0.0
  0
LINE
  5
9C
330
1F
100
AcDbEntity
  8
MAKE2D$VISIBLE$CURVES
 62
     6
100
AcDbLine
 10
2129.476343874762
 20
2205.876051532958
 30
0.0
 11
2130.270186118693
 21
2251.299391274799
 31
0.0
  0
LINE
  5
9D
330
1F
100
AcDbEntity
  8
MAKE2D$VISIBLE$CURVES
 62
     6
100
AcDbLine
 10
2184.45800253818
 20
2295.544216170961
 30
0.0
 11
2184.447964645537
 21
2295.256768534779
 31
0.0
  0
ARC
  5
9E
330
1F
100
AcDbEntity
  8
MAKE2D$VISIBLE$CURVES
 62
     6
100
AcDbCircle
 10
2128.778106824402
 20
2263.468877413434
 30
0.0
 40
1.500000000098796
100
AcDbArc
 50
87.99999999918957
 51
131.3923283197361
  0
LINE
  5
9F
330
1F
100
AcDbEntity
  8
MAKE2D$VISIBLE$CURVES
 62
     6
100
AcDbLine
 10
2128.830456069386
 20
2264.96796365411
 30
0.0
 11
2130.354653062834
 21
2264.914737522242
 31
0.0
  0
LINE
  5
A0
330
1F
100
AcDbEntity
  8
MAKE2D$VISIBLE$CURVES
 62
     6
100
AcDbLine
 10
2459.95251969358
 20
2255.411476743461
 30
0.0
 11
2459.93539336201
 21
2254.757448526545
 31
0.0
  0
ARC
  5
A1
330
1F
100
AcDbEntity
  8
MAKE2D$VISIBLE$CURVES
 62
     6
100
AcDbCircle
 10
2453.625852029198
 20
2255.737144658408
 30
0.0
 40
2.00000007056031
100
AcDbArc
 50
268.0107180472431
 51
355.0079709799076
  0
LINE
  5
A2
330
1F
100
AcDbEntity
  8
MAKE2D$VISIBLE$CURVES
 62
     6
100
AcDbLine
 10
2157.83855975508
 20
2295.307547808061
 30
0.0
 11
2146.74980154878
 21
2287.054333522461
 31
0.0
  0
ARC
  5
A3
330
1F
100
AcDbEntity
  8
MAKE2D$VISIBLE$CURVES
 62
     6
100
AcDbCircle
 10
2160.226810769569
 20
2292.098790146266
 30
0.0
 40
3.999983580007913
100
AcDbArc
 50
88.00003271516927
 51
126.6599962991248
  0
LINE
  5
A4
330
1F
100
AcDbEntity
  8
MAKE2D$VISIBLE$CURVES
 62
     6
100
AcDbLine
 10
2138.33927065558
 20
2271.673127487261
 30
0.0
 11
2137.85607302878
 21
2264.762850670361
 31
0.0
  0
LINE
  5
A5
330
1F
100
AcDbEntity
  8
MAKE2D$VISIBLE$CURVES
 62
     6
100
AcDbLine
 10
2455.61826572658
 20
2255.563110349361
 30
0.0
 11
2455.801927487179
 21
2257.662373295161
 31
0.0
  0
ARC
  5
A6
330
1F
100
AcDbEntity
  8
MAKE2D$VISIBLE$CURVES
 62
     6
100
AcDbCircle
 10
-2159.288114844792
 20
2270.208243883268
 30
0.0
 40
21.00001730199408
210
0.0
220
0.0
230
-1.0
100
AcDbArc
 50
4.000975332251707
 51
53.34075810538464
  0
LINE
  5
A7
330
1F
100
AcDbEntity
  8
MAKE2D$VISIBLE$CURVES
 62
     6
100
AcDbLine
 10
2167.172643938683
 20
2295.858690007132
 30
0.0
 11
2169.703657043428
 21
2295.770341761214
 31
0.0
  0
LINE
  5
A8
330
1F
100
AcDbEntity
  8
MAKE2D$VISIBLE$CURVES
 62
     6
100
AcDbLine
 10
2160.370204834209
 20
2296.096204431279
 30
0.0
 11
2167.172977258607
 21
2295.858643354646
 31
0.0
  0
LINE
  5
A9
330
1F
100
AcDbEntity
  8
MAKE2D$VISIBLE$CURVES
 62
     6
100
AcDbLine
 10
2137.85607302878
 20
2264.762850670361
 30
0.0
 11
2147.84404188708
 21
2264.414063193361
 31
0.0
  0
LINE
  5
AA
330
1F
100
AcDbEntity
  8
MAKE2D$VISIBLE$CURVES
 62
     6
100
AcDbLine
 10
2147.84404188708
 20
2264.414063193361
 30
0.0
 11
2453.55642693708
 21
2253.738349911861
 31
0.0
  0
LINE
  5
AB
330
1F
100
AcDbEntity
  8
MAKE2D$VISIBLE$CURVES
 62
     6
100
AcDbLine
 10
2425.301105868001
 20
2286.84461273396
 30
0.0
 11
2425.31119184988
 21
2287.133437465661
 31
0.0
  0
LINE
  5
AC
330
1F
100
AcDbEntity
  8
MAKE2D$VISIBLE$CURVES
 62
     6
100
AcDbLine
 10
2459.873221879857
 20
2259.617322106861
 30
0.0
 11
2459.870414028612
 21
2259.536915767424
 31
0.0
  0
ARC
  5
AD
330
1F
100
AcDbEntity
  8
MAKE2D$VISIBLE$CURVES
 62
     6
100
AcDbCircle
 10
2458.077384327079
 20
2251.969493250067
 30
0.0
 40
1.5000000000667
100
AcDbArc
 50
44.3199252110857
 51
87.99999999826059
  0
LINE
  5
AE
330
1F
100
AcDbEntity
  8
MAKE2D$VISIBLE$CURVES
 62
     6
100
AcDbLine
 10
2131.356167096315
 20
2264.879763881536
 30
0.0
 11
2458.129733572179
 21
2253.46857949065
 31
0.0
  0
LINE
  5
AF
330
1F
100
AcDbEntity
  8
MAKE2D$VISIBLE$CURVES
 62
     6
100
AcDbLine
 10
2459.90424485436
 20
2253.567935008997
 30
0.0
 11
2459.90290390078
 21
2253.516726056961
 31
0.0
  0
LINE
  5
B0
330
1F
100
AcDbEntity
  8
MAKE2D$VISIBLE$CURVES
 62
     6
100
AcDbLine
 10
2460.052133894048
 20
2259.216618377261
 30
0.0
 11
2459.95251969358
 21
2255.411476743461
 31
0.0
  0
LINE
  5
B1
330
1F
100
AcDbEntity
  8
MAKE2D$VISIBLE$CURVES
 62
     6
100
AcDbLine
 10
2459.859228997281
 20
2259.216618377261
 30
0.0
 11
2459.800077973158
 21
2257.522754668556
 31
0.0
  0
LINE
  5
B2
330
1F
100
AcDbEntity
  8
MAKE2D$VISIBLE$CURVES
 62
     6
100
AcDbLine
 10
2126.367588840597
 20
2265.29411516837
 30
0.0
 11
2125.901680559619
 21
2251.952247627665
 31
0.0
  0
LINE
  5
B3
330
1F
100
AcDbEntity
  8
MAKE2D$VISIBLE$CURVES
 62
     6
100
AcDbLine
 10
2125.901680559619
 20
2251.952247627665
 30
0.0
 11
2125.866781062917
 21
2250.952856800646
 31
0.0
  0
LINE
  5
B4
330
1F
100
AcDbEntity
  8
MAKE2D$VISIBLE$CURVES
 62
     6
100
AcDbLine
 10
2461.084992024046
 20
2251.354154401518
 30
0.0
 11
2460.749956855702
 21
2241.760002462135
 31
0.0
  0
LINE
  5
B5
330
1F
100
AcDbEntity
  8
MAKE2D$VISIBLE$CURVES
 62
     6
100
AcDbLine
 10
2461.14432116844
 20
2253.053118807451
 30
0.0
 11
2461.109421671738
 21
2252.053727980432
 31
0.0
  0
LINE
  5
B6
330
1F
100
AcDbEntity
  8
MAKE2D$VISIBLE$CURVES
 62
     6
100
AcDbLine
 10
2461.14432116844
 20
2253.053118807451
 30
0.0
 11
2460.144930341421
 21
2253.088018304153
 31
0.0
  0
LINE
  5
B7
330
1F
100
AcDbEntity
  8
MAKE2D$VISIBLE$CURVES
 62
     6
100
AcDbLine
 10
2125.8842308109
 20
2251.452552203421
 30
0.0
 11
2458.681376208259
 21
2239.831019801501
 31
0.0
  0
LINE
  5
B8
330
1F
100
AcDbEntity
  8
MAKE2D$VISIBLE$CURVES
 62
     6
100
AcDbLine
 10
2126.344904167373
 20
2264.644511120073
 30
0.0
 11
2459.641745000618
 21
2253.005528969021
 31
0.0
  0
LINE
  5
B9
330
1F
100
AcDbEntity
  8
MAKE2D$VISIBLE$CURVES
 62
     6
100
AcDbLine
 10
2455.801927487179
 20
2257.662373295161
 30
0.0
 11
2459.799832543723
 21
2257.522763240306
 31
0.0
  0
LINE
  5
BA
330
1F
100
AcDbEntity
  8
MAKE2D$VISIBLE$CURVES
 62
     6
100
AcDbLine
 10
2169.703654623851
 20
2295.770272411542
 30
0.0
 11
2450.717527934914
 21
2285.957051717655
 31
0.0
  0
LINE
  5
BB
330
1F
100
AcDbEntity
  8
DEFAULT
 62
     4
100
AcDbLine
 10
220.675667750408
 20
3500.98
 30
0.0
 11
1871.0
 21
3500.98
 31
0.0
  0
LINE
  5
BC
330
1F
100
AcDbEntity
  8
DEFAULT
 62
     4
100
AcDbLine
 10
2487.98
 20
3083.56383031834
 30
0.0
 11
2487.98
 21
2025.0
 31
0.0
  0
LINE
  5
BD
330
1F
100
AcDbEntity
  8
MAKE2D$VISIBLE$CURVES
 62
    18
100
AcDbLine
 10
2450.98
 20
2594.56383031834
 30
0.0
 11
2449.98
 21
2594.56383031834
 31
0.0
  0
LINE
  5
BE
330
1F
100
AcDbEntity
  8
MAKE2D$VISIBLE$CURVES
 62
    18
100
AcDbLine
 10
2450.68
 20
2261.56383031834
 30
0.0
 11
2450.68
 21
2594.56383031834
 31
0.0
  0
LINE
  5
BF
330
1F
100
AcDbEntity
  8
MAKE2D$VISIBLE$CURVES
 62
    18
100
AcDbLine
 10
2450.98
 20
2594.56383031834
 30
0.0
 11
2464.28
 21
2594.56383031834
 31
0.0
  0
LINE
  5
C0
330
1F
100
AcDbEntity
  8
MAKE2D$VISIBLE$CURVES
 62
    18
100
AcDbLine
 10
2463.98
 20
2589.56383031834
 30
0.0
 11
2463.98
 21
2259.56383031834
 31
0.0
  0
LINE
  5
C1
330
1F
100
AcDbEntity
  8
MAKE2D$VISIBLE$CURVES
 62
    18
100
AcDbLine
 10
2470.98
 20
2613.56383031834
 30
0.0
 11
2470.98
 21
2593.56383031834
 31
0.0
  0
LINE
  5
C2
330
1F
100
AcDbEntity
  8
MAKE2D$VISIBLE$CURVES
 62
    18
100
AcDbLine
 10
2471.98
 20
2266.56383031834
 30
0.0
 11
2471.98
 21
2593.56383031834
 31
0.0
  0
LINE
  5
C3
330
1F
100
AcDbEntity
  8
MAKE2D$VISIBLE$CURVES
 62
    18
100
AcDbLine
 10
2487.98
 20
2243.56383031834
 30
0.0
 11
2487.98
 21
2713.56383031834
 31
0.0
  0
LINE
  5
C4
330
1F
100
AcDbEntity
  8
MAKE2D$VISIBLE$CURVES
 62
    18
100
AcDbLine
 10
2463.98
 20
2594.56383031834
 30
0.0
 11
2464.28
 21
2594.56383031834
 31
0.0
  0
LINE
  5
C5
330
1F
100
AcDbEntity
  8
MAKE2D$VISIBLE$CURVES
 62
    18
100
AcDbLine
 10
2504.89500891988
 20
2690.56383031834
 30
0.0
 11
2489.48
 21
2699.56383031834
 31
0.0
  0
LINE
  5
C6
330
1F
100
AcDbEntity
  8
MAKE2D$VISIBLE$CURVES
 62
    18
100
AcDbLine
 10
3015.98
 20
2610.57685097834
 30
0.0
 11
2878.98
 21
2690.56383031834
 31
0.0
  0
LINE
  5
C7
330
1F
100
AcDbEntity
  8
MAKE2D$VISIBLE$CURVES
 62
    18
100
AcDbLine
 10
2878.98
 20
2690.56383031834
 30
0.0
 11
2504.89500891988
 21
2690.56383031834
 31
0.0
  0
LINE
  5
C8
330
1F
100
AcDbEntity
  8
MAKE2D$VISIBLE$CURVES
 62
    18
100
AcDbLine
 10
2489.48
 20
2699.56383031834
 30
0.0
 11
2487.98
 21
2699.56383031834
 31
0.0
  0
LINE
  5
C9
330
1F
100
AcDbEntity
  8
MAKE2D$VISIBLE$CURVES
 62
    18
100
AcDbLine
 10
3015.98
 20
2253.56383031834
 30
0.0
 11
3015.98
 21
2610.57685097834
 31
0.0
  0
LINE
  5
CA
330
1F
100
AcDbEntity
  8
MAKE2D$VISIBLE$CURVES
 62
    18
100
AcDbLine
 10
3015.98
 20
2253.56383031834
 30
0.0
 11
2487.98
 21
2253.56383031834
 31
0.0
  0
LINE
  5
CB
330
1F
100
AcDbEntity
  8
MAKE2D$VISIBLE$CURVES
 62
    18
100
AcDbLine
 10
2402.68
 20
2558.45386186774
 30
0.0
 11
2450.68
 21
2545.45386186774
 31
0.0
  0
ARC
  5
CC
330
1F
100
AcDbEntity
  8
MAKE2D$VISIBLE$CURVES
 62
    18
100
AcDbCircle
 10
-2405.68
 20
2570.77386186774
 30
0.0
 40
12.68000000000029
210
0.0
220
0.0
230
-1.0
100
AcDbArc
 50
359.9999999999939
 51
90.00000000523978
  0
ARC
  5
CD
330
1F
100
AcDbEntity
  8
MAKE2D$VISIBLE$CURVES
 62
    18
100
AcDbCircle
 10
-2405.679999999999
 20
2570.77386186774
 30
0.0
 40
12.67999999999961
210
0.0
220
0.0
230
-1.0
100
AcDbArc
 50
283.6855468252602
 51
359.9999999999959
  0
LINE
  5
CE
330
1F
100
AcDbEntity
  8
MAKE2D$VISIBLE$CURVES
 62
    18
100
AcDbLine
 10
2405.68000000116
 20
2583.45386186774
 30
0.0
 11
2450.68
 21
2583.45386186774
 31
0.0
  0
ARC
  5
CF
330
1F
100
AcDbEntity
  8
MAKE2D$VISIBLE$CURVES
 62
    18
100
AcDbCircle
 10
-2452.680000990282
 20
2261.563831308622
 30
0.0
 40
2.000000990282178
210
0.0
220
0.0
230
-1.0
100
AcDbArc
 50
270.0000283694866
 51
359.9999716305264
  0
LINE
  5
D0
330
1F
100
AcDbEntity
  8
MAKE2D$VISIBLE$CURVES
 62
    18
100
AcDbLine
 10
2449.98
 20
2598.56383031834
 30
0.0
 11
2450.98
 21
2598.56383031834
 31
0.0
  0
LINE
  5
D1
330
1F
100
AcDbEntity
  8
MAKE2D$VISIBLE$CURVES
 62
    18
100
AcDbLine
 10
2449.98
 20
2598.56383031834
 30
0.0
 11
2449.98
 21
2594.56383031834
 31
0.0
  0
ARC
  5
D2
330
1F
100
AcDbEntity
  8
MAKE2D$VISIBLE$CURVES
 62
    18
100
AcDbCircle
 10
-2464.28
 20
2591.06383031834
 30
0.0
 40
0.5000000000004547
210
0.0
220
0.0
230
-1.0
100
AcDbArc
 50
179.9999999999479
 51
269.9999999999479
  0
ARC
  5
D3
330
1F
100
AcDbEntity
  8
MAKE2D$VISIBLE$CURVES
 62
    18
100
AcDbCircle
 10
-2464.280000000001
 20
2594.063830318341
 30
0.0
 40
0.4999999999986358
210
0.0
220
0.0
230
-1.0
100
AcDbArc
 50
89.99999999989578
 51
180.0000000001563
  0
LINE
  5
D4
330
1F
100
AcDbEntity
  8
MAKE2D$VISIBLE$CURVES
 62
    18
100
AcDbLine
 10
2463.98
 20
2594.56383031834
 30
0.0
 11
2460.68
 21
2594.56383031834
 31
0.0
  0
LINE
  5
D5
330
1F
100
AcDbEntity
  8
MAKE2D$VISIBLE$CURVES
 62
    18
100
AcDbLine
 10
2463.98
 20
2590.56383031834
 30
0.0
 11
2463.98
 21
2594.56383031834
 31
0.0
  0
LINE
  5
D6
330
1F
100
AcDbEntity
  8
MAKE2D$VISIBLE$CURVES
 62
    18
100
AcDbLine
 10
2452.68
 20
2259.56383031834
 30
0.0
 11
2463.98
 21
2259.56383031834
 31
0.0
  0
LINE
  5
D7
330
1F
100
AcDbEntity
  8
MAKE2D$VISIBLE$CURVES
 62
    18
100
AcDbLine
 10
2464.98
 20
2598.56383031834
 30
0.0
 11
2450.98
 21
2598.56383031834
 31
0.0
  0
LINE
  5
D8
330
1F
100
AcDbEntity
  8
MAKE2D$VISIBLE$CURVES
 62
    18
100
AcDbLine
 10
2464.78
 20
2594.06383031834
 30
0.0
 11
2464.78
 21
2591.06383031834
 31
0.0
  0
LINE
  5
D9
330
1F
100
AcDbEntity
  8
MAKE2D$VISIBLE$CURVES
 62
    18
100
AcDbLine
 10
2464.28
 20
2590.56383031834
 30
0.0
 11
2463.98
 21
2590.56383031834
 31
0.0
  0
LINE
  5
DA
330
1F
100
AcDbEntity
  8
MAKE2D$VISIBLE$CURVES
 62
    18
100
AcDbLine
 10
2463.98
 20
2590.56383031834
 30
0.0
 11
2463.98
 21
2589.56383031834
 31
0.0
  0
LINE
  5
DB
330
1F
100
AcDbEntity
  8
MAKE2D$VISIBLE$CURVES
 62
    18
100
AcDbLine
 10
2465.98
 20
2591.56383031834
 30
0.0
 11
2465.98
 21
2598.56383031834
 31
0.0
  0
LINE
  5
DC
330
1F
100
AcDbEntity
  8
MAKE2D$VISIBLE$CURVES
 62
    18
100
AcDbLine
 10
2465.98
 20
2598.56383031834
 30
0.0
 11
2464.98
 21
2598.56383031834
 31
0.0
  0
LINE
  5
DD
330
1F
100
AcDbEntity
  8
MAKE2D$VISIBLE$CURVES
 62
    18
100
AcDbLine
 10
2465.98
 20
2591.56383031834
 30
0.0
 11
2464.98
 21
2589.56383031834
 31
0.0
  0
LINE
  5
DE
330
1F
100
AcDbEntity
  8
MAKE2D$VISIBLE$CURVES
 62
    18
100
AcDbLine
 10
2464.98
 20
2589.56383031834
 30
0.0
 11
2463.98
 21
2589.56383031834
 31
0.0
  0
LINE
  5
DF
330
1F
100
AcDbEntity
  8
MAKE2D$VISIBLE$CURVES
 62
    18
100
AcDbLine
 10
2471.98
 20
2583.56383031834
 30
0.0
 11
2463.98
 21
2583.56383031834
 31
0.0
  0
LINE
  5
E0
330
1F
100
AcDbEntity
  8
MAKE2D$VISIBLE$CURVES
 62
    18
100
AcDbLine
 10
2463.98
 20
2265.56383031834
 30
0.0
 11
2471.98
 21
2265.56383031834
 31
0.0
  0
ARC
  5
E1
330
1F
100
AcDbEntity
  8
MAKE2D$VISIBLE$CURVES
 62
    18
100
AcDbCircle
 10
-2450.980000326203
 20
2711.563829992137
 30
0.0
 40
2.000000326203489
210
0.0
220
0.0
230
-1.0
100
AcDbArc
 50
0.0000093450262791
 51
89.9999906549607
  0
ARC
  5
E2
330
1F
100
AcDbEntity
  8
MAKE2D$VISIBLE$CURVES
 62
    18
100
AcDbCircle
 10
-2450.980000326203
 20
2615.563830644543
 30
0.0
 40
2.00000032620258
210
0.0
220
0.0
230
-1.0
100
AcDbArc
 50
270.0000093450133
 51
359.9999906549867
  0
LINE
  5
E3
330
1F
100
AcDbEntity
  8
MAKE2D$VISIBLE$CURVES
 62
    18
100
AcDbLine
 10
2484.98
 20
2266.56383031834
 30
0.0
 11
2484.98
 21
2246.56383031834
 31
0.0
  0
LINE
  5
E4
330
1F
100
AcDbEntity
  8
MAKE2D$VISIBLE$CURVES
 62
    18
100
AcDbLine
 10
2484.98
 20
2246.56383031834
 30
0.0
 11
2462.98
 21
2246.56383031834
 31
0.0
  0
LINE
  5
E5
330
1F
100
AcDbEntity
  8
MAKE2D$VISIBLE$CURVES
 62
    18
100
AcDbLine
 10
2462.98
 20
2246.56383031834
 30
0.0
 11
2462.98
 21
2243.56383031834
 31
0.0
  0
LINE
  5
E6
330
1F
100
AcDbEntity
  8
MAKE2D$VISIBLE$CURVES
 62
    18
100
AcDbLine
 10
2462.98
 20
2243.56383031834
 30
0.0
 11
2487.98
 21
2243.56383031834
 31
0.0
  0
LINE
  5
E7
330
1F
100
AcDbEntity
  8
MAKE2D$VISIBLE$CURVES
 62
    18
100
AcDbLine
 10
2450.98
 20
2713.56383031834
 30
0.0
 11
2487.98
 21
2713.56383031834
 31
0.0
  0
LINE
  5
E8
330
1F
100
AcDbEntity
  8
MAKE2D$VISIBLE$CURVES
 62
    18
100
AcDbLine
 10
2448.98
 20
2711.56383031834
 30
0.0
 11
2448.98
 21
2615.56383031834
 31
0.0
  0
LINE
  5
E9
330
1F
100
AcDbEntity
  8
MAKE2D$VISIBLE$CURVES
 62
    18
100
AcDbLine
 10
2470.98
 20
2613.56383031834
 30
0.0
 11
2450.98
 21
2613.56383031834
 31
0.0
  0
LINE
  5
EA
330
1F
100
AcDbEntity
  8
MAKE2D$VISIBLE$CURVES
 62
    18
100
AcDbLine
 10
2471.98
 20
2593.56383031834
 30
0.0
 11
2470.98
 21
2593.56383031834
 31
0.0
  0
LINE
  5
EB
330
1F
100
AcDbEntity
  8
MAKE2D$VISIBLE$CURVES
 62
    18
100
AcDbLine
 10
2471.98
 20
2265.56383031834
 30
0.0
 11
2471.98
 21
2266.56383031834
 31
0.0
  0
LINE
  5
EC
330
1F
100
AcDbEntity
  8
MAKE2D$VISIBLE$CURVES
 62
    18
100
AcDbLine
 10
2484.98
 20
2266.56383031834
 30
0.0
 11
2471.98
 21
2266.56383031834
 31
0.0
  0
ARC
  5
ED
330
1F
100
AcDbEntity
  8
MAKE2D$VISIBLE$CURVES
 62
    18
100
AcDbCircle
 10
-841.5638303183431
 20
3477.98
 30
0.0
 40
1.000000000003297
210
0.0
220
0.0
230
-1.0
100
AcDbArc
 50
0.0
 51
60.41640568365052
  0
ARC
  5
EE
330
1F
100
AcDbEntity
  8
MAKE2D$VISIBLE$CURVES
 62
    18
100
AcDbCircle
 10
841.5638303183422
 20
3463.98
 30
0.0
 40
1.000000000002387
100
AcDbArc
 50
180.0
 51
255.5365374108223
  0
LINE
  5
EF
330
1F
100
AcDbEntity
  8
MAKE2D$VISIBLE$CURVES
 62
    18
100
AcDbLine
 10
1588.06383031834
 20
3418.68000000116
 30
0.0
 11
1588.06383031834
 21
3461.98
 31
0.0
  0
LINE
  5
F0
330
1F
100
AcDbEntity
  8
MAKE2D$VISIBLE$CURVES
 62
    18
100
AcDbLine
 10
1528.06383031834
 20
3415.767854601389
 30
0.0
 11
1528.46383031834
 21
3415.68000000204
 31
0.0
  0
LINE
  5
F1
330
1F
100
AcDbEntity
  8
MAKE2D$VISIBLE$CURVES
 62
    18
100
AcDbLine
 10
1528.06383031834
 20
3431.18
 30
0.0
 11
911.0638303183398
 21
3431.18
 31
0.0
  0
LINE
  5
F2
330
1F
100
AcDbEntity
  8
MAKE2D$VISIBLE$CURVES
 62
    18
100
AcDbLine
 10
911.0638303183398
 20
3406.18
 30
0.0
 11
1528.06383031834
 21
3406.18
 31
0.0
  0
LINE
  5
F3
330
1F
100
AcDbEntity
  8
MAKE2D$VISIBLE$CURVES
 62
    18
100
AcDbLine
 10
911.0638230196398
 20
3415.77396352987
 30
0.0
 11
910.6638303184399
 21
3415.68000000357
 31
0.0
  0
LINE
  5
F4
330
1F
100
AcDbEntity
  8
MAKE2D$VISIBLE$CURVES
 62
    18
100
AcDbLine
 10
1493.56383031834
 20
3502.48
 30
0.0
 11
1493.56383031834
 21
3500.98
 31
0.0
  0
LINE
  5
F5
330
1F
100
AcDbEntity
  8
MAKE2D$VISIBLE$CURVES
 62
    18
100
AcDbLine
 10
945.5638303183398
 20
3500.98
 30
0.0
 11
945.5638303183398
 21
3502.48
 31
0.0
  0
LINE
  5
F6
330
1F
100
AcDbEntity
  8
MAKE2D$VISIBLE$CURVES
 62
    18
100
AcDbLine
 10
945.5638303183398
 20
3580.98
 30
0.0
 11
938.5638303183398
 21
3580.98
 31
0.0
  0
LINE
  5
F7
330
1F
100
AcDbEntity
  8
MAKE2D$VISIBLE$CURVES
 62
    18
100
AcDbLine
 10
902.5638303183398
 20
3539.15157287525
 30
0.0
 11
902.5638303183398
 21
3506.38
 31
0.0
  0
LINE
  5
F8
330
1F
100
AcDbEntity
  8
MAKE2D$VISIBLE$CURVES
 62
    18
100
AcDbLine
 10
936.5638303183398
 20
3578.98
 30
0.0
 11
936.5638303183398
 21
3573.98
 31
0.0
  0
LINE
  5
F9
330
1F
100
AcDbEntity
  8
MAKE2D$VISIBLE$CURVES
 62
    18
100
AcDbLine
 10
902.5638303183398
 20
3506.38
 30
0.0
 11
897.1638303183398
 21
3500.98
 31
0.0
  0
LINE
  5
FA
330
1F
100
AcDbEntity
  8
MAKE2D$VISIBLE$CURVES
 62
    18
100
AcDbLine
 10
1536.56383031834
 20
3506.38
 30
0.0
 11
1541.96383031834
 21
3500.98
 31
0.0
  0
LINE
  5
FB
330
1F
100
AcDbEntity
  8
MAKE2D$VISIBLE$CURVES
 62
    18
100
AcDbLine
 10
1536.56383031834
 20
3539.15157287525
 30
0.0
 11
1536.56383031834
 21
3506.38
 31
0.0
  0
LINE
  5
FC
330
1F
100
AcDbEntity
  8
MAKE2D$VISIBLE$CURVES
 62
    18
100
AcDbLine
 10
1493.56383031834
 20
3580.98
 30
0.0
 11
1500.56383031834
 21
3580.98
 31
0.0
  0
LINE
  5
FD
330
1F
100
AcDbEntity
  8
MAKE2D$VISIBLE$CURVES
 62
    18
100
AcDbLine
 10
1502.56383031834
 20
3578.98
 30
0.0
 11
1502.56383031834
 21
3573.98
 31
0.0
  0
ARC
  5
FE
330
1F
100
AcDbEntity
  8
MAKE2D$VISIBLE$CURVES
 62
    18
100
AcDbCircle
 10
-1534.563830318284
 20
3539.151572875251
 30
0.0
 40
2.000000000055806
210
0.0
220
0.0
230
-1.0
100
AcDbArc
 50
135.0000000017549
 51
180.000000000013
  0
LINE
  5
FF
330
1F
100
AcDbEntity
  8
MAKE2D$VISIBLE$CURVES
 62
    18
100
AcDbLine
 10
1502.56383031834
 20
3573.98
 30
0.0
 11
1535.97804388074
 21
3540.56578643762
 31
0.0
  0
ARC
  5
100
330
1F
100
AcDbEntity
  8
MAKE2D$VISIBLE$CURVES
 62
    18
100
AcDbCircle
 10
-1500.56383031834
 20
3578.98
 30
0.0
 40
2.0
210
0.0
220
0.0
230
-1.0
100
AcDbArc
 50
89.99999999999349
 51
179.999999999987
  0
ARC
  5
101
330
1F
100
AcDbEntity
  8
MAKE2D$VISIBLE$CURVES
 62
    18
100
AcDbCircle
 10
938.5638303183397
 20
3578.98
 30
0.0
 40
2.0
100
AcDbArc
 50
89.99999999999675
 51
180.0
  0
LINE
  5
102
330
1F
100
AcDbEntity
  8
MAKE2D$VISIBLE$CURVES
 62
    18
100
AcDbLine
 10
936.5638303183398
 20
3573.98
 30
0.0
 11
903.1496167559399
 21
3540.56578643764
 31
0.0
  0
ARC
  5
103
330
1F
100
AcDbEntity
  8
MAKE2D$VISIBLE$CURVES
 62
    18
100
AcDbCircle
 10
904.5638303184438
 20
3539.151572875251
 30
0.0
 40
2.000000000103959
100
AcDbArc
 50
135.0000000023237
 51
180.000000000013
  0
LINE
  5
104
330
1F
100
AcDbEntity
  8
MAKE2D$VISIBLE$CURVES
 62
    18
100
AcDbLine
 10
1493.56383031834
 20
4028.98
 30
0.0
 11
1493.56383031834
 21
3891.98
 31
0.0
  0
LINE
  5
105
330
1F
100
AcDbEntity
  8
MAKE2D$VISIBLE$CURVES
 62
    18
100
AcDbLine
 10
1493.56383031834
 20
3891.98
 30
0.0
 11
945.5638303183398
 21
3891.98
 31
0.0
  0
LINE
  5
106
330
1F
100
AcDbEntity
  8
MAKE2D$VISIBLE$CURVES
 62
    18
100
AcDbLine
 10
945.5638303183398
 20
3891.98
 30
0.0
 11
945.5638303183398
 21
4028.98
 31
0.0
  0
LINE
  5
107
330
1F
100
AcDbEntity
  8
MAKE2D$VISIBLE$CURVES
 62
    18
100
AcDbLine
 10
1493.56383031834
 20
3517.89500891988
 30
0.0
 11
945.5638303183398
 21
3517.89500891988
 31
0.0
  0
LINE
  5
108
330
1F
100
AcDbEntity
  8
MAKE2D$VISIBLE$CURVES
 62
    18
100
AcDbLine
 10
1493.56383031834
 20
3517.89500891988
 30
0.0
 11
1493.56383031834
 21
3502.48
 31
0.0
  0
LINE
  5
109
330
1F
100
AcDbEntity
  8
MAKE2D$VISIBLE$CURVES
 62
    18
100
AcDbLine
 10
1493.56383031834
 20
3502.48
 30
0.0
 11
945.5638303183398
 21
3502.48
 31
0.0
  0
LINE
  5
10A
330
1F
100
AcDbEntity
  8
MAKE2D$VISIBLE$CURVES
 62
    18
100
AcDbLine
 10
945.5638303183398
 20
3502.48
 30
0.0
 11
945.5638303183398
 21
3517.89500891988
 31
0.0
  0
LINE
  5
10B
330
1F
100
AcDbEntity
  8
MAKE2D$VISIBLE$CURVES
 62
    18
100
AcDbLine
 10
911.0638303183398
 20
3406.4
 30
0.0
 11
910.6638303183398
 21
3406.0
 31
0.0
  0
LINE
  5
10C
330
1F
100
AcDbEntity
  8
MAKE2D$VISIBLE$CURVES
 62
    18
100
AcDbLine
 10
1528.46383031834
 20
3406.0
 30
0.0
 11
1528.06383031834
 21
3406.4
 31
0.0
  0
LINE
  5
10D
330
1F
100
AcDbEntity
  8
MAKE2D$VISIBLE$CURVES
 62
    18
100
AcDbLine
 10
1588.06383031834
 20
3406.0
 30
0.0
 11
1528.46383031834
 21
3406.0
 31
0.0
  0
LINE
  5
10E
330
1F
100
AcDbEntity
  8
MAKE2D$VISIBLE$CURVES
 62
    18
100
AcDbLine
 10
910.6638303183398
 20
3406.0
 30
0.0
 11
851.0638303183398
 21
3406.0
 31
0.0
  0
ARC
  5
10F
330
1F
100
AcDbEntity
  8
MAKE2D$VISIBLE$CURVES
 62
    18
100
AcDbCircle
 10
-1597.563830318346
 20
3477.980000000002
 30
0.0
 40
0.999999999993862
210
0.0
220
0.0
230
-1.0
100
AcDbArc
 50
119.9999999997969
 51
180.0000000001043
  0
ARC
  5
110
330
1F
100
AcDbEntity
  8
MAKE2D$VISIBLE$CURVES
 62
    18
100
AcDbCircle
 10
1597.563830318339
 20
3463.98
 30
0.0
 40
1.000000000000608
100
AcDbArc
 50
284.8855278084234
 51
359.999999999974
  0
LINE
  5
111
330
1F
100
AcDbEntity
  8
MAKE2D$VISIBLE$CURVES
 62
    18
100
AcDbLine
 10
1528.46383031834
 20
3461.98
 30
0.0
 11
1528.46383031834
 21
3418.68000000753
 31
0.0
  0
LINE
  5
112
330
1F
100
AcDbEntity
  8
MAKE2D$VISIBLE$CURVES
 62
    18
100
AcDbLine
 10
910.6638303183436
 20
3461.98
 30
0.0
 11
910.6638303184399
 21
3418.68000000753
 31
0.0
  0
LINE
  5
113
330
1F
100
AcDbEntity
  8
MAKE2D$VISIBLE$CURVES
 62
    18
100
AcDbLine
 10
911.0638303183398
 20
3431.18
 30
0.0
 11
911.0638303183398
 21
3461.9811804975
 31
0.0
  0
LINE
  5
114
330
1F
100
AcDbEntity
  8
MAKE2D$VISIBLE$CURVES
 62
    18
100
AcDbLine
 10
851.0638303183398
 20
3461.98161162029
 30
0.0
 11
851.0638303183398
 21
3418.68000000116
 31
0.0
  0
LINE
  5
115
330
1F
100
AcDbEntity
  8
MAKE2D$VISIBLE$CURVES
 62
    18
100
AcDbLine
 10
945.5638303183398
 20
3580.98
 30
0.0
 11
945.5638303183398
 21
3891.973572488156
 31
0.0
  0
LINE
  5
116
330
1F
100
AcDbEntity
  8
MAKE2D$VISIBLE$CURVES
 62
    18
100
AcDbLine
 10
1598.06383031834
 20
3500.98
 30
0.0
 11
841.0638303183398
 21
3500.98
 31
0.0
  0
LINE
  5
117
330
1F
100
AcDbEntity
  8
MAKE2D$VISIBLE$CURVES
 62
    18
100
AcDbLine
 10
841.0638303183398
 20
3463.98
 30
0.0
 11
841.0638303183398
 21
3500.98
 31
0.0
  0
LINE
  5
118
330
1F
100
AcDbEntity
  8
MAKE2D$VISIBLE$CURVES
 62
    18
100
AcDbLine
 10
843.0638303183398
 20
3461.98
 30
0.0
 11
1596.06383031834
 21
3461.98
 31
0.0
  0
ARC
  5
119
330
1F
100
AcDbEntity
  8
MAKE2D$VISIBLE$CURVES
 62
    18
100
AcDbCircle
 10
-843.0638306445421
 20
3463.980000326202
 30
0.0
 40
2.000000326202125
210
0.0
220
0.0
230
-1.0
100
AcDbArc
 50
270.0000093450067
 51
359.9999906549998
  0
LINE
  5
11A
330
1F
100
AcDbEntity
  8
MAKE2D$VISIBLE$CURVES
 62
    18
100
AcDbLine
 10
1598.06383031834
 20
3463.98
 30
0.0
 11
1598.06383031834
 21
3500.98
 31
0.0
  0
ARC
  5
11B
330
1F
100
AcDbEntity
  8
MAKE2D$VISIBLE$CURVES
 62
    18
100
AcDbCircle
 10
1596.063829992137
 20
3463.980000326203
 30
0.0
 40
2.000000326203489
100
AcDbArc
 50
270.0000093450263
 51
359.9999906549607
  0
LINE
  5
11C
330
1F
100
AcDbEntity
  8
MAKE2D$VISIBLE$CURVES
 62
    18
100
AcDbLine
 10
1598.56383031834
 20
3477.98
 30
0.0
 11
1598.56383031834
 21
3463.98
 31
0.0
  0
LINE
  5
11D
330
1F
100
AcDbEntity
  8
MAKE2D$VISIBLE$CURVES
 62
    18
100
AcDbLine
 10
840.5638303183398
 20
3463.98
 30
0.0
 11
840.5638303183398
 21
3477.98
 31
0.0
  0
LINE
  5
11E
330
1F
100
AcDbEntity
  8
MAKE2D$VISIBLE$CURVES
 62
    18
100
AcDbLine
 10
1528.06383031834
 20
3461.98
 30
0.0
 11
1528.06383031834
 21
3421.01486616319
 31
0.0
  0
LINE
  5
11F
330
1F
100
AcDbEntity
  8
MAKE2D$VISIBLE$CURVES
 62
    18
100
AcDbLine
 10
1528.46383031834
 20
3406.0
 30
0.0
 11
1528.46383031834
 21
3418.68000000753
 31
0.0
  0
LINE
  5
120
330
1F
100
AcDbEntity
  8
MAKE2D$VISIBLE$CURVES
 62
    18
100
AcDbLine
 10
1588.06383031834
 20
3406.0
 30
0.0
 11
1588.06383031834
 21
3418.68000000116
 31
0.0
  0
LINE
  5
121
330
1F
100
AcDbEntity
  8
MAKE2D$VISIBLE$CURVES
 62
    18
100
AcDbLine
 10
1528.06383031834
 20
3421.01486616319
 30
0.0
 11
1528.06383031834
 21
3406.18
 31
0.0
  0
LINE
  5
122
330
1F
100
AcDbEntity
  8
MAKE2D$VISIBLE$CURVES
 62
    18
100
AcDbLine
 10
911.0638303183398
 20
3421.01486616319
 30
0.0
 11
911.0638303183398
 21
3406.18
 31
0.0
  0
LINE
  5
123
330
1F
100
AcDbEntity
  8
MAKE2D$VISIBLE$CURVES
 62
    18
100
AcDbLine
 10
911.0638303183398
 20
3463.68
 30
0.0
 11
911.0638303183398
 21
3421.01486616319
 31
0.0
  0
LINE
  5
124
330
1F
100
AcDbEntity
  8
MAKE2D$VISIBLE$CURVES
 62
    18
100
AcDbLine
 10
851.0638303183398
 20
3418.68000000116
 30
0.0
 11
851.0638303183398
 21
3406.0
 31
0.0
  0
LINE
  5
125
330
1F
100
AcDbEntity
  8
MAKE2D$VISIBLE$CURVES
 62
    18
100
AcDbLine
 10
910.6638303183398
 20
3406.0
 30
0.0
 11
910.6638303184399
 21
3418.68000000753
 31
0.0
  0
LINE
  5
126
330
1F
100
AcDbEntity
  8
MAKE2D$VISIBLE$CURVES
 62
    18
100
AcDbLine
 10
1493.56383031834
 20
3891.98
 30
0.0
 11
1493.56383031834
 21
3517.89500891988
 31
0.0
  0
LINE
  5
127
330
1F
100
AcDbEntity
  8
MAKE2D$VISIBLE$CURVES
 62
    18
100
AcDbLine
 10
945.5638303183398
 20
4028.98
 30
0.0
 11
1493.56383031834
 21
4028.98
 31
0.0
  0
LINE
  5
128
330
1F
100
AcDbEntity
  8
MAKE2D$VISIBLE$CURVES
 62
    18
100
AcDbLine
 10
945.5638303183398
 20
3517.89500891988
 30
0.0
 11
945.5638303183398
 21
3891.98
 31
0.0
  0
LINE
  5
129
330
1F
100
AcDbEntity
  8
MAKE2D$VISIBLE$CURVES
 62
    18
100
AcDbLine
 10
1528.06383031834
 20
2558.273861867739
 30
0.0
 11
911.0638303183398
 21
2558.273861867739
 31
0.0
  0
LINE
  5
12A
330
1F
100
AcDbEntity
  8
MAKE2D$VISIBLE$CURVES
 62
    18
100
AcDbLine
 10
1528.06383031834
 20
2583.27386186774
 30
0.0
 11
1528.06383031834
 21
2570.773861867739
 31
0.0
  0
LINE
  5
12B
330
1F
100
AcDbEntity
  8
MAKE2D$VISIBLE$CURVES
 62
    18
100
AcDbLine
 10
911.0638303183398
 20
2583.27386186774
 30
0.0
 11
911.0638303183398
 21
2570.773861867739
 31
0.0
  0
LINE
  5
12C
330
1F
100
AcDbEntity
  8
MAKE2D$VISIBLE$CURVES
 62
    18
100
AcDbLine
 10
911.0638303183398
 20
2583.273861867739
 30
0.0
 11
1528.06383031834
 21
2583.273861867739
 31
0.0
  0
LINE
  5
12D
330
1F
100
AcDbEntity
  8
MAKE2D$VISIBLE$CURVES
 62
    18
100
AcDbLine
 10
1598.06383031834
 20
2713.56383031834
 30
0.0
 11
1598.06383031834
 21
2613.56383031834
 31
0.0
  0
LINE
  5
12E
330
1F
100
AcDbEntity
  8
MAKE2D$VISIBLE$CURVES
 62
    18
100
AcDbLine
 10
841.0638303183398
 20
2613.56383031834
 30
0.0
 11
841.0638303183398
 21
2713.56383031834
 31
0.0
  0
LINE
  5
12F
330
1F
100
AcDbEntity
  8
MAKE2D$VISIBLE$CURVES
 62
    18
100
AcDbLine
 10
911.0638303183398
 20
2558.30883307374
 30
0.0
 11
911.0638303183398
 21
2545.86827242644
 31
0.0
  0
LINE
  5
130
330
1F
100
AcDbEntity
  8
MAKE2D$VISIBLE$CURVES
 62
    18
100
AcDbLine
 10
911.0638303183398
 20
2570.773861867739
 30
0.0
 11
911.0638303183398
 21
2558.30883307374
 31
0.0
  0
LINE
  5
131
330
1F
100
AcDbEntity
  8
MAKE2D$VISIBLE$CURVES
 62
    18
100
AcDbLine
 10
1528.06383031834
 20
2558.30883308114
 30
0.0
 11
1528.06383031834
 21
2545.86827242644
 31
0.0
  0
LINE
  5
132
330
1F
100
AcDbEntity
  8
MAKE2D$VISIBLE$CURVES
 62
    18
100
AcDbLine
 10
1528.06383031834
 20
2570.773861867739
 30
0.0
 11
1528.06383031834
 21
2558.30883308114
 31
0.0
  0
LINE
  5
133
330
1F
100
AcDbEntity
  8
MAKE2D$VISIBLE$CURVES
 62
    18
100
AcDbLine
 10
841.5638303183398
 20
2594.56383031834
 30
0.0
 11
840.5638303183398
 21
2594.56383031834
 31
0.0
  0
LINE
  5
134
330
1F
100
AcDbEntity
  8
MAKE2D$VISIBLE$CURVES
 62
    18
100
AcDbLine
 10
840.5638303183398
 20
2598.56383031834
 30
0.0
 11
841.5638303183398
 21
2598.56383031834
 31
0.0
  0
LINE
  5
135
330
1F
100
AcDbEntity
  8
MAKE2D$VISIBLE$CURVES
 62
    18
100
AcDbLine
 10
1597.56383031834
 20
2598.56383031834
 30
0.0
 11
1598.56383031834
 21
2598.56383031834
 31
0.0
  0
LINE
  5
136
330
1F
100
AcDbEntity
  8
MAKE2D$VISIBLE$CURVES
 62
    18
100
AcDbLine
 10
1598.56383031834
 20
2594.56383031834
 30
0.0
 11
1597.56383031834
 21
2594.56383031834
 31
0.0
  0
LINE
  5
137
330
1F
100
AcDbEntity
  8
MAKE2D$VISIBLE$CURVES
 62
    18
100
AcDbLine
 10
841.0638303183398
 20
2594.56383031834
 30
0.0
 11
841.0638303183398
 21
2259.56383031834
 31
0.0
  0
LINE
  5
138
330
1F
100
AcDbEntity
  8
MAKE2D$VISIBLE$CURVES
 62
    18
100
AcDbLine
 10
1597.562501238088
 20
2594.56383031834
 30
0.0
 11
1518.06383031834
 21
2594.56383031834
 31
0.0
  0
LINE
  5
139
330
1F
100
AcDbEntity
  8
MAKE2D$VISIBLE$CURVES
 62
    18
100
AcDbLine
 10
1597.56383031834
 20
2594.56383031834
 30
0.0
 11
841.5638303183398
 21
2594.56383031834
 31
0.0
  0
LINE
  5
13A
330
1F
100
AcDbEntity
  8
MAKE2D$VISIBLE$CURVES
 62
    18
100
AcDbLine
 10
1509.06383031834
 20
2583.273861867739
 30
0.0
 11
1509.06383031834
 21
2594.56383031834
 31
0.0
  0
LINE
  5
13B
330
1F
100
AcDbEntity
  8
MAKE2D$VISIBLE$CURVES
 62
    18
100
AcDbLine
 10
921.0638303184269
 20
2583.27415682227
 30
0.0
 11
921.0638303183398
 21
2594.56383031834
 31
0.0
  0
LINE
  5
13C
330
1F
100
AcDbEntity
  8
MAKE2D$VISIBLE$CURVES
 62
    18
100
AcDbLine
 10
930.0638303183551
 20
2583.275193498554
 30
0.0
 11
930.0638303183398
 21
2594.56383031834
 31
0.0
  0
LINE
  5
13D
330
1F
100
AcDbEntity
  8
MAKE2D$VISIBLE$CURVES
 62
    18
100
AcDbLine
 10
1518.06383031834
 20
2594.56383031834
 30
0.0
 11
1518.06383031834
 21
2583.273861867739
 31
0.0
  0
LINE
  5
13E
330
1F
100
AcDbEntity
  8
MAKE2D$VISIBLE$CURVES
 62
    18
100
AcDbLine
 10
1598.06383031834
 20
2259.56383031834
 30
0.0
 11
841.0638303183398
 21
2259.56383031834
 31
0.0
  0
LINE
  5
13F
330
1F
100
AcDbEntity
  8
MAKE2D$VISIBLE$CURVES
 62
    18
100
AcDbLine
 10
1598.06383031834
 20
2594.56383031834
 30
0.0
 11
1598.06383031834
 21
2259.56383031834
 31
0.0
  0
LINE
  5
140
330
1F
100
AcDbEntity
  8
MAKE2D$VISIBLE$CURVES
 62
    18
100
AcDbLine
 10
1598.06383031834
 20
2713.56383031834
 30
0.0
 11
841.0638303183398
 21
2713.56383031834
 31
0.0
  0
LINE
  5
141
330
1F
100
AcDbEntity
  8
MAKE2D$VISIBLE$CURVES
 62
    18
100
AcDbLine
 10
1598.06383031834
 20
2613.56383031834
 30
0.0
 11
841.0638303183398
 21
2613.56383031834
 31
0.0
  0
LINE
  5
142
330
1F
100
AcDbEntity
  8
MAKE2D$VISIBLE$CURVES
 62
    18
100
AcDbLine
 10
1598.06383031834
 20
2613.56383031834
 30
0.0
 11
1598.06383031834
 21
2598.571925773836
 31
0.0
  0
LINE
  5
143
330
1F
100
AcDbEntity
  8
MAKE2D$VISIBLE$CURVES
 62
    18
100
AcDbLine
 10
1518.06383031834
 20
2558.273861867739
 30
0.0
 11
1518.06383031834
 21
2374.06383031804
 31
0.0
  0
LINE
  5
144
330
1F
100
AcDbEntity
  8
MAKE2D$VISIBLE$CURVES
 62
    18
100
AcDbLine
 10
1598.06383031834
 20
2259.561945217796
 30
0.0
 11
1598.06383031834
 21
2246.56383031834
 31
0.0
  0
LINE
  5
145
330
1F
100
AcDbEntity
  8
MAKE2D$VISIBLE$CURVES
 62
    18
100
AcDbLine
 10
841.0638303183398
 20
2598.56383031834
 30
0.0
 11
841.0638303183398
 21
2613.56383031834
 31
0.0
  0
LINE
  5
146
330
1F
100
AcDbEntity
  8
MAKE2D$VISIBLE$CURVES
 62
    18
100
AcDbLine
 10
910.6638303183398
 20
2583.45386186774
 30
0.0
 11
911.0638303183398
 21
2583.05386186774
 31
0.0
  0
LINE
  5
147
330
1F
100
AcDbEntity
  8
MAKE2D$VISIBLE$CURVES
 62
    18
100
AcDbLine
 10
1528.06383031834
 20
2583.05386186774
 30
0.0
 11
1528.46383031834
 21
2583.45386186774
 31
0.0
  0
LINE
  5
148
330
1F
100
AcDbEntity
  8
MAKE2D$VISIBLE$CURVES
 62
    18
100
AcDbLine
 10
1528.46383031834
 20
2583.45386186774
 30
0.0
 11
1588.06383031834
 21
2583.45386186774
 31
0.0
  0
LINE
  5
149
330
1F
100
AcDbEntity
  8
MAKE2D$VISIBLE$CURVES
 62
    18
100
AcDbLine
 10
840.5638303183398
 20
2594.56383031834
 30
0.0
 11
840.5638303183398
 21
2598.56383031834
 31
0.0
  0
LINE
  5
14A
330
1F
100
AcDbEntity
  8
MAKE2D$VISIBLE$CURVES
 62
    18
100
AcDbLine
 10
1598.56383031834
 20
2598.56383031834
 30
0.0
 11
1598.56383031834
 21
2594.56383031834
 31
0.0
  0
LINE
  5
14B
330
1F
100
AcDbEntity
  8
MAKE2D$VISIBLE$CURVES
 62
    18
100
AcDbLine
 10
910.6638303184398
 20
2583.45386186774
 30
0.0
 11
851.0638303183398
 21
2583.45386186774
 31
0.0
  0
LINE
  5
14C
330
1F
100
AcDbEntity
  8
MAKE2D$VISIBLE$CURVES
 62
    18
100
AcDbLine
 10
851.0638303183398
 20
2570.773861867739
 30
0.0
 11
851.0638303183398
 21
2558.45386186754
 31
0.0
  0
LINE
  5
14D
330
1F
100
AcDbEntity
  8
MAKE2D$VISIBLE$CURVES
 62
    18
100
AcDbLine
 10
851.0638303183398
 20
2583.45386186774
 30
0.0
 11
851.0638303183398
 21
2570.773861867739
 31
0.0
  0
LINE
  5
14E
330
1F
100
AcDbEntity
  8
MAKE2D$VISIBLE$CURVES
 62
    18
100
AcDbLine
 10
851.0638303183398
 20
2545.45386186774
 30
0.0
 11
851.0638303183398
 21
2558.45386186754
 31
0.0
  0
LINE
  5
14F
330
1F
100
AcDbEntity
  8
MAKE2D$VISIBLE$CURVES
 62
    18
100
AcDbLine
 10
1588.06383031834
 20
2558.45386186774
 30
0.0
 11
1588.06383031834
 21
2545.45386186774
 31
0.0
  0
LINE
  5
150
330
1F
100
AcDbEntity
  8
MAKE2D$VISIBLE$CURVES
 62
    18
100
AcDbLine
 10
1588.06383031834
 20
2570.773861867739
 30
0.0
 11
1588.06383031834
 21
2583.45386186774
 31
0.0
  0
LINE
  5
151
330
1F
100
AcDbEntity
  8
MAKE2D$VISIBLE$CURVES
 62
    18
100
AcDbLine
 10
1588.06383031834
 20
2558.45386186774
 30
0.0
 11
1588.06383031834
 21
2570.773861867739
 31
0.0
  0
ARC
  5
152
330
1F
100
AcDbEntity
  8
MAKE2D$VISIBLE$CURVES
 62
    18
100
AcDbCircle
 10
932.0638303183393
 20
2374.063830318039
 30
0.0
 40
1.999999999699526
100
AcDbArc
 50
179.9999988970353
 51
269.9999999942842
  0
LINE
  5
153
330
1F
100
AcDbEntity
  8
MAKE2D$VISIBLE$CURVES
 62
    18
100
AcDbLine
 10
1507.06383025714
 20
2363.06383032005
 30
0.0
 11
932.0638303180398
 21
2363.06383031834
 31
0.0
  0
LINE
  5
154
330
1F
100
AcDbEntity
  8
MAKE2D$VISIBLE$CURVES
 62
    18
100
AcDbLine
 10
841.5638303183398
 20
2598.56383031834
 30
0.0
 11
1597.56383031834
 21
2598.56383031834
 31
0.0
  0
LINE
  5
155
330
1F
100
AcDbEntity
  8
MAKE2D$VISIBLE$CURVES
 62
    18
100
AcDbLine
 10
840.5638303183398
 20
2590.56383031834
 30
0.0
 11
840.5638303183398
 21
2589.56383031834
 31
0.0
  0
LINE
  5
156
330
1F
100
AcDbEntity
  8
MAKE2D$VISIBLE$CURVES
 62
    18
100
AcDbLine
 10
840.5638303183398
 20
2590.56383031834
 30
0.0
 11
841.0638303183398
 21
2590.56383031834
 31
0.0
  0
LINE
  5
157
330
1F
100
AcDbEntity
  8
MAKE2D$VISIBLE$CURVES
 62
    18
100
AcDbLine
 10
1598.56383031834
 20
2591.06383031834
 30
0.0
 11
1598.56383031834
 21
2590.56383031834
 31
0.0
  0
LINE
  5
158
330
1F
100
AcDbEntity
  8
MAKE2D$VISIBLE$CURVES
 62
    18
100
AcDbLine
 10
840.5638303183398
 20
2590.56383031834
 30
0.0
 11
840.5638303183398
 21
2591.06383031834
 31
0.0
  0
LINE
  5
159
330
1F
100
AcDbEntity
  8
MAKE2D$VISIBLE$CURVES
 62
    18
100
AcDbLine
 10
840.5638303183398
 20
2594.06383031834
 30
0.0
 11
840.5638303183398
 21
2591.06383031834
 31
0.0
  0
LINE
  5
15A
330
1F
100
AcDbEntity
  8
MAKE2D$VISIBLE$CURVES
 62
    18
100
AcDbLine
 10
840.5638303183398
 20
2594.06383031834
 30
0.0
 11
840.5638303183398
 21
2594.56383031834
 31
0.0
  0
LINE
  5
15B
330
1F
100
AcDbEntity
  8
MAKE2D$VISIBLE$CURVES
 62
    18
100
AcDbLine
 10
1598.56383031834
 20
2594.56383031834
 30
0.0
 11
1598.56383031834
 21
2594.06383031834
 31
0.0
  0
LINE
  5
15C
330
1F
100
AcDbEntity
  8
MAKE2D$VISIBLE$CURVES
 62
    18
100
AcDbLine
 10
932.0638303181398
 20
2372.06383031834
 30
0.0
 11
1507.06383032344
 21
2372.06383031834
 31
0.0
  0
ARC
  5
15D
330
1F
100
AcDbEntity
  8
MAKE2D$VISIBLE$CURVES
 62
    18
100
AcDbCircle
 10
1507.06383031834
 20
2374.06383031834
 30
0.0
 40
2.0
100
AcDbArc
 50
270.0000001461106
 51
359.9999999971209
  0
LINE
  5
15E
330
1F
100
AcDbEntity
  8
MAKE2D$VISIBLE$CURVES
 62
    18
100
AcDbLine
 10
1509.06383031834
 20
2374.06383031824
 30
0.0
 11
1509.06383031834
 21
2558.273861867739
 31
0.0
  0
LINE
  5
15F
330
1F
100
AcDbEntity
  8
MAKE2D$VISIBLE$CURVES
 62
    18
100
AcDbLine
 10
921.0638303200399
 20
2374.06383045264
 30
0.0
 11
921.0638303186196
 21
2558.273861867739
 31
0.0
  0
LINE
  5
160
330
1F
100
AcDbEntity
  8
MAKE2D$VISIBLE$CURVES
 62
    18
100
AcDbLine
 10
930.0638303186398
 20
2374.06383035654
 30
0.0
 11
930.0638303183891
 21
2558.273861867739
 31
0.0
  0
LINE
  5
161
330
1F
100
AcDbEntity
  8
MAKE2D$VISIBLE$CURVES
 62
    18
100
AcDbLine
 10
911.0638303183398
 20
2545.86827242644
 30
0.0
 11
910.6638303183398
 21
2545.45386186774
 31
0.0
  0
LINE
  5
162
330
1F
100
AcDbEntity
  8
MAKE2D$VISIBLE$CURVES
 62
    18
100
AcDbLine
 10
910.6638303183398
 20
2545.45386186774
 30
0.0
 11
851.0638303183398
 21
2545.45386186774
 31
0.0
  0
LINE
  5
163
330
1F
100
AcDbEntity
  8
MAKE2D$VISIBLE$CURVES
 62
    18
100
AcDbLine
 10
1588.06383031834
 20
2545.45386186774
 30
0.0
 11
1528.46383031834
 21
2545.45386186774
 31
0.0
  0
LINE
  5
164
330
1F
100
AcDbEntity
  8
MAKE2D$VISIBLE$CURVES
 62
    18
100
AcDbLine
 10
1528.46383031834
 20
2545.45386186774
 30
0.0
 11
1528.06383031834
 21
2545.86827242644
 31
0.0
  0
ARC
  5
165
330
1F
100
AcDbEntity
  8
MAKE2D$VISIBLE$CURVES
 62
    18
100
AcDbCircle
 10
-1507.063830320049
 20
2374.063830318341
 30
0.0
 40
10.99999999829106
210
0.0
220
0.0
230
-1.0
100
AcDbArc
 50
180.000000001568
 51
270.0000003276749
  0
ARC
  5
166
330
1F
100
AcDbEntity
  8
MAKE2D$VISIBLE$CURVES
 62
    18
100
AcDbCircle
 10
-932.0638303183391
 20
2374.063830316639
 30
0.0
 40
10.99999999829924
210
0.0
220
0.0
230
-1.0
100
AcDbArc
 50
270.0000000015592
 51
0.000000708388535
  0
LINE
  5
167
330
1F
100
AcDbEntity
  8
MAKE2D$VISIBLE$CURVES
 62
    18
100
AcDbLine
 10
1598.56383031834
 20
2590.56383031834
 30
0.0
 11
1598.06383031834
 21
2590.56383031834
 31
0.0
  0
LINE
  5
168
330
1F
100
AcDbEntity
  8
MAKE2D$VISIBLE$CURVES
 62
    18
100
AcDbLine
 10
1598.56383031834
 20
2594.06383031834
 30
0.0
 11
1598.56383031834
 21
2591.06383031834
 31
0.0
  0
LINE
  5
169
330
1F
100
AcDbEntity
  8
MAKE2D$VISIBLE$CURVES
 62
    18
100
AcDbLine
 10
1598.56383031834
 20
2590.56383031834
 30
0.0
 11
1598.56383031834
 21
2589.56383031834
 31
0.0
  0
LINE
  5
16A
330
1F
100
AcDbEntity
  8
MAKE2D$VISIBLE$CURVES
 62
    18
100
AcDbLine
 10
1598.56383031834
 20
2589.56383031834
 30
0.0
 11
1598.06383031834
 21
2589.56383031834
 31
0.0
  0
LINE
  5
16B
330
1F
100
AcDbEntity
  8
MAKE2D$VISIBLE$CURVES
 62
    18
100
AcDbLine
 10
841.0638303183398
 20
2589.56383031834
 30
0.0
 11
840.5638303183398
 21
2589.56383031834
 31
0.0
  0
LINE
  5
16C
330
1F
100
AcDbEntity
  8
MAKE2D$VISIBLE$CURVES
 62
    18
100
AcDbLine
 10
1134.56383031834
 20
2698.56383031834
 30
0.0
 11
1304.56383031834
 21
2698.56383031834
 31
0.0
  0
LINE
  5
16D
330
1F
100
AcDbEntity
  8
MAKE2D$VISIBLE$CURVES
 62
    18
100
AcDbLine
 10
1134.56383031834
 20
2698.56383031834
 30
0.0
 11
1132.06383031834
 21
2701.06383031834
 31
0.0
  0
LINE
  5
16E
330
1F
100
AcDbEntity
  8
MAKE2D$VISIBLE$CURVES
 62
    18
100
AcDbLine
 10
1134.56383031834
 20
2628.56383031834
 30
0.0
 11
1134.56383031834
 21
2698.56383031834
 31
0.0
  0
LINE
  5
16F
330
1F
100
AcDbEntity
  8
MAKE2D$VISIBLE$CURVES
 62
    18
100
AcDbLine
 10
1304.56383031834
 20
2628.56383031834
 30
0.0
 11
1134.56383031834
 21
2628.56383031834
 31
0.0
  0
LINE
  5
170
330
1F
100
AcDbEntity
  8
MAKE2D$VISIBLE$CURVES
 62
    18
100
AcDbLine
 10
1134.56383031834
 20
2628.56383031834
 30
0.0
 11
1132.06383031834
 21
2626.06383031834
 31
0.0
  0
LINE
  5
171
330
1F
100
AcDbEntity
  8
MAKE2D$VISIBLE$CURVES
 62
    18
100
AcDbLine
 10
1307.06383031834
 20
2701.06383031834
 30
0.0
 11
1304.56383031834
 21
2698.56383031834
 31
0.0
  0
LINE
  5
172
330
1F
100
AcDbEntity
  8
MAKE2D$VISIBLE$CURVES
 62
    18
100
AcDbLine
 10
1304.56383031834
 20
2698.56383031834
 30
0.0
 11
1304.56383031834
 21
2628.56383031834
 31
0.0
  0
LINE
  5
173
330
1F
100
AcDbEntity
  8
MAKE2D$VISIBLE$CURVES
 62
    18
100
AcDbLine
 10
1304.56383031834
 20
2628.56383031834
 30
0.0
 11
1307.06383031834
 21
2626.06383031834
 31
0.0
  0
LINE
  5
174
330
1F
100
AcDbEntity
  8
MAKE2D$VISIBLE$CURVES
 62
    18
100
AcDbLine
 10
1598.06383031834
 20
2246.56383031834
 30
0.0
 11
841.0638303183398
 21
2246.56383031834
 31
0.0
  0
LINE
  5
175
330
1F
100
AcDbEntity
  8
MAKE2D$VISIBLE$CURVES
 62
    18
100
AcDbLine
 10
1598.06383031834
 20
2243.56383031834
 30
0.0
 11
841.0638303183398
 21
2243.56383031834
 31
0.0
  0
LINE
  5
176
330
1F
100
AcDbEntity
  8
MAKE2D$VISIBLE$CURVES
 62
    18
100
AcDbLine
 10
1598.06383031834
 20
2246.56383031834
 30
0.0
 11
1598.06383031834
 21
2243.56383031834
 31
0.0
  0
LINE
  5
177
330
1F
100
AcDbEntity
  8
MAKE2D$VISIBLE$CURVES
 62
    18
100
AcDbLine
 10
1132.06383031834
 20
2626.06383031834
 30
0.0
 11
1307.06383031834
 21
2626.06383031834
 31
0.0
  0
LINE
  5
178
330
1F
100
AcDbEntity
  8
MAKE2D$VISIBLE$CURVES
 62
    18
100
AcDbLine
 10
1132.06383031834
 20
2701.06383031834
 30
0.0
 11
1132.06383031834
 21
2626.06383031834
 31
0.0
  0
LINE
  5
179
330
1F
100
AcDbEntity
  8
MAKE2D$VISIBLE$CURVES
 62
    18
100
AcDbLine
 10
1307.06383031834
 20
2701.06383031834
 30
0.0
 11
1132.06383031834
 21
2701.06383031834
 31
0.0
  0
LINE
  5
17A
330
1F
100
AcDbEntity
  8
MAKE2D$VISIBLE$CURVES
 62
    18
100
AcDbLine
 10
1307.06383031834
 20
2626.06383031834
 30
0.0
 11
1307.06383031834
 21
2701.06383031834
 31
0.0
  0
LINE
  5
17B
330
1F
100
AcDbEntity
  8
MAKE2D$VISIBLE$CURVES
 62
    18
100
AcDbLine
 10
1454.56383031834
 20
2602.36383031834
 30
0.0
 11
1454.56383031834
 21
2610.36383031834
 31
0.0
  0
LINE
  5
17C
330
1F
100
AcDbEntity
  8
MAKE2D$VISIBLE$CURVES
 62
    18
100
AcDbLine
 10
1404.56383031834
 20
2602.36383031834
 30
0.0
 11
1454.56383031834
 21
2602.36383031834
 31
0.0
  0
LINE
  5
17D
330
1F
100
AcDbEntity
  8
MAKE2D$VISIBLE$CURVES
 62
    18
100
AcDbLine
 10
1404.56383031834
 20
2610.36383031834
 30
0.0
 11
1404.56383031834
 21
2602.36383031834
 31
0.0
  0
LINE
  5
17E
330
1F
100
AcDbEntity
  8
MAKE2D$VISIBLE$CURVES
 62
    18
100
AcDbLine
 10
1454.56383031834
 20
2610.36383031834
 30
0.0
 11
1404.56383031834
 21
2610.36383031834
 31
0.0
  0
LINE
  5
17F
330
1F
100
AcDbEntity
  8
MAKE2D$VISIBLE$CURVES
 62
    18
100
AcDbLine
 10
1394.56383031834
 20
2602.36383031834
 30
0.0
 11
1394.56383031834
 21
2610.36383031834
 31
0.0
  0
LINE
  5
180
330
1F
100
AcDbEntity
  8
MAKE2D$VISIBLE$CURVES
 62
    18
100
AcDbLine
 10
1344.56383031834
 20
2602.36383031834
 30
0.0
 11
1394.56383031834
 21
2602.36383031834
 31
0.0
  0
LINE
  5
181
330
1F
100
AcDbEntity
  8
MAKE2D$VISIBLE$CURVES
 62
    18
100
AcDbLine
 10
1344.56383031834
 20
2610.36383031834
 30
0.0
 11
1344.56383031834
 21
2602.36383031834
 31
0.0
  0
LINE
  5
182
330
1F
100
AcDbEntity
  8
MAKE2D$VISIBLE$CURVES
 62
    18
100
AcDbLine
 10
1394.56383031834
 20
2610.36383031834
 30
0.0
 11
1344.56383031834
 21
2610.36383031834
 31
0.0
  0
LINE
  5
183
330
1F
100
AcDbEntity
  8
MAKE2D$VISIBLE$CURVES
 62
    18
100
AcDbLine
 10
1334.56383031834
 20
2602.36383031834
 30
0.0
 11
1334.56383031834
 21
2610.36383031834
 31
0.0
  0
LINE
  5
184
330
1F
100
AcDbEntity
  8
MAKE2D$VISIBLE$CURVES
 62
    18
100
AcDbLine
 10
1284.56383031834
 20
2602.36383031834
 30
0.0
 11
1334.56383031834
 21
2602.36383031834
 31
0.0
  0
LINE
  5
185
330
1F
100
AcDbEntity
  8
MAKE2D$VISIBLE$CURVES
 62
    18
100
AcDbLine
 10
1284.56383031834
 20
2610.36383031834
 30
0.0
 11
1284.56383031834
 21
2602.36383031834
 31
0.0
  0
LINE
  5
186
330
1F
100
AcDbEntity
  8
MAKE2D$VISIBLE$CURVES
 62
    18
100
AcDbLine
 10
1334.56383031834
 20
2610.36383031834
 30
0.0
 11
1284.56383031834
 21
2610.36383031834
 31
0.0
  0
LINE
  5
187
330
1F
100
AcDbEntity
  8
MAKE2D$VISIBLE$CURVES
 62
    18
100
AcDbLine
 10
1274.56383031834
 20
2602.36383031834
 30
0.0
 11
1274.56383031834
 21
2610.36383031834
 31
0.0
  0
LINE
  5
188
330
1F
100
AcDbEntity
  8
MAKE2D$VISIBLE$CURVES
 62
    18
100
AcDbLine
 10
1224.56383031834
 20
2602.36383031834
 30
0.0
 11
1274.56383031834
 21
2602.36383031834
 31
0.0
  0
LINE
  5
189
330
1F
100
AcDbEntity
  8
MAKE2D$VISIBLE$CURVES
 62
    18
100
AcDbLine
 10
1224.56383031834
 20
2610.36383031834
 30
0.0
 11
1224.56383031834
 21
2602.36383031834
 31
0.0
  0
LINE
  5
18A
330
1F
100
AcDbEntity
  8
MAKE2D$VISIBLE$CURVES
 62
    18
100
AcDbLine
 10
1274.56383031834
 20
2610.36383031834
 30
0.0
 11
1224.56383031834
 21
2610.36383031834
 31
0.0
  0
LINE
  5
18B
330
1F
100
AcDbEntity
  8
MAKE2D$VISIBLE$CURVES
 62
    18
100
AcDbLine
 10
1034.56383031834
 20
2602.36383031834
 30
0.0
 11
1034.56383031834
 21
2610.36383031834
 31
0.0
  0
LINE
  5
18C
330
1F
100
AcDbEntity
  8
MAKE2D$VISIBLE$CURVES
 62
    18
100
AcDbLine
 10
984.5638303183398
 20
2602.36383031834
 30
0.0
 11
1034.56383031834
 21
2602.36383031834
 31
0.0
  0
LINE
  5
18D
330
1F
100
AcDbEntity
  8
MAKE2D$VISIBLE$CURVES
 62
    18
100
AcDbLine
 10
984.5638303183398
 20
2610.36383031834
 30
0.0
 11
984.5638303183398
 21
2602.36383031834
 31
0.0
  0
LINE
  5
18E
330
1F
100
AcDbEntity
  8
MAKE2D$VISIBLE$CURVES
 62
    18
100
AcDbLine
 10
1034.56383031834
 20
2610.36383031834
 30
0.0
 11
984.5638303183398
 21
2610.36383031834
 31
0.0
  0
LINE
  5
18F
330
1F
100
AcDbEntity
  8
MAKE2D$VISIBLE$CURVES
 62
    18
100
AcDbLine
 10
1094.56383031834
 20
2602.36383031834
 30
0.0
 11
1094.56383031834
 21
2610.36383031834
 31
0.0
  0
LINE
  5
190
330
1F
100
AcDbEntity
  8
MAKE2D$VISIBLE$CURVES
 62
    18
100
AcDbLine
 10
1044.56383031834
 20
2602.36383031834
 30
0.0
 11
1094.56383031834
 21
2602.36383031834
 31
0.0
  0
LINE
  5
191
330
1F
100
AcDbEntity
  8
MAKE2D$VISIBLE$CURVES
 62
    18
100
AcDbLine
 10
1044.56383031834
 20
2610.36383031834
 30
0.0
 11
1044.56383031834
 21
2602.36383031834
 31
0.0
  0
LINE
  5
192
330
1F
100
AcDbEntity
  8
MAKE2D$VISIBLE$CURVES
 62
    18
100
AcDbLine
 10
1094.56383031834
 20
2610.36383031834
 30
0.0
 11
1044.56383031834
 21
2610.36383031834
 31
0.0
  0
LINE
  5
193
330
1F
100
AcDbEntity
  8
MAKE2D$VISIBLE$CURVES
 62
    18
100
AcDbLine
 10
1154.56383031834
 20
2602.36383031834
 30
0.0
 11
1154.56383031834
 21
2610.36383031834
 31
0.0
  0
LINE
  5
194
330
1F
100
AcDbEntity
  8
MAKE2D$VISIBLE$CURVES
 62
    18
100
AcDbLine
 10
1104.56383031834
 20
2602.36383031834
 30
0.0
 11
1154.56383031834
 21
2602.36383031834
 31
0.0
  0
LINE
  5
195
330
1F
100
AcDbEntity
  8
MAKE2D$VISIBLE$CURVES
 62
    18
100
AcDbLine
 10
1104.56383031834
 20
2610.36383031834
 30
0.0
 11
1104.56383031834
 21
2602.36383031834
 31
0.0
  0
LINE
  5
196
330
1F
100
AcDbEntity
  8
MAKE2D$VISIBLE$CURVES
 62
    18
100
AcDbLine
 10
1154.56383031834
 20
2610.36383031834
 30
0.0
 11
1104.56383031834
 21
2610.36383031834
 31
0.0
  0
LINE
  5
197
330
1F
100
AcDbEntity
  8
MAKE2D$VISIBLE$CURVES
 62
    18
100
AcDbLine
 10
1214.56383031834
 20
2602.36383031834
 30
0.0
 11
1214.56383031834
 21
2610.36383031834
 31
0.0
  0
LINE
  5
198
330
1F
100
AcDbEntity
  8
MAKE2D$VISIBLE$CURVES
 62
    18
100
AcDbLine
 10
1164.56383031834
 20
2602.36383031834
 30
0.0
 11
1214.56383031834
 21
2602.36383031834
 31
0.0
  0
LINE
  5
199
330
1F
100
AcDbEntity
  8
MAKE2D$VISIBLE$CURVES
 62
    18
100
AcDbLine
 10
1164.56383031834
 20
2610.36383031834
 30
0.0
 11
1164.56383031834
 21
2602.36383031834
 31
0.0
  0
LINE
  5
19A
330
1F
100
AcDbEntity
  8
MAKE2D$VISIBLE$CURVES
 62
    18
100
AcDbLine
 10
1214.56383031834
 20
2610.36383031834
 30
0.0
 11
1164.56383031834
 21
2610.36383031834
 31
0.0
  0
LINE
  5
19B
330
1F
100
AcDbEntity
  8
MAKE2D$VISIBLE$CURVES
 62
    18
100
AcDbLine
 10
841.0638303183398
 20
2243.56383031834
 30
0.0
 11
841.0638303183398
 21
2246.56383031834
 31
0.0
  0
LINE
  5
19C
330
1F
100
AcDbEntity
  8
MAKE2D$VISIBLE$CURVES
 62
    18
100
AcDbLine
 10
841.0638303183398
 20
2246.56383031834
 30
0.0
 11
841.0638303183398
 21
2259.564712576304
 31
0.0
  0
LINE
  5
19D
330
1F
100
AcDbEntity
  8
MAKE2D$VISIBLE$CURVES
 62
     6
100
AcDbLine
 10
2460.071641398346
 20
2250.989297567413
 30
0.0
 11
2126.275105173968
 21
2262.645729466034
 31
0.0
  0
LINE
  5
19E
330
1F
100
AcDbEntity
  8
MAKE2D$VISIBLE$CURVES
 62
     6
100
AcDbLine
 10
2461.14432116844
 20
2253.053118807451
 30
0.0
 11
2459.93539336201
 21
2254.757448526545
 31
0.0
  0
LINE
  5
19F
330
1F
100
AcDbEntity
  8
MAKE2D$VISIBLE$CURVES
 62
     1
100
AcDbLine
 10
3047.864815807746
 20
2885.136532372395
 30
0.0
 11
3047.864815807746
 21
2703.65243295283
 31
0.0
  0
LINE
  5
1A0
330
1F
100
AcDbEntity
  8
MAKE2D$VISIBLE$CURVES
 62
     1
100
AcDbLine
 10
2997.864815807746
 20
2885.136532372395
 30
0.0
 11
2997.864815807746
 21
2703.65243295283
 31
0.0
  0
POLYLINE
  5
1A1
330
1F
100
AcDbEntity
  8
MAKE2D$VISIBLE$CURVES
 62
     1
100
AcDb2dPolyline
 66
     1
 10
0.0
 20
0.0
 30
0.0
 70
     1
  0
VERTEX
  5
1A2
330
1A1
100
AcDbEntity
  8
MAKE2D$VISIBLE$CURVES
 62
     1
100
AcDbVertex
100
AcDb2dVertex
 10
894.5638303183396
 20
2243.56383031834
 30
0.0
  0
VERTEX
  5
1A3
330
1A1
100
AcDbEntity
  8
MAKE2D$VISIBLE$CURVES
 62
     1
100
AcDbVertex
100
AcDb2dVertex
 10
1544.56383031834
 20
2243.56383031834
 30
0.0
  0
VERTEX
  5
1A4
330
1A1
100
AcDbEntity
  8
MAKE2D$VISIBLE$CURVES
 62
     1
100
AcDbVertex
100
AcDb2dVertex
 10
1544.56383031834
 20
2693.56383031834
 30
0.0
  0
VERTEX
  5
1A5
330
1A1
100
AcDbEntity
  8
MAKE2D$VISIBLE$CURVES
 62
     1
100
AcDbVertex
100
AcDb2dVertex
 10
894.5638303183396
 20
2693.56383031834
 30
0.0
  0
SEQEND
  5
1A6
330
1A1
100
AcDbEntity
  8
MAKE2D$VISIBLE$CURVES
 62
     1
  0
ENDSEC
  0
SECTION
  2
OBJECTS
  0
DICTIONARY
  5
C
330
0
100
AcDbDictionary
  3
ACAD_GROUP
350
D
  3
ACAD_LAYOUT
350
1A
  3
ACAD_MATERIAL
350
43
  3
ACAD_MLEADERSTYLE
350
6B
  3
ACAD_MLINESTYLE
350
17
  3
ACAD_PLOTSETTINGS
350
19
  3
ACAD_SCALELIST
350
47
  3
ACAD_VISUALSTYLE
350
2A
  3
ACDBHEADERROUNDTRIPXREC
350
1BE
  3
ACDBVARIABLEDICTIONARY
350
1DF
  0
DICTIONARY
  5
1E6
330
8
100
AcDbDictionary
280
     1
  3
ACAD_XREC_ROUNDTRIP
360
1E7
  0
DICTIONARY
  5
D
102
{ACAD_REACTORS
330
C
102
}
330
C
100
AcDbDictionary
  0
DICTIONARY
  5
1A
102
{ACAD_REACTORS
330
C
102
}
330
C
100
AcDbDictionary
  0
DICTIONARY
  5
43
102
{ACAD_REACTORS
330
C
102
}
330
C
100
AcDbDictionary
  3
BYBLOCK
350
45
  3
BYLAYER
350
44
  3
GLOBAL
350
46
  0
DICTIONARY
  5
6B
102
{ACAD_REACTORS
330
C
102
}
330
C
100
AcDbDictionary
  3
STANDARD
350
6C
  0
DICTIONARY
  5
17
102
{ACAD_REACTORS
330
C
102
}
330
C
100
AcDbDictionary
  3
STANDARD
350
18
  0
DICTIONARY
  5
19
102
{ACAD_REACTORS
330
C
102
}
330
C
100
AcDbDictionary
  0
DICTIONARY
  5
47
102
{ACAD_REACTORS
330
C
102
}
330
C
100
AcDbDictionary
  3
A0
350
48
  3
A1
350
49
  3
A2
350
4A
  3
A3
350
4B
  3
A4
350
4C
  3
A5
350
4D
  3
A6
350
4E
  3
A7
350
4F
  3
A8
350
50
  3
A9
350
51
  3
B0
350
52
  3
B1
350
53
  3
B2
350
54
  3
B3
350
55
  3
B4
350
56
  3
B5
350
57
  3
B6
350
58
  3
B7
350
59
  3
B8
350
5A
  3
B9
350
5B
  3
C0
350
5C
  3
C1
350
5D
  3
C2
350
5E
  3
C3
350
5F
  3
C4
350
60
  3
C5
350
61
  3
C6
350
62
  3
C7
350
63
  3
C8
350
64
  3
C9
350
65
  3
D0
350
66
  3
D1
350
67
  3
D2
350
68
  0
DICTIONARY
  5
2A
102
{ACAD_REACTORS
330
C
102
}
330
C
100
AcDbDictionary
  3
2DWIREFRAME
350
2F
  3
BASIC
350
32
  3
BRIGHTEN
350
36
  3
COLORCHANGE
350
3A
  3
CONCEPTUAL
350
34
  3
DIM
350
35
  3
EDGECOLOROFF
350
3D
  3
FACEPATTERN
350
39
  3
FLAT
350
2B
  3
FLATWITHEDGES
350
2C
  3
GOURAUD
350
2D
  3
GOURAUDWITHEDGES
350
2E
  3
HIDDEN
350
31
  3
JITTEROFF
350
3B
  3
LINEPATTERN
350
38
  3
OVERHANGOFF
350
3C
  3
REALISTIC
350
33
  3
SHADED
350
42
  3
SHADED_WITH_EDGES
350
41
  3
SHADES_OF_GRAY
350
3E
  3
SKETCHY
350
3F
  3
THICKEN
350
37
  3
WIREFRAME
350
30
  3
X-RAY
350
40
  0
DICTIONARY
  5
1BE
102
{ACAD_REACTORS
330
C
102
}
330
C
100
AcDbDictionary
  3
CEPSNID
350
1C8
  3
CEPSNTYPE
350
1C7
  3
DIMSTYLEDATA
350
1DE
  3
FINGERPRINTGUID
350
1C9
  3
HYPERLINKBASE
350
1C1
  3
INSUNITS
350
1C6
  3
LAYOUTDICT
350
1C3
  3
LWETCUNION
350
1C5
  3
PLOTSETDICT
350
1C4
  3
PSVPSCALE
350
1CB
  3
PUCSBASE
350
1CE
  3
PUCSORGBACK
350
1D4
  3
PUCSORGBOTTOM
350
1D0
  3
PUCSORGFRONT
350
1D3
  3
PUCSORGLEFT
350
1D1
  3
PUCSORGRIGHT
350
1D2
  3
PUCSORGTOP
350
1CF
  3
PUCSORTHOREF
350
1CC
  3
PUCSORTHOVIEW
350
1CD
  3
STYLESHEET
350
1C2
  3
TSTACKALIGN
350
1BF
  3
TSTACKSIZE
350
1C0
  3
UCSBASE
350
1D7
  3
UCSORGBACK
350
1DD
  3
UCSORGBOTTOM
350
1D9
  3
UCSORGFRONT
350
1DC
  3
UCSORGLEFT
350
1DA
  3
UCSORGRIGHT
350
1DB
  3
UCSORGTOP
350
1D8
  3
UCSORTHOREF
350
1D5
  3
UCSORTHOVIEW
350
1D6
  3
VERSIONGUID
350
1CA
  0
DICTIONARY
  5
1DF
102
{ACAD_REACTORS
330
C
102
}
330
C
100
AcDbDictionary
  3
CANNOSCALE
350
1E8
  3
CMLEADERSTYLE
350
1E1
  3
CTABLESTYLE
350
1E0
  3
DIMASSOC
350
1E4
  3
HIDETEXT
350
1E5
  3
MSLTSCALE
350
1E9
  0
XRECORD
  5
1E7
102
{ACAD_REACTORS
330
1E6
102
}
330
1E6
100
AcDbXrecord
102
VTR_0.000_0.000_1.000_1.000_VISUALSTYLE
340
2F
102
VTR_0.000_0.000_1.000_1.000_GRIDDISPLAY
 70
     3
102
VTR_0.000_0.000_1.000_1.000_GRIDMAJOR
 70
     5
102
VTR_0.000_0.000_1.000_1.000_DEFAULTLIGHTING
280
     1
102
VTR_0.000_0.000_1.000_1.000_DEFAULTLIGHTINGTYPE
 70
     1
102
VTR_0.000_0.000_1.000_1.000_BRIGHTNESS
141
0.0
102
VTR_0.000_0.000_1.000_1.000_CONTRAST
142
0.0
  0
MATERIAL
  5
45
102
{ACAD_REACTORS
330
43
102
}
102
{ACAD_XDICTIONARY
360
1EC
102
}
330
43
100
AcDbMaterial
  1
BYBLOCK
  0
MATERIAL
  5
44
102
{ACAD_REACTORS
330
43
102
}
102
{ACAD_XDICTIONARY
360
1EA
102
}
330
43
100
AcDbMaterial
  1
BYLAYER
  0
MATERIAL
  5
46
102
{ACAD_REACTORS
330
43
102
}
102
{ACAD_XDICTIONARY
360
1EE
102
}
330
43
100
AcDbMaterial
  1
GLOBAL
  0
ACAD_PROXY_OBJECT
  5
6C
102
{ACAD_REACTORS
330
6B
102
}
330
6B
100
AcDbProxyObject
 90
      499
 91
      505
 93
      610
310
40901902A4063FBFFFFFE056BD1B81E855B9FC0AD7A3703D0AD73F4214DD185B99185C9900AD7A3703D0AC73F90141901A02B5E8DC0F42B1CFC02B5E8DC0F42B1CFE5764000000000000300FC0
340
14
340
0
340
11
340
0
 94
        0
1001
ACAD_MLEADERVER
1070
     2
  0
MLINESTYLE
  5
18
102
{ACAD_REACTORS
330
17
102
}
330
17
100
AcDbMlineStyle
  2
Standard
 70
     0
  3

 62
   256
 51
90.0
 52
90.0
 71
     2
 49
0.5
 62
   256
  6
BYLAYER
 49
-0.5
 62
   256
  6
BYLAYER
  0
ACAD_PROXY_OBJECT
  5
48
102
{ACAD_REACTORS
330
47
102
}
330
47
100
AcDbProxyObject
 90
      499
 91
      503
 93
       41
310
903313A31580
  0
ACAD_PROXY_OBJECT
  5
49
102
{ACAD_REACTORS
330
47
102
}
330
47
100
AcDbProxyObject
 90
      499
 91
      503
 93
      105
310
903313A324000000000000004000
  0
ACAD_PROXY_OBJECT
  5
4A
102
{ACAD_REACTORS
330
47
102
}
330
47
100
AcDbProxyObject
 90
      499
 91
      503
 93
      105
310
903313A344000000000000104000
  0
ACAD_PROXY_OBJECT
  5
4B
102
{ACAD_REACTORS
330
47
102
}
330
47
100
AcDbProxyObject
 90
      499
 91
      503
 93
      105
310
903313A354000000000000144000
  0
ACAD_PROXY_OBJECT
  5
4C
102
{ACAD_REACTORS
330
47
102
}
330
47
100
AcDbProxyObject
 90
      499
 91
      503
 93
      105
310
903313A384000000000000204000
  0
ACAD_PROXY_OBJECT
  5
4D
102
{ACAD_REACTORS
330
47
102
}
330
47
100
AcDbProxyObject
 90
      499
 91
      503
 93
      113
310
904313A31304000000000000244000
  0
ACAD_PROXY_OBJECT
  5
4E
102
{ACAD_REACTORS
330
47
102
}
330
47
100
AcDbProxyObject
 90
      499
 91
      503
 93
      113
310
904313A31364000000000000304000
  0
ACAD_PROXY_OBJECT
  5
4F
102
{ACAD_REACTORS
330
47
102
}
330
47
100
AcDbProxyObject
 90
      499
 91
      503
 93
      113
310
904313A32304000000000000344000
  0
ACAD_PROXY_OBJECT
  5
50
102
{ACAD_REACTORS
330
47
102
}
330
47
100
AcDbProxyObject
 90
      499
 91
      503
 93
      113
310
904313A333040000000000003E4000
  0
ACAD_PROXY_OBJECT
  5
51
102
{ACAD_REACTORS
330
47
102
}
330
47
100
AcDbProxyObject
 90
      499
 91
      503
 93
      113
310
904313A34304000000000000444000
  0
ACAD_PROXY_OBJECT
  5
52
102
{ACAD_REACTORS
330
47
102
}
330
47
100
AcDbProxyObject
 90
      499
 91
      503
 93
      113
310
904313A35304000000000000494000
  0
ACAD_PROXY_OBJECT
  5
53
102
{ACAD_REACTORS
330
47
102
}
330
47
100
AcDbProxyObject
 90
      499
 91
      503
 93
      121
310
905313A3130304000000000000594000
  0
ACAD_PROXY_OBJECT
  5
54
102
{ACAD_REACTORS
330
47
102
}
330
47
100
AcDbProxyObject
 90
      499
 91
      503
 93
      105
310
903323A310000000000000010100
  0
ACAD_PROXY_OBJECT
  5
55
102
{ACAD_REACTORS
330
47
102
}
330
47
100
AcDbProxyObject
 90
      499
 91
      503
 93
      105
310
903343A310000000000000410100
  0
ACAD_PROXY_OBJECT
  5
56
102
{ACAD_REACTORS
330
47
102
}
330
47
100
AcDbProxyObject
 90
      499
 91
      503
 93
      105
310
903383A310000000000000810100
  0
ACAD_PROXY_OBJECT
  5
57
102
{ACAD_REACTORS
330
47
102
}
330
47
100
AcDbProxyObject
 90
      499
 91
      503
 93
      113
310
90431303A310000000000000910100
  0
ACAD_PROXY_OBJECT
  5
58
102
{ACAD_REACTORS
330
47
102
}
330
47
100
AcDbProxyObject
 90
      499
 91
      503
 93
      121
310
9053130303A310000000000001650100
  0
ACAD_PROXY_OBJECT
  5
59
102
{ACAD_REACTORS
330
47
102
}
330
47
100
AcDbProxyObject
 90
      499
 91
      503
 93
      257
310
90E312F31323822203D2031272D3022000000000000200FC000000000000284000
  0
ACAD_PROXY_OBJECT
  5
5A
102
{ACAD_REACTORS
330
47
102
}
330
47
100
AcDbProxyObject
 90
      499
 91
      503
 93
      249
310
90D312F363422203D2031272D3022000000000000240FC000000000000284000
  0
ACAD_PROXY_OBJECT
  5
5B
102
{ACAD_REACTORS
330
47
102
}
330
47
100
AcDbProxyObject
 90
      499
 91
      503
 93
      249
310
90D312F333222203D2031272D3022000000000000280FC000000000000284000
  0
ACAD_PROXY_OBJECT
  5
5C
102
{ACAD_REACTORS
330
47
102
}
330
47
100
AcDbProxyObject
 90
      499
 91
      503
 93
      249
310
90D312F313622203D2031272D30220000000000002C0FC000000000000284000
  0
ACAD_PROXY_OBJECT
  5
5D
102
{ACAD_REACTORS
330
47
102
}
330
47
100
AcDbProxyObject
 90
      499
 91
      503
 93
      249
310
90D332F333222203D2031272D30220000000000002E0FC000000000000284000
  0
ACAD_PROXY_OBJECT
  5
5E
102
{ACAD_REACTORS
330
47
102
}
330
47
100
AcDbProxyObject
 90
      499
 91
      503
 93
      241
310
90C312F3822203D2031272D3022000000000000300FC000000000000284000
  0
ACAD_PROXY_OBJECT
  5
5F
102
{ACAD_REACTORS
330
47
102
}
330
47
100
AcDbProxyObject
 90
      499
 91
      503
 93
      249
310
90D332F313622203D2031272D3022000000000000320FC000000000000284000
  0
ACAD_PROXY_OBJECT
  5
60
102
{ACAD_REACTORS
330
47
102
}
330
47
100
AcDbProxyObject
 90
      499
 91
      503
 93
      241
310
90C312F3422203D2031272D3022000000000000340FC000000000000284000
  0
ACAD_PROXY_OBJECT
  5
61
102
{ACAD_REACTORS
330
47
102
}
330
47
100
AcDbProxyObject
 90
      499
 91
      503
 93
      241
310
90C332F3822203D2031272D3022000000000000360FC000000000000284000
  0
ACAD_PROXY_OBJECT
  5
62
102
{ACAD_REACTORS
330
47
102
}
330
47
100
AcDbProxyObject
 90
      499
 91
      503
 93
      241
310
90C312F3222203D2031272D3022000000000000380FC000000000000284000
  0
ACAD_PROXY_OBJECT
  5
63
102
{ACAD_REACTORS
330
47
102
}
330
47
100
AcDbProxyObject
 90
      499
 91
      503
 93
      241
310
90C332F3422203D2031272D30220000000000003A0FC000000000000284000
  0
ACAD_PROXY_OBJECT
  5
64
102
{ACAD_REACTORS
330
47
102
}
330
47
100
AcDbProxyObject
 90
      499
 91
      503
 93
      161
310
90A3122203D2031272D30224000000000000284000
  0
ACAD_PROXY_OBJECT
  5
65
102
{ACAD_REACTORS
330
47
102
}
330
47
100
AcDbProxyObject
 90
      499
 91
      503
 93
      257
310
90E312D312F3222203D2031272D30220000000000003E0FC000000000000284000
  0
ACAD_PROXY_OBJECT
  5
66
102
{ACAD_REACTORS
330
47
102
}
330
47
100
AcDbProxyObject
 90
      499
 91
      503
 93
      225
310
90A3322203D2031272D302200000000000002100000000000000284000
  0
ACAD_PROXY_OBJECT
  5
67
102
{ACAD_REACTORS
330
47
102
}
330
47
100
AcDbProxyObject
 90
      499
 91
      503
 93
      225
310
90A3622203D2031272D302200000000000006100000000000000284000
  0
ACAD_PROXY_OBJECT
  5
68
102
{ACAD_REACTORS
330
47
102
}
330
47
100
AcDbProxyObject
 90
      499
 91
      503
 93
      249
310
90D31272D3022203D2031272D30220000000000000A100000000000000284000
  0
ACAD_PROXY_OBJECT
  5
2F
102
{ACAD_REACTORS
330
2A
102
}
330
2A
100
AcDbProxyObject
 90
      499
 91
      501
 93
      436
310
42CC9915DA5C99599C985B595049028333333333333E33F0000000000000F90107901411070040501600405405064090741402480A0340
1001
ACAD
1000
AcDbSavedByObjectVersion
1070
     0
  0
ACAD_PROXY_OBJECT
  5
32
102
{ACAD_REACTORS
330
2A
102
}
330
2A
100
AcDbProxyObject
 90
      499
 91
      501
 93
      388
310
4150985CDA58D07406404333333333333E33F0000000000000F90107A41107004050150841D405064090741402480A0350
1001
ACAD
1000
AcDbSavedByObjectVersion
1070
     0
  0
ACAD_PROXY_OBJECT
  5
36
102
{ACAD_REACTORS
330
2A
102
}
330
2A
100
AcDbProxyObject
 90
      499
 91
      501
 93
      428
310
42109C9A59DA1D195B90C409028333333333333E33F0000000000000F9010790141107004050150841D405064090741402480A029950
1001
ACAD
1000
AcDbSavedByObjectVersion
1070
     0
  0
ACAD_PROXY_OBJECT
  5
3A
102
{ACAD_REACTORS
330
2A
102
}
330
2A
100
AcDbProxyObject
 90
      499
 91
      501
 93
      452
310
42D0DBDB1BDC90DA185B99D95104090240C333333333333E33F0000000000000F90108901411070040501508421405064090741402480A0350
1001
ACAD
1000
AcDbSavedByObjectVersion
1070
     0
  0
ACAD_PROXY_OBJECT
  5
34
102
{ACAD_REACTORS
330
2A
102
}
330
2A
100
AcDbProxyObject
 90
      499
 91
      501
 93
      500
310
4290DBDB98D95C1D1D585B10940D028333333333333E33F0000000000000F90107902409070040501000000000018199010841D405064090740C02480A0340
1001
ACAD
1000
AcDbSavedByObjectVersion
1070
     0
  0
ACAD_PROXY_OBJECT
  5
35
102
{ACAD_REACTORS
330
2A
102
}
330
2A
100
AcDbProxyObject
 90
      499
 91
      501
 93
      412
310
40D11A5B50B409028333333333333E33F0000000000000F9010790141107004050150841D405064090741402480A02677FFFFFD0
1001
ACAD
1000
AcDbSavedByObjectVersion
1070
     0
  0
ACAD_PROXY_OBJECT
  5
3D
102
{ACAD_REACTORS
330
2A
102
}
330
2A
100
AcDbProxyObject
 90
      499
 91
      501
 93
      452
310
43115919D950DBDB1BDC93D999916409028333333333333E33F0000000000000F9010790141107004050150841D405064090741402480A0350
1001
ACAD
1000
AcDbSavedByObjectVersion
1070
     0
  0
ACAD_PROXY_OBJECT
  5
39
102
{ACAD_REACTORS
330
2A
102
}
330
2A
100
AcDbProxyObject
 90
      499
 91
      501
 93
      444
310
42D19858D95C185D1D195C9B90F409028333333333333E33F0000000000000F9010790141107004050150841D405064090741402480A0350
1001
ACAD
1000
AcDbSavedByObjectVersion
1070
     0
  0
ACAD_PROXY_OBJECT
  5
2B
102
{ACAD_REACTORS
330
2A
102
}
330
2A
100
AcDbProxyObject
 90
      499
 91
      501
 93
      380
310
41119B185D240901404333333333333E33F0000000000000F9010740A907004050150841D405064090741402480A1B50
1001
ACAD
1000
AcDbSavedByObjectVersion
1070
     0
  0
ACAD_PROXY_OBJECT
  5
2C
102
{ACAD_REACTORS
330
2A
102
}
330
2A
100
AcDbProxyObject
 90
      499
 91
      501
 93
      468
310
43519B185D15DA5D1A115919D95CD0140901404333333333333E33F0000000000000F90107409019070040501600405405064090741402480A1B50
1001
ACAD
1000
AcDbSavedByObjectVersion
1070
     0
  0
ACAD_PROXY_OBJECT
  5
2D
102
{ACAD_REACTORS
330
2A
102
}
330
2A
100
AcDbProxyObject
 90
      499
 91
      501
 93
      404
310
41D1DBDD5C985D5910240902404333333333333E33F0000000000000F9010740A9070040501641D405064090741402480A1B50
1001
ACAD
1000
AcDbSavedByObjectVersion
1070
     0
  0
ACAD_PROXY_OBJECT
  5
2E
102
{ACAD_REACTORS
330
2A
102
}
330
2A
100
AcDbProxyObject
 90
      499
 91
      501
 93
      492
310
4411DBDD5C985D5915DA5D1A115919D95CD0340902404333333333333E33F0000000000000F90107409019070040501600405405064090741402480A1B50
1001
ACAD
1000
AcDbSavedByObjectVersion
1070
     0
  0
ACAD_PROXY_OBJECT
  5
31
102
{ACAD_REACTORS
330
2A
102
}
330
2A
100
AcDbProxyObject
 90
      499
 91
      501
 93
      476
310
41921A5919195B90640502408333333333333E33F0000000000000F901079024090700405020000000000001110200405405064090740C02480A0340
1001
ACAD
1000
AcDbSavedByObjectVersion
1070
     0
  0
ACAD_PROXY_OBJECT
  5
3B
102
{ACAD_REACTORS
330
2A
102
}
330
2A
100
AcDbProxyObject
 90
      499
 91
      501
 93
      428
310
42529A5D1D195C93D999914409028333333333333E33F0000000000000F9010790141107004050150A41D405064090741402480A0350
1001
ACAD
1000
AcDbSavedByObjectVersion
1070
     0
  0
ACAD_PROXY_OBJECT
  5
38
102
{ACAD_REACTORS
330
2A
102
}
330
2A
100
AcDbProxyObject
 90
      499
 91
      501
 93
      444
310
42D31A5B995C185D1D195C9B90E409028333333333333E33F0000000000000F9010790141107004050750841D405064090741402483A0350
1001
ACAD
1000
AcDbSavedByObjectVersion
1070
     0
  0
ACAD_PROXY_OBJECT
  5
3C
102
{ACAD_REACTORS
330
2A
102
}
330
2A
100
AcDbProxyObject
 90
      499
 91
      501
 93
      444
310
42D3DD995C9A185B99D3D999915409028333333333333E33F0000000000000F9010790141107004050150941D405064090741402480A0350
1001
ACAD
1000
AcDbSavedByObjectVersion
1070
     0
  0
ACAD_PROXY_OBJECT
  5
33
102
{ACAD_REACTORS
330
2A
102
}
330
2A
100
AcDbProxyObject
 90
      499
 91
      501
 93
      428
310
425499585B1A5CDD1A58D08409038333333333333E33F0000000000000F9010740A907004050150800405405064090740C02480A1B40
1001
ACAD
1000
AcDbSavedByObjectVersion
1070
     0
  0
ACAD_PROXY_OBJECT
  5
42
102
{ACAD_REACTORS
330
2A
102
}
330
2A
100
AcDbProxyObject
 90
      499
 91
      501
 93
      420
310
4194DA1859195911B40902404333333333333E33F0000000000000F9010740A41107004050150800405405064090840C02480A0B40
1001
ACAD
1000
AcDbSavedByObjectVersion
1070
     0
  0
ACAD_PROXY_OBJECT
  5
41
102
{ACAD_REACTORS
330
2A
102
}
330
2A
100
AcDbProxyObject
 90
      499
 91
      501
 93
      516
310
4454DA18591959081DDA5D1A08195919D95CD1A40902404333333333333E33F0000000000000F901074090142907004050250800405405064090740C02480A0B40
1001
ACAD
1000
AcDbSavedByObjectVersion
1070
     0
  0
ACAD_PROXY_OBJECT
  5
3E
102
{ACAD_REACTORS
330
2A
102
}
330
2A
100
AcDbProxyObject
 90
      499
 91
      501
 93
      532
310
4394DA1859195CC81BD98811DC985E5174090240C333333333333E33F0000000000000F901079024090741D01000000000000111010841D405064090740C02480A0340
1001
ACAD
1000
AcDbSavedByObjectVersion
1070
     0
  0
ACAD_PROXY_OBJECT
  5
3F
102
{ACAD_REACTORS
330
2A
102
}
330
2A
100
AcDbProxyObject
 90
      499
 91
      501
 93
      476
310
41D4DAD95D18DA1E51840502408333333333333E33F0000000000000F901079024090741D01000000000000111010B41D405064090741802480A0340
1001
ACAD
1000
AcDbSavedByObjectVersion
1070
     0
  0
ACAD_PROXY_OBJECT
  5
37
102
{ACAD_REACTORS
330
2A
102
}
330
2A
100
AcDbProxyObject
 90
      499
 91
      501
 93
      412
310
41D51A1A58DAD95B90D409028333333333333E33F0000000000000F9010790141107004050150C41D405064090741402480A0350
1001
ACAD
1000
AcDbSavedByObjectVersion
1070
     0
  0
ACAD_PROXY_OBJECT
  5
30
102
{ACAD_REACTORS
330
2A
102
}
330
2A
100
AcDbProxyObject
 90
      499
 91
      501
 93
      420
310
4255DA5C99599C985B595059028333333333333E33F0000000000000F90107901411070040501600405405064090740C02480A0340
1001
ACAD
1000
AcDbSavedByObjectVersion
1070
     0
  0
ACAD_PROXY_OBJECT
  5
40
102
{ACAD_REACTORS
330
2A
102
}
330
2A
100
AcDbProxyObject
 90
      499
 91
      501
 93
      404
310
41560B54985E51940902404000000000000E03F0000000000000F9010740501907004050150841D405064090740C02480A1B40
1001
ACAD
1000
AcDbSavedByObjectVersion
1070
     0
  0
XRECORD
  5
1C8
102
{ACAD_REACTORS
330
1BE
102
}
330
1BE
100
AcDbXrecord
340
0
  0
XRECORD
  5
1C7
102
{ACAD_REACTORS
330
1BE
102
}
330
1BE
100
AcDbXrecord
 90
        0
  0
XRECORD
  5
1DE
102
{ACAD_REACTORS
330
1BE
102
}
330
1BE
100
AcDbXrecord
1000
DSTYLE
1002
{
1070
   171
 70
     2
1070
   143
 40
25.4
1070
   274
 70
     2
1070
    41
 40
0.18
1070
   141
 40
0.09
1070
   271
 70
     4
1070
    43
 40
0.38
1070
   278
 70
    46
1070
    44
 40
0.18
1070
    42
 40
0.0625
1070
   147
 40
0.09
1070
    77
 70
     0
1070
   272
 70
     4
1070
    73
 70
     1
1070
   279
 70
     2
1070
   172
 70
     0
1070
    74
 70
     1
1070
   283
 70
     1
1070
   340
340
11
1070
   140
 40
0.18
1070
   284
 70
     0
1070
    78
 70
     0
1002
}
  0
XRECORD
  5
1C9
102
{ACAD_REACTORS
330
1BE
102
}
330
1BE
100
AcDbXrecord
  1
{a89c6edc-f5de-4ee9-8277-d897acfa0f67}
  0
XRECORD
  5
1C1
102
{ACAD_REACTORS
330
1BE
102
}
330
1BE
100
AcDbXrecord
  1

  0
XRECORD
  5
1C6
102
{ACAD_REACTORS
330
1BE
102
}
330
1BE
100
AcDbXrecord
 90
        4
  0
XRECORD
  5
1C3
102
{ACAD_REACTORS
330
1BE
102
}
330
1BE
100
AcDbXrecord
340
1A
  0
XRECORD
  5
1C5
102
{ACAD_REACTORS
330
1BE
102
}
330
1BE
100
AcDbXrecord
 90
    10781
  0
XRECORD
  5
1C4
102
{ACAD_REACTORS
330
1BE
102
}
330
1BE
100
AcDbXrecord
340
19
  0
XRECORD
  5
1CB
102
{ACAD_REACTORS
330
1BE
102
}
330
1BE
100
AcDbXrecord
 40
0.0
  0
XRECORD
  5
1CE
102
{ACAD_REACTORS
330
1BE
102
}
330
1BE
100
AcDbXrecord
340
0
  0
XRECORD
  5
1D4
102
{ACAD_REACTORS
330
1BE
102
}
330
1BE
100
AcDbXrecord
 10
0.0
 20
0.0
 30
0.0
  0
XRECORD
  5
1D0
102
{ACAD_REACTORS
330
1BE
102
}
330
1BE
100
AcDbXrecord
 10
0.0
 20
0.0
 30
0.0
  0
XRECORD
  5
1D3
102
{ACAD_REACTORS
330
1BE
102
}
330
1BE
100
AcDbXrecord
 10
0.0
 20
0.0
 30
0.0
  0
XRECORD
  5
1D1
102
{ACAD_REACTORS
330
1BE
102
}
330
1BE
100
AcDbXrecord
 10
0.0
 20
0.0
 30
0.0
  0
XRECORD
  5
1D2
102
{ACAD_REACTORS
330
1BE
102
}
330
1BE
100
AcDbXrecord
 10
0.0
 20
0.0
 30
0.0
  0
XRECORD
  5
1CF
102
{ACAD_REACTORS
330
1BE
102
}
330
1BE
100
AcDbXrecord
 10
0.0
 20
0.0
 30
0.0
  0
XRECORD
  5
1CC
102
{ACAD_REACTORS
330
1BE
102
}
330
1BE
100
AcDbXrecord
340
0
  0
XRECORD
  5
1CD
102
{ACAD_REACTORS
330
1BE
102
}
330
1BE
100
AcDbXrecord
 70
     0
  0
XRECORD
  5
1C2
102
{ACAD_REACTORS
330
1BE
102
}
330
1BE
100
AcDbXrecord
  1

  0
XRECORD
  5
1BF
102
{ACAD_REACTORS
330
1BE
102
}
330
1BE
100
AcDbXrecord
 90
        1
  0
XRECORD
  5
1C0
102
{ACAD_REACTORS
330
1BE
102
}
330
1BE
100
AcDbXrecord
 90
       70
  0
XRECORD
  5
1D7
102
{ACAD_REACTORS
330
1BE
102
}
330
1BE
100
AcDbXrecord
340
0
  0
XRECORD
  5
1DD
102
{ACAD_REACTORS
330
1BE
102
}
330
1BE
100
AcDbXrecord
 10
0.0
 20
0.0
 30
0.0
  0
XRECORD
  5
1D9
102
{ACAD_REACTORS
330
1BE
102
}
330
1BE
100
AcDbXrecord
 10
0.0
 20
0.0
 30
0.0
  0
XRECORD
  5
1DC
102
{ACAD_REACTORS
330
1BE
102
}
330
1BE
100
AcDbXrecord
 10
0.0
 20
0.0
 30
0.0
  0
XRECORD
  5
1DA
102
{ACAD_REACTORS
330
1BE
102
}
330
1BE
100
AcDbXrecord
 10
0.0
 20
0.0
 30
0.0
  0
XRECORD
  5
1DB
102
{ACAD_REACTORS
330
1BE
102
}
330
1BE
100
AcDbXrecord
 10
0.0
 20
0.0
 30
0.0
  0
XRECORD
  5
1D8
102
{ACAD_REACTORS
330
1BE
102
}
330
1BE
100
AcDbXrecord
 10
0.0
 20
0.0
 30
0.0
  0
XRECORD
  5
1D5
102
{ACAD_REACTORS
330
1BE
102
}
330
1BE
100
AcDbXrecord
340
0
  0
XRECORD
  5
1D6
102
{ACAD_REACTORS
330
1BE
102
}
330
1BE
100
AcDbXrecord
 70
     0
  0
XRECORD
  5
1CA
102
{ACAD_REACTORS
330
1BE
102
}
330
1BE
100
AcDbXrecord
  1
{FAEB1C32-E019-11D5-929B-00C0DF256EC4}
  0
DICTIONARYVAR
  5
1E8
102
{ACAD_REACTORS
330
1DF
102
}
330
1DF
100
DictionaryVariables
280
     0
  1
1:1
  0
DICTIONARYVAR
  5
1E1
102
{ACAD_REACTORS
330
1DF
102
}
330
1DF
100
DictionaryVariables
280
     0
  1
Standard
  0
DICTIONARYVAR
  5
1E0
102
{ACAD_REACTORS
330
1DF
102
}
330
1DF
100
DictionaryVariables
280
     0
  1
Standard
  0
DICTIONARYVAR
  5
1E4
102
{ACAD_REACTORS
330
1DF
102
}
330
1DF
100
DictionaryVariables
280
     0
  1
2
  0
DICTIONARYVAR
  5
1E5
102
{ACAD_REACTORS
330
1DF
102
}
330
1DF
100
DictionaryVariables
280
     0
  1
1
  0
DICTIONARYVAR
  5
1E9
102
{ACAD_REACTORS
330
1DF
102
}
330
1DF
100
DictionaryVariables
280
     0
  1
1
  0
DICTIONARY
  5
1EC
330
45
100
AcDbDictionary
280
     1
  3
ACAD_XREC_ROUNDTRIP
360
1ED
  0
DICTIONARY
  5
1EA
330
44
100
AcDbDictionary
280
     1
  3
ACAD_XREC_ROUNDTRIP
360
1EB
  0
DICTIONARY
  5
1EE
330
46
100
AcDbDictionary
280
     1
  3
ACAD_XREC_ROUNDTRIP
360
1EF
  0
XRECORD
  5
1ED
102
{ACAD_REACTORS
330
1EC
102
}
330
1EC
100
AcDbXrecord
102
MATERIAL
148
0.0
149
0.0
149
0.0
 93
        0
 94
      127
282
     0
 72
     1
 77
     1
171
     1
175
     1
179
     1
273
     0
  0
XRECORD
  5
1EB
102
{ACAD_REACTORS
330
1EA
102
}
330
1EA
100
AcDbXrecord
102
MATERIAL
148
0.0
149
0.0
149
0.0
 93
        0
 94
      127
282
     0
 72
     1
 77
     1
171
     1
175
     1
179
     1
273
     0
  0
XRECORD
  5
1EF
102
{ACAD_REACTORS
330
1EE
102
}
330
1EE
100
AcDbXrecord
102
MATERIAL
148
0.0
149
0.0
149
0.0
 93
        0
 94
      127
282
     0
 72
     1
 77
     1
171
     1
175
     1
179
     1
273
     0
  0
ENDSEC
  0
EOF
