  0
SECTION
  2
HEADER
  9
$ACADVER
  1
AC1009
  9
$DWGCODEPAGE
  3
ansi_1252
  9
$INSBASE
 10
0.0
 20
0.0
 30
0.0
  9
$EXTMIN
 10
-231.300072916667
 20
-137.7725466823325
 30
0.0
  9
$EXTMAX
 10
703.5336015830117
 20
2161.133016476461
 30
0.0
  9
$LIMMIN
 10
0.0
 20
0.0
  9
$LIMMAX
 10
12.0
 20
9.0
  9
$ORTHOMODE
 70
     0
  9
$REGENMODE
 70
     1
  9
$FILLMODE
 70
     1
  9
$QTEXTMODE
 70
     0
  9
$MIRRTEXT
 70
     1
  9
$DRAGMODE
 70
     2
  9
$LTSCALE
 40
1.0
  9
$OSMODE
 70
    37
  9
$ATTMODE
 70
     1
  9
$TEXTSIZE
 40
0.2
  9
$TRACEWID
 40
0.05
  9
$TEXTSTYLE
  7
STANDARD
  9
$CLAYER
  8
FISHER_AND_PAYKEL
  9
$CELTYPE
  6
BYLAYER
  9
$CECOLOR
 62
   256
  9
$DIMSCALE
 40
1.0
  9
$DIMASZ
 40
0.18
  9
$DIMEXO
 40
0.0625
  9
$DIMDLI
 40
0.38
  9
$DIMRND
 40
0.0
  9
$DIMDLE
 40
0.0
  9
$DIMEXE
 40
0.18
  9
$DIMTP
 40
0.0
  9
$DIMTM
 40
0.0
  9
$DIMTXT
 40
0.18
  9
$DIMCEN
 40
0.09
  9
$DIMTSZ
 40
0.0
  9
$DIMTOL
 70
     0
  9
$DIMLIM
 70
     0
  9
$DIMTIH
 70
     1
  9
$DIMTOH
 70
     1
  9
$DIMSE1
 70
     0
  9
$DIMSE2
 70
     0
  9
$DIMTAD
 70
     0
  9
$DIMZIN
 70
     0
  9
$DIMBLK
  1

  9
$DIMASO
 70
     1
  9
$DIMSHO
 70
     1
  9
$DIMPOST
  1

  9
$DIMAPOST
  1

  9
$DIMALT
 70
     0
  9
$DIMALTD
 70
     2
  9
$DIMALTF
 40
25.4
  9
$DIMLFAC
 40
1.0
  9
$DIMTOFL
 70
     0
  9
$DIMTVP
 40
0.0
  9
$DIMTIX
 70
     0
  9
$DIMSOXD
 70
     0
  9
$DIMSAH
 70
     0
  9
$DIMBLK1
  1

  9
$DIMBLK2
  1

  9
$DIMSTYLE
  2
STANDARD
  9
$DIMCLRD
 70
     0
  9
$DIMCLRE
 70
     0
  9
$DIMCLRT
 70
     0
  9
$DIMTFAC
 40
1.0
  9
$DIMGAP
 40
0.09
  9
$LUNITS
 70
     2
  9
$LUPREC
 70
     3
  9
$SKETCHINC
 40
0.1
  9
$FILLETRAD
 40
0.5
  9
$AUNITS
 70
     0
  9
$AUPREC
 70
     0
  9
$MENU
  1
.
  9
$ELEVATION
 40
0.0
  9
$PELEVATION
 40
0.0
  9
$THICKNESS
 40
0.0
  9
$LIMCHECK
 70
     0
  9
$CHAMFERA
 40
0.0
  9
$CHAMFERB
 40
0.0
  9
$SKPOLY
 70
     0
  9
$TDCREATE
 40
2458212.473078576
  9
$TDUPDATE
 40
2458212.473095764
  9
$TDINDWG
 40
0.0000000116
  9
$TDUSRTIMER
 40
0.0000000116
  9
$USRTIMER
 70
     1
  9
$ANGBASE
 50
0.0
  9
$ANGDIR
 70
     0
  9
$PDMODE
 70
     0
  9
$PDSIZE
 40
0.0
  9
$PLINEWID
 40
0.0
  9
$COORDS
 70
     1
  9
$SPLFRAME
 70
     0
  9
$SPLINETYPE
 70
     6
  9
$SPLINESEGS
 70
     8
  9
$ATTDIA
 70
     0
  9
$ATTREQ
 70
     1
  9
$HANDLING
 70
     1
  9
$HANDSEED
  5
158
  9
$SURFTAB1
 70
     6
  9
$SURFTAB2
 70
     6
  9
$SURFTYPE
 70
     6
  9
$SURFU
 70
     6
  9
$SURFV
 70
     6
  9
$UCSNAME
  2

  9
$UCSORG
 10
0.0
 20
0.0
 30
0.0
  9
$UCSXDIR
 10
1.0
 20
0.0
 30
0.0
  9
$UCSYDIR
 10
0.0
 20
1.0
 30
0.0
  9
$PUCSNAME
  2

  9
$PUCSORG
 10
0.0
 20
0.0
 30
0.0
  9
$PUCSXDIR
 10
1.0
 20
0.0
 30
0.0
  9
$PUCSYDIR
 10
0.0
 20
1.0
 30
0.0
  9
$USERI1
 70
     0
  9
$USERI2
 70
     0
  9
$USERI3
 70
     0
  9
$USERI4
 70
     0
  9
$USERI5
 70
     0
  9
$USERR1
 40
0.0
  9
$USERR2
 40
0.0
  9
$USERR3
 40
0.0
  9
$USERR4
 40
0.0
  9
$USERR5
 40
0.0
  9
$WORLDVIEW
 70
     1
  9
$SHADEDGE
 70
     3
  9
$SHADEDIF
 70
    70
  9
$TILEMODE
 70
     1
  9
$MAXACTVP
 70
    64
  9
$PLIMCHECK
 70
     0
  9
$PEXTMIN
 10
1.000000000000000E+20
 20
1.000000000000000E+20
 30
1.000000000000000E+20
  9
$PEXTMAX
 10
-1.000000000000000E+20
 20
-1.000000000000000E+20
 30
-1.000000000000000E+20
  9
$PLIMMIN
 10
0.0
 20
0.0
  9
$PLIMMAX
 10
12.0
 20
9.0
  9
$UNITMODE
 70
     0
  9
$VISRETAIN
 70
     1
  9
$PLINEGEN
 70
     0
  9
$PSLTSCALE
 70
     1
  0
ENDSEC
  0
SECTION
  2
TABLES
  0
TABLE
  2
VPORT
 70
     1
  0
VPORT
  2
*ACTIVE
 70
     0
 10
0.0
 20
0.0
 11
1.0
 21
1.0
 12
231.888571562088
 22
1011.680234897065
 13
0.0
 23
0.0
 14
0.5
 24
0.5
 15
0.5
 25
0.5
 16
0.0
 26
0.0
 36
1.0
 17
0.0
 27
0.0
 37
0.0
 40
2344.883674421969
 41
0.4029644817965591
 42
50.0
 43
0.0
 44
0.0
 50
0.0
 51
0.0
 71
     0
 72
   100
 73
     1
 74
     3
 75
     0
 76
     0
 77
     0
 78
     0
  0
ENDTAB
  0
TABLE
  2
LTYPE
 70
     3
  0
LTYPE
  2
CONTINUOUS
 70
     0
  3
Solid line
 72
    65
 73
     0
 40
0.0
  0
LTYPE
  2
DASHED
 70
     0
  3

 72
    65
 73
     2
 40
10.0
 49
5.0
 49
-5.0
  0
LTYPE
  2
1_59594_1_59601_5_36087_1_
 70
     0
  3

 72
    65
 73
     4
 40
10.1488204722222
 49
1.595941972222205
 49
-1.596005472222245
 49
5.360867555555542
 49
-1.596005472222205
  0
ENDTAB
  0
TABLE
  2
LAYER
 70
     2
  0
LAYER
  2
0
 70
     0
 62
     7
  6
CONTINUOUS
  0
LAYER
  2
FISHER_AND_PAYKEL
 70
     0
 62
     7
  6
CONTINUOUS
  0
ENDTAB
  0
TABLE
  2
STYLE
 70
     1
  0
STYLE
  2
STANDARD
 70
     0
 40
0.0
 41
1.0
 50
0.0
 71
     0
 42
0.2
  3
txt
  4

  0
ENDTAB
  0
TABLE
  2
VIEW
 70
     0
  0
ENDTAB
  0
TABLE
  2
UCS
 70
     0
  0
ENDTAB
  0
TABLE
  2
APPID
 70
     1
  0
APPID
  2
ACAD
 70
     0
  0
ENDTAB
  0
TABLE
  2
DIMSTYLE
 70
     1
  0
DIMSTYLE
  2
STANDARD
 70
     0
  3

  4

  5

  6

  7

 40
1.0
 41
0.18
 42
0.0625
 43
0.38
 44
0.18
 45
0.0
 46
0.0
 47
0.0
 48
0.0
140
0.18
141
0.09
142
0.0
143
25.4
144
1.0
145
0.0
146
1.0
147
0.09
 71
     0
 72
     0
 73
     1
 74
     1
 75
     0
 76
     0
 77
     0
 78
     0
170
     0
171
     2
172
     0
173
     0
174
     0
175
     0
176
     0
177
     0
178
     0
  0
ENDTAB
  0
ENDSEC
  0
SECTION
  2
BLOCKS
  0
BLOCK
  8
0
  2
$MODEL_SPACE
 70
     0
 10
0.0
 20
0.0
 30
0.0
  3
$MODEL_SPACE
  1

  0
ENDBLK
  5
21
  8
0
  0
BLOCK
 67
     1
  8
0
  2
$PAPER_SPACE
 70
     0
 10
0.0
 20
0.0
 30
0.0
  3
$PAPER_SPACE
  1

  0
ENDBLK
  5
1D
 67
     1
  8
0
  0
BLOCK
  8
0
  2
*X1
 70
     1
 10
0.0
 20
0.0
 30
0.0
  3
*X1
  1

  0
TEXT
  5
149
  8
FISHER_AND_PAYKEL
  6
CONTINUOUS
 10
370.1412160408429
 20
1000.300795822476
 30
0.0
 40
12.0
  1
DO NOT PLACE
  0
TEXT
  5
14A
  8
FISHER_AND_PAYKEL
  6
CONTINUOUS
 10
370.0932160408429
 20
981.0236873887408
 30
0.0
 40
12.0
  1
HANDLE HOLES IN
  0
TEXT
  5
14B
  8
FISHER_AND_PAYKEL
  6
CONTINUOUS
 10
371.0412160408429
 20
961.7465789550058
 30
0.0
 40
12.0
  1
THESE LOCATIONS
  0
ENDBLK
  5
153
  8
0
  0
BLOCK
  8
0
  2
*X2
 70
     1
 10
0.0
 20
0.0
 30
0.0
  3
*X2
  1

  0
TEXT
  5
14D
  8
FISHER_AND_PAYKEL
  6
CONTINUOUS
 10
370.7652160408429
 20
2081.254440166519
 30
0.0
 40
12.0
  1
Ø 3/32" (2.5mm) Pilot Holes recommended.
  0
TEXT
  5
14E
  8
FISHER_AND_PAYKEL
  6
CONTINUOUS
 10
370.417216040843
 20
2061.977331732784
 30
0.0
 40
12.0
  1
(do not penetrate front surface)
  0
ENDBLK
  5
155
  8
0
  0
BLOCK
  8
0
  2
*X3
 70
     1
 10
0.0
 20
0.0
 30
0.0
  3
*X3
  1

  0
TEXT
  5
150
  8
FISHER_AND_PAYKEL
  6
CONTINUOUS
 10
370.7652160408429
 20
2081.254440166519
 30
0.0
 40
12.0
  1
Ø 3/32" (2.5mm) Pilot Holes recommended.
  0
TEXT
  5
151
  8
FISHER_AND_PAYKEL
  6
CONTINUOUS
 10
370.417216040843
 20
2061.977331732784
 30
0.0
 40
12.0
  1
(do not penetrate front surface)
  0
ENDBLK
  5
157
  8
0
  0
ENDSEC
  0
SECTION
  2
ENTITIES
  0
LINE
  5
6F
  8
FISHER_AND_PAYKEL
 62
     7
 10
-225.3999527777778
 20
0.0
 30
0.0
 11
225.3999527777778
 21
0.0
 31
0.0
  0
LINE
  5
70
  8
FISHER_AND_PAYKEL
 62
     7
 10
192.7999347222221
 20
225.800046875
 30
0.0
 11
154.2999288194442
 21
225.800046875
 31
0.0
  0
LINE
  5
71
  8
FISHER_AND_PAYKEL
 62
     7
 10
-192.800067013889
 20
225.800046875
 30
0.0
 11
-231.300072916667
 21
225.800046875
 31
0.0
  0
LINE
  5
72
  8
FISHER_AND_PAYKEL
 62
     7
 10
-192.800067013889
 20
225.800046875
 30
0.0
 11
-154.3000170138889
 21
225.800046875
 31
0.0
  0
LINE
  5
73
  8
FISHER_AND_PAYKEL
 62
     7
 10
192.7999347222221
 20
225.800046875
 30
0.0
 11
231.3000729166665
 21
225.800046875
 31
0.0
  0
LINE
  5
74
  8
FISHER_AND_PAYKEL
 62
     7
 10
192.7999347222221
 20
275.799946875
 30
0.0
 11
154.2999288194442
 21
275.799946875
 31
0.0
  0
LINE
  5
75
  8
FISHER_AND_PAYKEL
 62
     7
 10
-192.800067013889
 20
275.799946875
 30
0.0
 11
-231.300072916667
 21
275.799946875
 31
0.0
  0
LINE
  5
76
  8
FISHER_AND_PAYKEL
 62
     7
 10
-192.800067013889
 20
275.799946875
 30
0.0
 11
-154.3000170138889
 21
275.799946875
 31
0.0
  0
LINE
  5
77
  8
FISHER_AND_PAYKEL
 62
     7
 10
192.7999347222221
 20
275.799946875
 30
0.0
 11
231.3000729166665
 21
275.799946875
 31
0.0
  0
LINE
  5
78
  8
FISHER_AND_PAYKEL
 62
     7
 10
192.7999347222221
 20
733.7999586805557
 30
0.0
 11
154.2999288194442
 21
733.7999586805557
 31
0.0
  0
LINE
  5
79
  8
FISHER_AND_PAYKEL
 62
     7
 10
-192.800067013889
 20
733.7999586805557
 30
0.0
 11
-231.300072916667
 21
733.7999586805557
 31
0.0
  0
LINE
  5
7A
  8
FISHER_AND_PAYKEL
 62
     7
 10
-192.800067013889
 20
733.7999586805557
 30
0.0
 11
-154.3000170138889
 21
733.7999586805557
 31
0.0
  0
LINE
  5
7B
  8
FISHER_AND_PAYKEL
 62
     7
 10
192.7999347222221
 20
733.7999586805557
 30
0.0
 11
231.3000729166665
 21
733.7999586805557
 31
0.0
  0
LINE
  5
7C
  8
FISHER_AND_PAYKEL
 62
     7
 10
-225.3999527777778
 20
0.0
 30
0.0
 11
-225.3999527777778
 21
2028.800040972222
 31
0.0
  0
LINE
  5
7D
  8
FISHER_AND_PAYKEL
 62
     7
 10
192.7999347222221
 20
783.8000350694446
 30
0.0
 11
154.2999288194442
 21
783.8000350694446
 31
0.0
  0
LINE
  5
7E
  8
FISHER_AND_PAYKEL
 62
     7
 10
-192.800067013889
 20
783.8000350694446
 30
0.0
 11
-231.300072916667
 21
783.8000350694446
 31
0.0
  0
LINE
  5
7F
  8
FISHER_AND_PAYKEL
 62
     7
 10
-192.800067013889
 20
783.8000350694446
 30
0.0
 11
-154.3000170138889
 21
783.8000350694446
 31
0.0
  0
LINE
  5
80
  8
FISHER_AND_PAYKEL
 62
     7
 10
192.7999347222221
 20
783.8000350694446
 30
0.0
 11
231.3000729166665
 21
783.8000350694446
 31
0.0
  0
LINE
  5
81
  8
FISHER_AND_PAYKEL
 62
     7
 10
-192.800067013889
 20
1545.800079166667
 30
0.0
 11
-192.800067013889
 21
1507.300073263889
 31
0.0
  0
LINE
  5
82
  8
FISHER_AND_PAYKEL
 62
     7
 10
-192.800067013889
 20
1495.800179166667
 30
0.0
 11
-192.800067013889
 21
1457.300173263889
 31
0.0
  0
LINE
  5
83
  8
FISHER_AND_PAYKEL
 62
     7
 10
-192.800067013889
 20
783.8000350694446
 30
0.0
 11
-192.800067013889
 21
745.2999850694445
 31
0.0
  0
LINE
  5
84
  8
FISHER_AND_PAYKEL
 62
     7
 10
-192.800067013889
 20
733.7999586805557
 30
0.0
 11
-192.800067013889
 21
695.2999527777775
 31
0.0
  0
LINE
  5
85
  8
FISHER_AND_PAYKEL
 62
     7
 10
-192.800067013889
 20
275.799946875
 30
0.0
 11
-192.800067013889
 21
237.2999409722221
 31
0.0
  0
LINE
  5
86
  8
FISHER_AND_PAYKEL
 62
     7
 10
-192.800067013889
 20
225.800046875
 30
0.0
 11
-192.800067013889
 21
187.3000409722222
 31
0.0
  0
LINE
  5
87
  8
FISHER_AND_PAYKEL
 62
     7
 10
-192.800067013889
 20
225.800046875
 30
0.0
 11
-192.800067013889
 21
237.2999409722221
 31
0.0
  0
LINE
  5
88
  8
FISHER_AND_PAYKEL
 62
     7
 10
-192.800067013889
 20
275.799946875
 30
0.0
 11
-192.800067013889
 21
314.2999968749999
 31
0.0
  0
LINE
  5
89
  8
FISHER_AND_PAYKEL
 62
     7
 10
-192.800067013889
 20
733.7999586805557
 30
0.0
 11
-192.800067013889
 21
745.2999850694445
 31
0.0
  0
LINE
  5
8A
  8
FISHER_AND_PAYKEL
 62
     7
 10
-192.800067013889
 20
783.8000350694446
 30
0.0
 11
-192.800067013889
 21
822.3000409722223
 31
0.0
  0
LINE
  5
8B
  8
FISHER_AND_PAYKEL
 62
     7
 10
-192.800067013889
 20
1495.800179166667
 30
0.0
 11
-192.800067013889
 21
1507.300073263889
 31
0.0
  0
LINE
  5
8C
  8
FISHER_AND_PAYKEL
 62
     7
 10
-192.800067013889
 20
1545.800079166667
 30
0.0
 11
-192.800067013889
 21
1584.299864583334
 31
0.0
  0
LINE
  5
8D
  8
FISHER_AND_PAYKEL
 62
     7
 10
-174.5999968750002
 20
1901.800129166666
 30
0.0
 11
-174.5999968750002
 21
1863.300079166667
 31
0.0
  0
LINE
  5
8E
  8
FISHER_AND_PAYKEL
 62
     7
 10
-174.5999968750002
 20
1851.799920486111
 30
0.0
 11
-174.5999968750002
 21
1813.299914583333
 31
0.0
  0
LINE
  5
8F
  8
FISHER_AND_PAYKEL
 62
     7
 10
-174.5999968750002
 20
1851.799920486111
 30
0.0
 11
-174.5999968750002
 21
1863.300079166667
 31
0.0
  0
LINE
  5
90
  8
FISHER_AND_PAYKEL
 62
     7
 10
-174.5999968750002
 20
1901.800129166666
 30
0.0
 11
-174.5999968750002
 21
1940.300135069444
 31
0.0
  0
LINE
  5
91
  8
FISHER_AND_PAYKEL
 62
     7
 10
0.0
 20
1901.800129166666
 30
0.0
 11
0.0
 21
1863.300079166667
 31
0.0
  0
LINE
  5
92
  8
FISHER_AND_PAYKEL
 62
     7
 10
0.0
 20
1851.799920486111
 30
0.0
 11
0.0
 21
1813.299914583333
 31
0.0
  0
LINE
  5
93
  8
FISHER_AND_PAYKEL
 62
     7
 10
0.0
 20
1851.799920486111
 30
0.0
 11
0.0
 21
1863.300079166667
 31
0.0
  0
LINE
  5
94
  8
FISHER_AND_PAYKEL
 62
     7
 10
0.0
 20
1901.800129166666
 30
0.0
 11
0.0
 21
1940.300135069444
 31
0.0
  0
LINE
  5
95
  8
FISHER_AND_PAYKEL
 62
     7
 10
174.6001291666662
 20
1901.800129166666
 30
0.0
 11
174.6001291666662
 21
1863.300079166667
 31
0.0
  0
LINE
  5
96
  8
FISHER_AND_PAYKEL
 62
     7
 10
174.6001291666662
 20
1851.799920486111
 30
0.0
 11
174.6001291666662
 21
1813.299914583333
 31
0.0
  0
LINE
  5
97
  8
FISHER_AND_PAYKEL
 62
     7
 10
174.6001291666662
 20
1851.799920486111
 30
0.0
 11
174.6001291666662
 21
1863.300079166667
 31
0.0
  0
LINE
  5
98
  8
FISHER_AND_PAYKEL
 62
     7
 10
174.6001291666662
 20
1901.800129166666
 30
0.0
 11
174.6001291666662
 21
1940.300135069444
 31
0.0
  0
LINE
  5
99
  8
FISHER_AND_PAYKEL
 62
     7
 10
192.7999347222221
 20
1545.800079166667
 30
0.0
 11
192.7999347222221
 21
1507.300073263889
 31
0.0
  0
LINE
  5
9A
  8
FISHER_AND_PAYKEL
 62
     7
 10
192.7999347222221
 20
1495.800179166667
 30
0.0
 11
192.7999347222221
 21
1457.300173263889
 31
0.0
  0
LINE
  5
9B
  8
FISHER_AND_PAYKEL
 62
     7
 10
192.7999347222221
 20
783.8000350694446
 30
0.0
 11
192.7999347222221
 21
745.2999850694445
 31
0.0
  0
LINE
  5
9C
  8
FISHER_AND_PAYKEL
 62
     7
 10
192.7999347222221
 20
733.7999586805557
 30
0.0
 11
192.7999347222221
 21
695.2999527777775
 31
0.0
  0
LINE
  5
9D
  8
FISHER_AND_PAYKEL
 62
     7
 10
192.7999347222221
 20
275.799946875
 30
0.0
 11
192.7999347222221
 21
237.2999409722221
 31
0.0
  0
LINE
  5
9E
  8
FISHER_AND_PAYKEL
 62
     7
 10
192.7999347222221
 20
225.800046875
 30
0.0
 11
192.7999347222221
 21
187.3000409722222
 31
0.0
  0
LINE
  5
9F
  8
FISHER_AND_PAYKEL
 62
     7
 10
192.7999347222221
 20
225.800046875
 30
0.0
 11
192.7999347222221
 21
237.2999409722221
 31
0.0
  0
LINE
  5
A0
  8
FISHER_AND_PAYKEL
 62
     7
 10
192.7999347222221
 20
275.799946875
 30
0.0
 11
192.7999347222221
 21
314.2999968749999
 31
0.0
  0
LINE
  5
A1
  8
FISHER_AND_PAYKEL
 62
     7
 10
192.7999347222221
 20
733.7999586805557
 30
0.0
 11
192.7999347222221
 21
745.2999850694445
 31
0.0
  0
LINE
  5
A2
  8
FISHER_AND_PAYKEL
 62
     7
 10
192.7999347222221
 20
783.8000350694446
 30
0.0
 11
192.7999347222221
 21
822.3000409722223
 31
0.0
  0
LINE
  5
A3
  8
FISHER_AND_PAYKEL
 62
     7
 10
192.7999347222221
 20
1495.800179166667
 30
0.0
 11
192.7999347222221
 21
1507.300073263889
 31
0.0
  0
LINE
  5
A4
  8
FISHER_AND_PAYKEL
 62
     7
 10
192.7999347222221
 20
1545.800079166667
 30
0.0
 11
192.7999347222221
 21
1584.299864583334
 31
0.0
  0
LINE
  5
A5
  8
FISHER_AND_PAYKEL
 62
     7
 10
225.3999527777778
 20
0.0
 30
0.0
 11
225.3999527777778
 21
2028.800040972222
 31
0.0
  0
LINE
  5
A6
  8
FISHER_AND_PAYKEL
 62
     7
 10
192.7999347222221
 20
1495.800179166667
 30
0.0
 11
154.2999288194442
 21
1495.800179166667
 31
0.0
  0
LINE
  5
A7
  8
FISHER_AND_PAYKEL
 62
     7
 10
-192.800067013889
 20
1495.800179166667
 30
0.0
 11
-231.300072916667
 21
1495.800179166667
 31
0.0
  0
LINE
  5
A8
  8
FISHER_AND_PAYKEL
 62
     7
 10
-192.800067013889
 20
1495.800179166667
 30
0.0
 11
-154.3000170138889
 21
1495.800179166667
 31
0.0
  0
LINE
  5
A9
  8
FISHER_AND_PAYKEL
 62
     7
 10
192.7999347222221
 20
1495.800179166667
 30
0.0
 11
231.3000729166665
 21
1495.800179166667
 31
0.0
  0
LINE
  5
AA
  8
FISHER_AND_PAYKEL
 62
     7
 10
192.7999347222221
 20
1545.800079166667
 30
0.0
 11
154.2999288194442
 21
1545.800079166667
 31
0.0
  0
LINE
  5
AB
  8
FISHER_AND_PAYKEL
 62
     7
 10
-192.800067013889
 20
1545.800079166667
 30
0.0
 11
-231.300072916667
 21
1545.800079166667
 31
0.0
  0
LINE
  5
AC
  8
FISHER_AND_PAYKEL
 62
     7
 10
-192.800067013889
 20
1545.800079166667
 30
0.0
 11
-154.3000170138889
 21
1545.800079166667
 31
0.0
  0
LINE
  5
AD
  8
FISHER_AND_PAYKEL
 62
     7
 10
192.7999347222221
 20
1545.800079166667
 30
0.0
 11
231.3000729166665
 21
1545.800079166667
 31
0.0
  0
LINE
  5
AE
  8
FISHER_AND_PAYKEL
 62
     7
 10
174.6001291666662
 20
1851.799920486111
 30
0.0
 11
136.1001232638891
 21
1851.799920486111
 31
0.0
  0
LINE
  5
AF
  8
FISHER_AND_PAYKEL
 62
     7
 10
0.0
 20
1851.799920486111
 30
0.0
 11
-38.50000590277796
 21
1851.799920486111
 31
0.0
  0
LINE
  5
B0
  8
FISHER_AND_PAYKEL
 62
     7
 10
-174.5999968750002
 20
1851.799920486111
 30
0.0
 11
-213.1000027777777
 21
1851.799920486111
 31
0.0
  0
LINE
  5
B1
  8
FISHER_AND_PAYKEL
 62
     7
 10
-174.5999968750002
 20
1851.799920486111
 30
0.0
 11
-136.0999468749997
 21
1851.799920486111
 31
0.0
  0
LINE
  5
B2
  8
FISHER_AND_PAYKEL
 62
     7
 10
0.0
 20
1851.799920486111
 30
0.0
 11
38.50000590277796
 21
1851.799920486111
 31
0.0
  0
LINE
  5
B3
  8
FISHER_AND_PAYKEL
 62
     7
 10
174.6001291666662
 20
1851.799920486111
 30
0.0
 11
213.1001791666667
 21
1851.799920486111
 31
0.0
  0
LINE
  5
B4
  8
FISHER_AND_PAYKEL
 62
     7
 10
174.6001291666662
 20
1901.800129166666
 30
0.0
 11
136.1001232638891
 21
1901.800129166666
 31
0.0
  0
LINE
  5
B5
  8
FISHER_AND_PAYKEL
 62
     7
 10
0.0
 20
1901.800129166666
 30
0.0
 11
-38.50000590277796
 21
1901.800129166666
 31
0.0
  0
LINE
  5
B6
  8
FISHER_AND_PAYKEL
 62
     7
 10
-174.5999968750002
 20
1901.800129166666
 30
0.0
 11
-213.1000027777777
 21
1901.800129166666
 31
0.0
  0
LINE
  5
B7
  8
FISHER_AND_PAYKEL
 62
     7
 10
-174.5999968750002
 20
1901.800129166666
 30
0.0
 11
-136.0999468749997
 21
1901.800129166666
 31
0.0
  0
LINE
  5
B8
  8
FISHER_AND_PAYKEL
 62
     7
 10
0.0
 20
1901.800129166666
 30
0.0
 11
38.50000590277796
 21
1901.800129166666
 31
0.0
  0
LINE
  5
B9
  8
FISHER_AND_PAYKEL
 62
     7
 10
174.6001291666662
 20
1901.800129166666
 30
0.0
 11
213.1001791666667
 21
1901.800129166666
 31
0.0
  0
LINE
  5
BA
  8
FISHER_AND_PAYKEL
 62
     7
 10
225.3999527777778
 20
2028.800040972222
 30
0.0
 11
-225.3999527777778
 21
2028.800040972222
 31
0.0
  0
CIRCLE
  5
BB
  8
FISHER_AND_PAYKEL
 62
     7
 10
174.6001377188207
 20
1851.799956021891
 30
0.0
 40
0.9998959623662693
  0
CIRCLE
  5
BC
  8
FISHER_AND_PAYKEL
 62
     7
 10
174.5999024820824
 20
1901.800091264182
 30
0.0
 40
1.000131199191275
  0
POLYLINE
  5
BD
  8
FISHER_AND_PAYKEL
 62
     7
 66
     1
 10
0.0
 20
0.0
 30
0.0
 70
     1
  0
VERTEX
  5
BE
  8
FISHER_AND_PAYKEL
 62
     7
 10
193.7999715277774
 20
1545.800079166667
 30
0.0
 42
2.414868338632017
  0
VERTEX
  5
BF
  8
FISHER_AND_PAYKEL
 62
     7
 10
192.800067013889
 20
1544.799954166666
 30
0.0
 42
0.4141990917234809
  0
SEQEND
  5
C0
  8
FISHER_AND_PAYKEL
 62
     7
  0
POLYLINE
  5
C1
  8
FISHER_AND_PAYKEL
 62
     7
 66
     1
 10
0.0
 20
0.0
 30
0.0
 70
     1
  0
VERTEX
  5
C2
  8
FISHER_AND_PAYKEL
 62
     7
 10
193.7999715277774
 20
1495.799914583333
 30
0.0
 42
2.414527673101085
  0
VERTEX
  5
C3
  8
FISHER_AND_PAYKEL
 62
     7
 10
192.800067013889
 20
1494.800010069444
 30
0.0
 42
0.414244762954605
  0
SEQEND
  5
C4
  8
FISHER_AND_PAYKEL
 62
     7
  0
POLYLINE
  5
C5
  8
FISHER_AND_PAYKEL
 62
     7
 66
     1
 10
0.0
 20
0.0
 30
0.0
 70
     1
  0
VERTEX
  5
C6
  8
FISHER_AND_PAYKEL
 62
     7
 10
193.7999715277774
 20
783.8000350694446
 30
0.0
 42
2.414665414607897
  0
VERTEX
  5
C7
  8
FISHER_AND_PAYKEL
 62
     7
 10
192.800067013889
 20
782.799998263889
 30
0.0
 42
0.4142338963054143
  0
SEQEND
  5
C8
  8
FISHER_AND_PAYKEL
 62
     7
  0
POLYLINE
  5
C9
  8
FISHER_AND_PAYKEL
 62
     7
 66
     1
 10
0.0
 20
0.0
 30
0.0
 70
     1
  0
VERTEX
  5
CA
  8
FISHER_AND_PAYKEL
 62
     7
 10
193.7999715277774
 20
733.7999586805557
 30
0.0
 42
2.414708570681399
  0
VERTEX
  5
CB
  8
FISHER_AND_PAYKEL
 62
     7
 10
192.800067013889
 20
732.7999659722219
 30
0.0
 42
0.4142264942849623
  0
SEQEND
  5
CC
  8
FISHER_AND_PAYKEL
 62
     7
  0
POLYLINE
  5
CD
  8
FISHER_AND_PAYKEL
 62
     7
 66
     1
 10
0.0
 20
0.0
 30
0.0
 70
     1
  0
VERTEX
  5
CE
  8
FISHER_AND_PAYKEL
 62
     7
 10
193.7999715277774
 20
275.799946875
 30
0.0
 42
2.414708570682551
  0
VERTEX
  5
CF
  8
FISHER_AND_PAYKEL
 62
     7
 10
192.800067013889
 20
274.7999541666666
 30
0.0
 42
0.4142264942850396
  0
SEQEND
  5
D0
  8
FISHER_AND_PAYKEL
 62
     7
  0
POLYLINE
  5
D1
  8
FISHER_AND_PAYKEL
 62
     7
 66
     1
 10
0.0
 20
0.0
 30
0.0
 70
     1
  0
VERTEX
  5
D2
  8
FISHER_AND_PAYKEL
 62
     7
 10
193.7999715277774
 20
225.800046875
 30
0.0
 42
2.414717731784759
  0
VERTEX
  5
D3
  8
FISHER_AND_PAYKEL
 62
     7
 10
192.800067013889
 20
224.8000100694446
 30
0.0
 42
0.4142173600386955
  0
SEQEND
  5
D4
  8
FISHER_AND_PAYKEL
 62
     7
  0
POLYLINE
  5
D5
  8
FISHER_AND_PAYKEL
 62
     7
 66
     1
 10
0.0
 20
0.0
 30
0.0
 70
     1
  0
VERTEX
  5
D6
  8
FISHER_AND_PAYKEL
 62
     7
 10
-191.8000302083337
 20
225.800046875
 30
0.0
 42
2.414524903469065
  0
VERTEX
  5
D7
  8
FISHER_AND_PAYKEL
 62
     7
 10
-192.7999347222221
 20
224.8000100694445
 30
0.0
 42
0.4141842849913778
  0
SEQEND
  5
D8
  8
FISHER_AND_PAYKEL
 62
     7
  0
POLYLINE
  5
D9
  8
FISHER_AND_PAYKEL
 62
     7
 66
     1
 10
0.0
 20
0.0
 30
0.0
 70
     1
  0
VERTEX
  5
DA
  8
FISHER_AND_PAYKEL
 62
     7
 10
-191.8000302083337
 20
275.799946875
 30
0.0
 42
2.414515743614862
  0
VERTEX
  5
DB
  8
FISHER_AND_PAYKEL
 62
     7
 10
-192.7999347222221
 20
274.7999541666667
 30
0.0
 42
0.4141934190241834
  0
SEQEND
  5
DC
  8
FISHER_AND_PAYKEL
 62
     7
  0
POLYLINE
  5
DD
  8
FISHER_AND_PAYKEL
 62
     7
 66
     1
 10
0.0
 20
0.0
 30
0.0
 70
     1
  0
VERTEX
  5
DE
  8
FISHER_AND_PAYKEL
 62
     7
 10
-191.8000302083337
 20
733.7999586805557
 30
0.0
 42
2.414515743615485
  0
VERTEX
  5
DF
  8
FISHER_AND_PAYKEL
 62
     7
 10
-192.7999347222221
 20
732.7999659722219
 30
0.0
 42
0.4141934190240278
  0
SEQEND
  5
E0
  8
FISHER_AND_PAYKEL
 62
     7
  0
POLYLINE
  5
E1
  8
FISHER_AND_PAYKEL
 62
     7
 66
     1
 10
0.0
 20
0.0
 30
0.0
 70
     1
  0
VERTEX
  5
E2
  8
FISHER_AND_PAYKEL
 62
     7
 10
-191.8000302083337
 20
783.8000350694446
 30
0.0
 42
2.414472588914434
  0
VERTEX
  5
E3
  8
FISHER_AND_PAYKEL
 62
     7
 10
-192.7999347222221
 20
782.7999982638888
 30
0.0
 42
0.414200821644783
  0
SEQEND
  5
E4
  8
FISHER_AND_PAYKEL
 62
     7
  0
POLYLINE
  5
E5
  8
FISHER_AND_PAYKEL
 62
     7
 66
     1
 10
0.0
 20
0.0
 30
0.0
 70
     1
  0
VERTEX
  5
E6
  8
FISHER_AND_PAYKEL
 62
     7
 10
-191.8000302083337
 20
1495.799914583333
 30
0.0
 42
2.414334866187741
  0
VERTEX
  5
E7
  8
FISHER_AND_PAYKEL
 62
     7
 10
-192.7999347222221
 20
1494.800010069444
 30
0.0
 42
0.4142116872664681
  0
SEQEND
  5
E8
  8
FISHER_AND_PAYKEL
 62
     7
  0
POLYLINE
  5
E9
  8
FISHER_AND_PAYKEL
 62
     7
 66
     1
 10
0.0
 20
0.0
 30
0.0
 70
     1
  0
VERTEX
  5
EA
  8
FISHER_AND_PAYKEL
 62
     7
 10
-191.8000302083337
 20
1545.800079166667
 30
0.0
 42
2.414675489783729
  0
VERTEX
  5
EB
  8
FISHER_AND_PAYKEL
 62
     7
 10
-192.7999347222221
 20
1544.799954166667
 30
0.0
 42
0.4141660171036767
  0
SEQEND
  5
EC
  8
FISHER_AND_PAYKEL
 62
     7
  0
CIRCLE
  5
ED
  8
FISHER_AND_PAYKEL
 62
     7
 10
-174.6000912679179
 20
1901.800091264182
 30
0.0
 40
1.000131199191673
  0
CIRCLE
  5
EE
  8
FISHER_AND_PAYKEL
 62
     7
 10
-174.5998560311787
 20
1851.799956021891
 30
0.0
 40
0.9998959623657007
  0
CIRCLE
  5
EF
  8
FISHER_AND_PAYKEL
 62
     7
 10
0.00014084382035
 20
1851.799956021891
 30
0.0
 40
0.9998959623663942
  0
CIRCLE
  5
F0
  8
FISHER_AND_PAYKEL
 62
     7
 10
-0.0000943929181747
 20
1901.800091264182
 30
0.0
 40
1.000131199191662
  0
POLYLINE
  5
F1
  8
FISHER_AND_PAYKEL
  6
DASHED
 62
     7
 66
     1
 10
0.0
 20
0.0
 30
0.0
  0
VERTEX
  5
F2
  8
FISHER_AND_PAYKEL
  6
DASHED
 62
     7
 10
225.3999527777783
 20
295.7999333333336
 30
0.0
  0
VERTEX
  5
F3
  8
FISHER_AND_PAYKEL
  6
DASHED
 62
     7
 10
165.3999493055558
 20
295.7999333333336
 30
0.0
  0
VERTEX
  5
F4
  8
FISHER_AND_PAYKEL
  6
DASHED
 62
     7
 10
165.3999493055558
 20
205.799884027778
 30
0.0
  0
VERTEX
  5
F5
  8
FISHER_AND_PAYKEL
  6
DASHED
 62
     7
 10
225.3999527777783
 20
205.799884027778
 30
0.0
  0
SEQEND
  5
F7
  8
FISHER_AND_PAYKEL
  6
DASHED
 62
     7
  0
POLYLINE
  5
F8
  8
FISHER_AND_PAYKEL
  6
DASHED
 62
     7
 66
     1
 10
0.0
 20
0.0
 30
0.0
  0
VERTEX
  5
F9
  8
FISHER_AND_PAYKEL
  6
DASHED
 62
     7
 10
225.3999527777783
 20
803.7998451388892
 30
0.0
  0
VERTEX
  5
FA
  8
FISHER_AND_PAYKEL
  6
DASHED
 62
     7
 10
165.3999493055558
 20
803.7998451388892
 30
0.0
  0
VERTEX
  5
FB
  8
FISHER_AND_PAYKEL
  6
DASHED
 62
     7
 10
165.3999493055558
 20
713.7999722222224
 30
0.0
  0
VERTEX
  5
FC
  8
FISHER_AND_PAYKEL
  6
DASHED
 62
     7
 10
225.3999527777783
 20
713.7999722222224
 30
0.0
  0
SEQEND
  5
FD
  8
FISHER_AND_PAYKEL
  6
DASHED
 62
     7
  0
POLYLINE
  5
FE
  8
FISHER_AND_PAYKEL
  6
DASHED
 62
     7
 66
     1
 10
0.0
 20
0.0
 30
0.0
  0
VERTEX
  5
FF
  8
FISHER_AND_PAYKEL
  6
DASHED
 62
     7
 10
225.3999527777783
 20
1565.799801041667
 30
0.0
  0
VERTEX
  5
100
  8
FISHER_AND_PAYKEL
  6
DASHED
 62
     7
 10
165.3999493055558
 20
1565.799801041667
 30
0.0
  0
VERTEX
  5
101
  8
FISHER_AND_PAYKEL
  6
DASHED
 62
     7
 10
165.3999493055558
 20
1475.799884027778
 30
0.0
  0
VERTEX
  5
102
  8
FISHER_AND_PAYKEL
  6
DASHED
 62
     7
 10
225.3999527777783
 20
1475.799884027778
 30
0.0
  0
SEQEND
  5
103
  8
FISHER_AND_PAYKEL
  6
DASHED
 62
     7
  0
POLYLINE
  5
104
  8
FISHER_AND_PAYKEL
 62
     7
 66
     1
 10
0.0
 20
0.0
 30
0.0
 70
     1
  0
VERTEX
  5
105
  8
FISHER_AND_PAYKEL
 62
     7
 10
202.5123920138885
 20
803.7998451388889
 30
0.0
  0
VERTEX
  5
106
  8
FISHER_AND_PAYKEL
 62
     7
 10
223.7823343749992
 20
849.4798048611108
 30
0.0
  0
VERTEX
  5
107
  8
FISHER_AND_PAYKEL
 62
     7
 10
234.3721059027775
 20
842.8385427083333
 30
0.0
  0
SEQEND
  5
108
  8
FISHER_AND_PAYKEL
 62
     7
  0
LINE
  5
109
  8
FISHER_AND_PAYKEL
 62
     7
 10
322.8829479166661
 20
995.7386493055557
 30
0.0
 11
360.3829611111105
 21
995.7386493055557
 31
0.0
  0
LINE
  5
10A
  8
FISHER_AND_PAYKEL
 62
     7
 10
202.5123920138881
 20
803.7998451388889
 30
0.0
 11
322.8829479166661
 21
995.7386493055557
 31
0.0
  0
LINE
  5
10B
  8
FISHER_AND_PAYKEL
  6
DASHED
 10
225.3999527777778
 20
50.8
 30
0.0
 11
-225.3999527777778
 21
50.80000000000006
 31
0.0
  0
POLYLINE
  5
10C
  8
FISHER_AND_PAYKEL
  6
DASHED
 66
     1
 10
0.0
 20
0.0
 30
0.0
  0
VERTEX
  5
10D
  8
FISHER_AND_PAYKEL
  6
DASHED
 10
225.3999527777778
 20
0.0
 30
0.0
  0
VERTEX
  5
10E
  8
FISHER_AND_PAYKEL
  6
DASHED
 10
225.3999527777778
 20
-50.8
 30
0.0
  0
VERTEX
  5
10F
  8
FISHER_AND_PAYKEL
  6
DASHED
 10
-225.3999527777778
 20
-50.8
 30
0.0
  0
VERTEX
  5
110
  8
FISHER_AND_PAYKEL
  6
DASHED
 10
-225.3999527777778
 20
0.0
 30
0.0
  0
SEQEND
  5
111
  8
FISHER_AND_PAYKEL
  6
DASHED
  0
POLYLINE
  5
112
  8
FISHER_AND_PAYKEL
  6
DASHED
 62
     7
 66
     1
 10
0.0
 20
0.0
 30
0.0
  0
VERTEX
  5
113
  8
FISHER_AND_PAYKEL
  6
DASHED
 62
     7
 10
-225.3999527777783
 20
1565.799801041667
 30
0.0
  0
VERTEX
  5
114
  8
FISHER_AND_PAYKEL
  6
DASHED
 62
     7
 10
-165.3999493055558
 20
1565.799801041667
 30
0.0
  0
VERTEX
  5
115
  8
FISHER_AND_PAYKEL
  6
DASHED
 62
     7
 10
-165.3999493055558
 20
1475.799884027778
 30
0.0
  0
VERTEX
  5
116
  8
FISHER_AND_PAYKEL
  6
DASHED
 62
     7
 10
-225.3999527777783
 20
1475.799884027778
 30
0.0
  0
SEQEND
  5
117
  8
FISHER_AND_PAYKEL
  6
DASHED
 62
     7
  0
POLYLINE
  5
118
  8
FISHER_AND_PAYKEL
  6
DASHED
 62
     7
 66
     1
 10
0.0
 20
0.0
 30
0.0
  0
VERTEX
  5
119
  8
FISHER_AND_PAYKEL
  6
DASHED
 62
     7
 10
-225.3999527777783
 20
803.7998451388892
 30
0.0
  0
VERTEX
  5
11A
  8
FISHER_AND_PAYKEL
  6
DASHED
 62
     7
 10
-165.3999493055558
 20
803.7998451388892
 30
0.0
  0
VERTEX
  5
11B
  8
FISHER_AND_PAYKEL
  6
DASHED
 62
     7
 10
-165.3999493055558
 20
713.7999722222224
 30
0.0
  0
VERTEX
  5
11C
  8
FISHER_AND_PAYKEL
  6
DASHED
 62
     7
 10
-225.3999527777783
 20
713.7999722222224
 30
0.0
  0
SEQEND
  5
11D
  8
FISHER_AND_PAYKEL
  6
DASHED
 62
     7
  0
POLYLINE
  5
11E
  8
FISHER_AND_PAYKEL
  6
DASHED
 62
     7
 66
     1
 10
0.0
 20
0.0
 30
0.0
  0
VERTEX
  5
11F
  8
FISHER_AND_PAYKEL
  6
DASHED
 62
     7
 10
-225.3999527777783
 20
295.7999333333336
 30
0.0
  0
VERTEX
  5
120
  8
FISHER_AND_PAYKEL
  6
DASHED
 62
     7
 10
-165.3999493055558
 20
295.7999333333336
 30
0.0
  0
VERTEX
  5
121
  8
FISHER_AND_PAYKEL
  6
DASHED
 62
     7
 10
-165.3999493055558
 20
205.799884027778
 30
0.0
  0
VERTEX
  5
122
  8
FISHER_AND_PAYKEL
  6
DASHED
 62
     7
 10
-225.3999527777783
 20
205.799884027778
 30
0.0
  0
SEQEND
  5
123
  8
FISHER_AND_PAYKEL
  6
DASHED
 62
     7
  0
TEXT
  5
124
  8
FISHER_AND_PAYKEL
  6
CONTINUOUS
 10
249.1039527777778
 20
102.0
 30
0.0
 40
12.0
  1
DOOR LENGTH FOR:
  0
INSERT
  5
125
  8
FISHER_AND_PAYKEL
  2
*X1
 10
0.0
 20
0.0
 30
0.0
  0
LINE
  5
127
  8
FISHER_AND_PAYKEL
  6
1_59594_1_59601_5_36087_1_
 10
0.0
 20
2161.133016476461
 30
0.0
 11
0.0
 21
1979.195871735387
 31
0.0
  0
LINE
  5
128
  8
FISHER_AND_PAYKEL
  6
1_59594_1_59601_5_36087_1_
 10
0.0
 20
1774.404442500723
 30
0.0
 11
0.0
 21
-137.7725466823325
 31
0.0
  0
TEXT
  5
129
  8
FISHER_AND_PAYKEL
  6
CONTINUOUS
 10
250.1839527777778
 20
0.3999999999999986
 30
0.0
 40
12.0
  1
4" (101.6mm) TOEKICK
  0
TEXT
  5
12A
  8
FISHER_AND_PAYKEL
  6
CONTINUOUS
 10
249.9079527777778
 20
-50.40000000000001
 30
0.0
 40
12.0
  1
2" (50.8mm) TOEKICK
  0
TEXT
  5
12B
  8
FISHER_AND_PAYKEL
  6
CONTINUOUS
 10
249.7759527777778
 20
51.2
 30
0.0
 40
12.0
  1
6" (152.4mm) TOEKICK
  0
POLYLINE
  5
12C
  8
FISHER_AND_PAYKEL
 62
     7
 66
     1
 10
0.0
 20
0.0
 30
0.0
 70
     1
  0
VERTEX
  5
12D
  8
FISHER_AND_PAYKEL
 62
     7
 10
202.5123920138885
 20
803.7998451388889
 30
0.0
  0
VERTEX
  5
12E
  8
FISHER_AND_PAYKEL
 62
     7
 10
223.7823343749992
 20
849.4798048611108
 30
0.0
  0
VERTEX
  5
12F
  8
FISHER_AND_PAYKEL
 62
     7
 10
234.3721059027775
 20
842.8385427083333
 30
0.0
  0
SEQEND
  5
130
  8
FISHER_AND_PAYKEL
 62
     7
  0
INSERT
  5
131
  8
FISHER_AND_PAYKEL
  2
*X2
 10
0.0
 20
0.0
 30
0.0
  0
LINE
  5
132
  8
FISHER_AND_PAYKEL
 62
     7
 10
176.5123920138881
 20
1904.030597916667
 30
0.0
 11
296.8829479166661
 21
2095.969402083333
 31
0.0
  0
POLYLINE
  5
133
  8
FISHER_AND_PAYKEL
 62
     7
 66
     1
 10
0.0
 20
0.0
 30
0.0
 70
     1
  0
VERTEX
  5
134
  8
FISHER_AND_PAYKEL
 62
     7
 10
176.5123920138885
 20
1904.030597916667
 30
0.0
  0
VERTEX
  5
135
  8
FISHER_AND_PAYKEL
 62
     7
 10
197.7823343749992
 20
1949.710557638889
 30
0.0
  0
VERTEX
  5
136
  8
FISHER_AND_PAYKEL
 62
     7
 10
208.3721059027775
 20
1943.069295486111
 30
0.0
  0
SEQEND
  5
137
  8
FISHER_AND_PAYKEL
 62
     7
  0
LINE
  5
138
  8
FISHER_AND_PAYKEL
 62
     7
 10
296.8829479166661
 20
2095.969402083333
 30
0.0
 11
360.3829611111105
 21
2095.969402083333
 31
0.0
  0
INSERT
  5
139
  8
FISHER_AND_PAYKEL
  2
*X3
 10
0.0
 20
0.0
 30
0.0
  0
LINE
  5
13A
  8
FISHER_AND_PAYKEL
 62
     7
 10
176.5123920138881
 20
1904.030597916667
 30
0.0
 11
296.8829479166661
 21
2095.969402083333
 31
0.0
  0
POLYLINE
  5
13B
  8
FISHER_AND_PAYKEL
 62
     7
 66
     1
 10
0.0
 20
0.0
 30
0.0
 70
     1
  0
VERTEX
  5
13C
  8
FISHER_AND_PAYKEL
 62
     7
 10
176.5123920138885
 20
1904.030597916667
 30
0.0
  0
VERTEX
  5
13D
  8
FISHER_AND_PAYKEL
 62
     7
 10
197.7823343749992
 20
1949.710557638889
 30
0.0
  0
VERTEX
  5
13E
  8
FISHER_AND_PAYKEL
 62
     7
 10
208.3721059027775
 20
1943.069295486111
 30
0.0
  0
SEQEND
  5
13F
  8
FISHER_AND_PAYKEL
 62
     7
  0
LINE
  5
140
  8
FISHER_AND_PAYKEL
 62
     7
 10
296.8829479166661
 20
2095.969402083333
 30
0.0
 11
360.3829611111105
 21
2095.969402083333
 31
0.0
  0
ENDSEC
  0
EOF
