  0
SECTION
  2
HEADER
  9
$ACADVER
  1
AC1021
  9
$ACADMAINTVER
 70
    25
  9
$DWGCODEPAGE
  3
ANSI_1252
  9
$INSBASE
 10
0.0
 20
0.0
 30
0.0
  9
$EXTMIN
 10
1.000000000000000E+20
 20
1.000000000000000E+20
 30
1.000000000000000E+20
  9
$EXTMAX
 10
-1.000000000000000E+20
 20
-1.000000000000000E+20
 30
-1.000000000000000E+20
  9
$LIMMIN
 10
0.0
 20
0.0
  9
$LIMMAX
 10
12.0
 20
9.0
  9
$ORTHOMODE
 70
     0
  9
$REGENMODE
 70
     1
  9
$FILLMODE
 70
     1
  9
$QTEXTMODE
 70
     0
  9
$MIRRTEXT
 70
     1
  9
$LTSCALE
 40
137.5
  9
$ATTMODE
 70
     1
  9
$TEXTSIZE
 40
0.2
  9
$TRACEWID
 40
0.05
  9
$TEXTSTYLE
  7
Standard
  9
$CLAYER
  8
FISHER_PAYKEL
  9
$CELTYPE
  6
ByLayer
  9
$CECOLOR
 62
   256
  9
$CELTSCALE
 40
1.0
  9
$DISPSILH
 70
     0
  9
$DIMSCALE
 40
1.0
  9
$DIMASZ
 40
0.18
  9
$DIMEXO
 40
0.0625
  9
$DIMDLI
 40
0.38
  9
$DIMRND
 40
0.0
  9
$DIMDLE
 40
0.0
  9
$DIMEXE
 40
0.18
  9
$DIMTP
 40
0.0
  9
$DIMTM
 40
0.0
  9
$DIMTXT
 40
0.18
  9
$DIMCEN
 40
0.09
  9
$DIMTSZ
 40
0.0
  9
$DIMTOL
 70
     0
  9
$DIMLIM
 70
     0
  9
$DIMTIH
 70
     1
  9
$DIMTOH
 70
     1
  9
$DIMSE1
 70
     0
  9
$DIMSE2
 70
     0
  9
$DIMTAD
 70
     0
  9
$DIMZIN
 70
     0
  9
$DIMBLK
  1

  9
$DIMASO
 70
     1
  9
$DIMSHO
 70
     1
  9
$DIMPOST
  1

  9
$DIMAPOST
  1

  9
$DIMALT
 70
     0
  9
$DIMALTD
 70
     2
  9
$DIMALTF
 40
25.4
  9
$DIMLFAC
 40
1.0
  9
$DIMTOFL
 70
     0
  9
$DIMTVP
 40
0.0
  9
$DIMTIX
 70
     0
  9
$DIMSOXD
 70
     0
  9
$DIMSAH
 70
     0
  9
$DIMBLK1
  1

  9
$DIMBLK2
  1

  9
$DIMSTYLE
  2
STANDARD_ACAD
  9
$DIMCLRD
 70
     0
  9
$DIMCLRE
 70
     0
  9
$DIMCLRT
 70
     0
  9
$DIMTFAC
 40
1.0
  9
$DIMGAP
 40
0.09
  9
$DIMJUST
 70
     0
  9
$DIMSD1
 70
     0
  9
$DIMSD2
 70
     0
  9
$DIMTOLJ
 70
     1
  9
$DIMTZIN
 70
     0
  9
$DIMALTZ
 70
     0
  9
$DIMALTTZ
 70
     0
  9
$DIMUPT
 70
     0
  9
$DIMDEC
 70
     4
  9
$DIMTDEC
 70
     4
  9
$DIMALTU
 70
     2
  9
$DIMALTTD
 70
     2
  9
$DIMTXSTY
  7
Standard
  9
$DIMAUNIT
 70
     0
  9
$DIMADEC
 70
     0
  9
$DIMALTRND
 40
0.0
  9
$DIMAZIN
 70
     0
  9
$DIMDSEP
 70
    46
  9
$DIMATFIT
 70
     3
  9
$DIMFRAC
 70
     0
  9
$DIMLDRBLK
  1

  9
$DIMLUNIT
 70
     2
  9
$DIMLWD
 70
    -2
  9
$DIMLWE
 70
    -2
  9
$DIMTMOVE
 70
     2
  9
$DIMFXL
 40
1.0
  9
$DIMFXLON
 70
     0
  9
$DIMJOGANG
 40
0.7853981633974483
  9
$DIMTFILL
 70
     0
  9
$DIMTFILLCLR
 70
     0
  9
$DIMARCSYM
 70
     0
  9
$DIMLTYPE
  6

  9
$DIMLTEX1
  6

  9
$DIMLTEX2
  6

  9
$LUNITS
 70
     2
  9
$LUPREC
 70
     3
  9
$SKETCHINC
 40
0.1
  9
$FILLETRAD
 40
0.5
  9
$AUNITS
 70
     0
  9
$AUPREC
 70
     0
  9
$MENU
  1
.
  9
$ELEVATION
 40
0.0
  9
$PELEVATION
 40
0.0
  9
$THICKNESS
 40
0.0
  9
$LIMCHECK
 70
     0
  9
$CHAMFERA
 40
0.0
  9
$CHAMFERB
 40
0.0
  9
$CHAMFERC
 40
0.0
  9
$CHAMFERD
 40
0.0
  9
$SKPOLY
 70
     0
  9
$TDCREATE
 40
2460194.468686019
  9
$TDUCREATE
 40
2460193.968686019
  9
$TDUPDATE
 40
2460194.468704167
  9
$TDUUPDATE
 40
2460193.968704167
  9
$TDINDWG
 40
0.0000000116
  9
$TDUSRTIMER
 40
0.0000000116
  9
$USRTIMER
 70
     1
  9
$ANGBASE
 50
0.0
  9
$ANGDIR
 70
     0
  9
$PDMODE
 70
     0
  9
$PDSIZE
 40
0.0
  9
$PLINEWID
 40
0.0
  9
$SPLFRAME
 70
     0
  9
$SPLINETYPE
 70
     6
  9
$SPLINESEGS
 70
     8
  9
$HANDSEED
  5
2FC
  9
$SURFTAB1
 70
     6
  9
$SURFTAB2
 70
     6
  9
$SURFTYPE
 70
     6
  9
$SURFU
 70
     6
  9
$SURFV
 70
     6
  9
$UCSBASE
  2

  9
$UCSNAME
  2

  9
$UCSORG
 10
0.0
 20
0.0
 30
0.0
  9
$UCSXDIR
 10
1.0
 20
0.0
 30
0.0
  9
$UCSYDIR
 10
0.0
 20
1.0
 30
0.0
  9
$UCSORTHOREF
  2

  9
$UCSORTHOVIEW
 70
     0
  9
$UCSORGTOP
 10
0.0
 20
0.0
 30
0.0
  9
$UCSORGBOTTOM
 10
0.0
 20
0.0
 30
0.0
  9
$UCSORGLEFT
 10
0.0
 20
0.0
 30
0.0
  9
$UCSORGRIGHT
 10
0.0
 20
0.0
 30
0.0
  9
$UCSORGFRONT
 10
0.0
 20
0.0
 30
0.0
  9
$UCSORGBACK
 10
0.0
 20
0.0
 30
0.0
  9
$PUCSBASE
  2

  9
$PUCSNAME
  2

  9
$PUCSORG
 10
0.0
 20
0.0
 30
0.0
  9
$PUCSXDIR
 10
1.0
 20
0.0
 30
0.0
  9
$PUCSYDIR
 10
0.0
 20
1.0
 30
0.0
  9
$PUCSORTHOREF
  2

  9
$PUCSORTHOVIEW
 70
     0
  9
$PUCSORGTOP
 10
0.0
 20
0.0
 30
0.0
  9
$PUCSORGBOTTOM
 10
0.0
 20
0.0
 30
0.0
  9
$PUCSORGLEFT
 10
0.0
 20
0.0
 30
0.0
  9
$PUCSORGRIGHT
 10
0.0
 20
0.0
 30
0.0
  9
$PUCSORGFRONT
 10
0.0
 20
0.0
 30
0.0
  9
$PUCSORGBACK
 10
0.0
 20
0.0
 30
0.0
  9
$USERI1
 70
     0
  9
$USERI2
 70
     0
  9
$USERI3
 70
     0
  9
$USERI4
 70
     0
  9
$USERI5
 70
     0
  9
$USERR1
 40
0.0
  9
$USERR2
 40
0.0
  9
$USERR3
 40
0.0
  9
$USERR4
 40
0.0
  9
$USERR5
 40
0.0
  9
$WORLDVIEW
 70
     1
  9
$SHADEDGE
 70
     3
  9
$SHADEDIF
 70
    70
  9
$TILEMODE
 70
     1
  9
$MAXACTVP
 70
    64
  9
$PINSBASE
 10
0.0
 20
0.0
 30
0.0
  9
$PLIMCHECK
 70
     0
  9
$PEXTMIN
 10
1.000000000000000E+20
 20
1.000000000000000E+20
 30
1.000000000000000E+20
  9
$PEXTMAX
 10
-1.000000000000000E+20
 20
-1.000000000000000E+20
 30
-1.000000000000000E+20
  9
$PLIMMIN
 10
0.0
 20
0.0
  9
$PLIMMAX
 10
12.0
 20
9.0
  9
$UNITMODE
 70
     0
  9
$VISRETAIN
 70
     1
  9
$PLINEGEN
 70
     0
  9
$PSLTSCALE
 70
     1
  9
$TREEDEPTH
 70
  3020
  9
$CMLSTYLE
  2
Standard
  9
$CMLJUST
 70
     0
  9
$CMLSCALE
 40
1.0
  9
$PROXYGRAPHICS
 70
     1
  9
$MEASUREMENT
 70
     1
  9
$CELWEIGHT
370
    -1
  9
$ENDCAPS
280
     0
  9
$JOINSTYLE
280
     0
  9
$LWDISPLAY
290
     0
  9
$INSUNITS
 70
     4
  9
$HYPERLINKBASE
  1

  9
$STYLESHEET
  1

  9
$XEDIT
290
     1
  9
$CEPSNTYPE
380
     0
  9
$PSTYLEMODE
290
     1
  9
$FINGERPRINTGUID
  2
{09a84c57-e1a6-4897-ac4d-6a0e59cfeb34}
  9
$VERSIONGUID
  2
{FAEB1C32-E019-11D5-929B-00C0DF256EC4}
  9
$EXTNAMES
290
     1
  9
$PSVPSCALE
 40
0.0
  9
$OLESTARTUP
290
     0
  9
$SORTENTS
280
   127
  9
$INDEXCTL
280
     0
  9
$HIDETEXT
280
     1
  9
$XCLIPFRAME
290
     0
  9
$HALOGAP
280
     0
  9
$OBSCOLOR
 70
   257
  9
$OBSLTYPE
280
     0
  9
$INTERSECTIONDISPLAY
280
     0
  9
$INTERSECTIONCOLOR
 70
   257
  9
$DIMASSOC
280
     2
  9
$PROJECTNAME
  1

  9
$CAMERADISPLAY
290
     0
  9
$LENSLENGTH
 40
50.0
  9
$CAMERAHEIGHT
 40
0.0
  9
$STEPSPERSEC
 40
2.0
  9
$STEPSIZE
 40
6.0
  9
$3DDWFPREC
 40
2.0
  9
$PSOLWIDTH
 40
0.25
  9
$PSOLHEIGHT
 40
4.0
  9
$LOFTANG1
 40
1.570796326794897
  9
$LOFTANG2
 40
1.570796326794897
  9
$LOFTMAG1
 40
0.0
  9
$LOFTMAG2
 40
0.0
  9
$LOFTPARAM
 70
     7
  9
$LOFTNORMALS
280
     1
  9
$LATITUDE
 40
37.795
  9
$LONGITUDE
 40
-122.394
  9
$NORTHDIRECTION
 40
0.0
  9
$TIMEZONE
 70
 -8000
  9
$LIGHTGLYPHDISPLAY
280
     1
  9
$TILEMODELIGHTSYNCH
280
     1
  9
$CMATERIAL
347
44
  9
$SOLIDHIST
280
     0
  9
$SHOWHIST
280
     1
  9
$DWFFRAME
280
     2
  9
$DGNFRAME
280
     2
  9
$REALWORLDSCALE
290
     1
  9
$INTERFERECOLOR
 62
   256
  9
$CSHADOW
280
     0
  9
$SHADOWPLANELOCATION
 40
0.0
  0
ENDSEC
  0
SECTION
  2
CLASSES
  0
CLASS
  1
ACDBDICTIONARYWDFLT
  2
AcDbDictionaryWithDefault
  3
ObjectDBX Classes
 90
        0
 91
        3
280
     0
281
     0
  0
CLASS
  1
VISUALSTYLE
  2
AcDbVisualStyle
  3
ObjectDBX Classes
 90
     4095
 91
        3
280
     0
281
     0
  0
CLASS
  1
MATERIAL
  2
AcDbMaterial
  3
ObjectDBX Classes
 90
     1153
 91
        3
280
     0
281
     0
  0
CLASS
  1
SCALE
  2
AcDbScale
  3
ObjectDBX Classes
 90
     1153
 91
        3
280
     0
281
     0
  0
CLASS
  1
TABLESTYLE
  2
AcDbTableStyle
  3
ObjectDBX Classes
 90
     4095
 91
        3
280
     0
281
     0
  0
CLASS
  1
MLEADERSTYLE
  2
AcDbMLeaderStyle
  3
ACDB_MLEADERSTYLE_CLASS
 90
     4095
 91
        3
280
     0
281
     0
  0
CLASS
  1
SUN
  2
AcDbSun
  3
SCENEOE
 90
     1153
 91
        3
280
     0
281
     0
  0
CLASS
  1
DICTIONARYVAR
  2
AcDbDictionaryVar
  3
ObjectDBX Classes
 90
        0
 91
        3
280
     0
281
     0
  0
CLASS
  1
CELLSTYLEMAP
  2
AcDbCellStyleMap
  3
ObjectDBX Classes
 90
     1152
 91
        3
280
     0
281
     0
  0
ENDSEC
  0
SECTION
  2
TABLES
  0
TABLE
  2
VPORT
  5
8
330
0
100
AcDbSymbolTable
 70
     1
  0
VPORT
  5
29
330
8
100
AcDbSymbolTableRecord
100
AcDbViewportTableRecord
  2
*Active
 70
     0
 10
0.0
 20
0.0
 11
1.0
 21
1.0
 12
10.42990654205607
 22
4.5
 13
0.0
 23
0.0
 14
0.5
 24
0.5
 15
0.5
 25
0.5
 16
0.0
 26
0.0
 36
1.0
 17
0.0
 27
0.0
 37
0.0
 40
9.0
 41
1.972972972850329
 42
50.0
 43
0.0
 44
0.0
 50
0.0
 51
0.0
 71
     0
 72
   100
 73
     1
 74
     3
 75
     0
 76
     0
 77
     0
 78
     0
281
     0
 65
     1
110
0.0
120
0.0
130
0.0
111
1.0
121
0.0
131
0.0
112
0.0
122
1.0
132
0.0
 79
     0
146
0.0
348
2F
 60
     3
 61
     5
292
     1
282
     1
141
0.0
142
0.0
 63
   250
361
6D
  0
ENDTAB
  0
TABLE
  2
LTYPE
  5
5
330
0
100
AcDbSymbolTable
 70
     1
  0
LTYPE
  5
14
330
5
100
AcDbSymbolTableRecord
100
AcDbLinetypeTableRecord
  2
ByBlock
 70
     0
  3

 72
    65
 73
     0
 40
0.0
  0
LTYPE
  5
15
330
5
100
AcDbSymbolTableRecord
100
AcDbLinetypeTableRecord
  2
ByLayer
 70
     0
  3

 72
    65
 73
     0
 40
0.0
  0
LTYPE
  5
16
330
5
100
AcDbSymbolTableRecord
100
AcDbLinetypeTableRecord
  2
Continuous
 70
     0
  3
Solid line
 72
    65
 73
     0
 40
0.0
  0
ENDTAB
  0
TABLE
  2
LAYER
  5
2
330
0
100
AcDbSymbolTable
 70
     2
  0
LAYER
  5
10
330
2
100
AcDbSymbolTableRecord
100
AcDbLayerTableRecord
  2
0
 70
     0
 62
    18
420
        0
  6
Continuous
370
    -3
390
F
347
46
  0
LAYER
  5
6E
330
2
100
AcDbSymbolTableRecord
100
AcDbLayerTableRecord
  2
FISHER_PAYKEL
 70
     0
 62
    18
420
        0
  6
Continuous
370
    -3
390
F
347
46
  0
ENDTAB
  0
TABLE
  2
STYLE
  5
3
330
0
100
AcDbSymbolTable
 70
     1
  0
STYLE
  5
11
330
3
100
AcDbSymbolTableRecord
100
AcDbTextStyleTableRecord
  2
Standard
 70
     0
 40
0.0
 41
1.0
 50
0.0
 71
     0
 42
0.2
  3
txt
  4

  0
ENDTAB
  0
TABLE
  2
VIEW
  5
6
330
0
100
AcDbSymbolTable
 70
     0
  0
ENDTAB
  0
TABLE
  2
UCS
  5
7
330
0
100
AcDbSymbolTable
 70
     0
  0
ENDTAB
  0
TABLE
  2
APPID
  5
9
330
0
100
AcDbSymbolTable
 70
     2
  0
APPID
  5
12
330
9
100
AcDbSymbolTableRecord
100
AcDbRegAppTableRecord
  2
ACAD
 70
     0
  0
APPID
  5
2F4
330
9
100
AcDbSymbolTableRecord
100
AcDbRegAppTableRecord
  2
ACAD_MLEADERVER
 70
     0
  0
ENDTAB
  0
TABLE
  2
DIMSTYLE
  5
A
330
0
100
AcDbSymbolTable
 70
     1
100
AcDbDimStyleTable
  0
DIMSTYLE
105
27
330
A
100
AcDbSymbolTableRecord
100
AcDbDimStyleTableRecord
  2
STANDARD_ACAD
 70
     0
178
     0
340
11
  0
ENDTAB
  0
TABLE
  2
BLOCK_RECORD
  5
1
330
0
100
AcDbSymbolTable
 70
     2
  0
BLOCK_RECORD
  5
1F
330
1
100
AcDbSymbolTableRecord
100
AcDbBlockTableRecord
  2
*Model_Space
340
22
 70
     0
280
     1
281
     0
  0
BLOCK_RECORD
  5
1B
330
1
100
AcDbSymbolTableRecord
100
AcDbBlockTableRecord
  2
*Paper_Space
340
1E
 70
     0
280
     1
281
     0
  0
BLOCK_RECORD
  5
23
330
1
100
AcDbSymbolTableRecord
100
AcDbBlockTableRecord
  2
*Paper_Space0
340
26
 70
     0
280
     1
281
     0
  0
BLOCK_RECORD
  5
2B7
330
1
100
AcDbSymbolTableRecord
100
AcDbBlockTableRecord
  2
_FILLED
340
0
 70
     0
280
     1
281
     0
  0
ENDTAB
  0
ENDSEC
  0
SECTION
  2
BLOCKS
  0
BLOCK
  5
20
330
1F
100
AcDbEntity
  8
0
100
AcDbBlockBegin
  2
*Model_Space
 70
     0
 10
0.0
 20
0.0
 30
0.0
  3
*Model_Space
  1

  0
ENDBLK
  5
21
330
1F
100
AcDbEntity
  8
0
100
AcDbBlockEnd
  0
BLOCK
  5
1C
330
1B
100
AcDbEntity
 67
     1
  8
0
100
AcDbBlockBegin
  2
*Paper_Space
 70
     0
 10
0.0
 20
0.0
 30
0.0
  3
*Paper_Space
  1

  0
ENDBLK
  5
1D
330
1B
100
AcDbEntity
 67
     1
  8
0
100
AcDbBlockEnd
  0
BLOCK
  5
24
330
23
100
AcDbEntity
  8
0
100
AcDbBlockBegin
  2
*Paper_Space0
 70
     0
 10
0.0
 20
0.0
 30
0.0
  3
*Paper_Space0
  1

  0
ENDBLK
  5
25
330
23
100
AcDbEntity
  8
0
100
AcDbBlockEnd
  0
BLOCK
  5
2BD
330
2B7
100
AcDbEntity
  8
0
100
AcDbBlockBegin
  2
_FILLED
 70
     0
 10
0.0
 20
0.0
 30
0.0
  3
_FILLED
  1

  0
LINE
  5
2B8
330
2B7
100
AcDbEntity
  8
0
  6
ByBlock
 62
     0
370
    -2
100
AcDbLine
 10
0.0
 20
0.0
 30
0.0
 11
-1.0
 21
0.125
 31
0.0
  0
LINE
  5
2B9
330
2B7
100
AcDbEntity
  8
0
  6
ByBlock
 62
     0
370
    -2
100
AcDbLine
 10
-1.0
 20
0.125
 30
0.0
 11
-1.0
 21
-0.125
 31
0.0
  0
LINE
  5
2BA
330
2B7
100
AcDbEntity
  8
0
  6
ByBlock
 62
     0
370
    -2
100
AcDbLine
 10
-1.0
 20
-0.125
 30
0.0
 11
0.0
 21
0.0
 31
0.0
  0
LINE
  5
2BB
330
2B7
100
AcDbEntity
  8
0
  6
ByBlock
 62
     0
370
    -2
100
AcDbLine
 10
-0.5000000000000001
 20
-0.0625
 30
0.0
 11
-1.0
 21
0.0
 31
0.0
  0
LINE
  5
2BC
330
2B7
100
AcDbEntity
  8
0
  6
ByBlock
 62
     0
370
    -2
100
AcDbLine
 10
-0.5000000000000001
 20
0.0625
 30
0.0
 11
-0.515873015873016
 21
-0.064484126984127
 31
0.0
  0
ENDBLK
  5
2BE
330
2B7
100
AcDbEntity
  8
0
100
AcDbBlockEnd
  0
ENDSEC
  0
SECTION
  2
ENTITIES
  0
LINE
  5
6F
330
1F
100
AcDbEntity
  8
FISHER_PAYKEL
 62
   250
420
  1316376
370
     9
100
AcDbLine
 10
614.7589327374257
 20
-226.9755538590525
 30
0.0
 11
615.5491676215165
 21
-226.1923746435693
 31
0.0
  0
SPLINE
  5
70
330
1F
100
AcDbEntity
  8
FISHER_PAYKEL
 62
   250
420
  1316376
370
     9
100
AcDbSpline
210
0.0
220
0.0
230
1.0
 70
     8
 71
     3
 72
     8
 73
     4
 74
     0
 42
0.000000001
 43
0.0000000001
 40
0.3153727952756245
 40
0.3153727952756245
 40
0.3153727952756245
 40
0.3153727952756245
 40
1.315372795275624
 40
1.315372795275624
 40
1.315372795275624
 40
1.315372795275624
 10
615.5491676215165
 20
-226.1923746435693
 30
0.0
 10
616.896800325636
 20
-227.5258960104729
 30
0.0
 10
618.4561030879943
 20
-228.3725762434276
 30
0.0
 10
620.0365728561763
 20
-228.3725762434276
 30
0.0
  0
SPLINE
  5
71
330
1F
100
AcDbEntity
  8
FISHER_PAYKEL
 62
   250
420
  1316376
370
     9
100
AcDbSpline
210
0.0
220
0.0
230
1.0
 70
     8
 71
     3
 72
     8
 73
     4
 74
     0
 42
0.000000001
 43
0.0000000001
 40
1.315372795275624
 40
1.315372795275624
 40
1.315372795275624
 40
1.315372795275624
 40
2.315372795275624
 40
2.315372795275624
 40
2.315372795275624
 40
2.315372795275624
 10
620.0365728561763
 20
-228.3725762434276
 30
0.0
 10
622.4108053427534
 20
-228.3725762434276
 30
0.0
 10
624.0547761284071
 20
-226.7215497891659
 30
0.0
 10
624.0547761284071
 20
-224.6507110527311
 30
0.0
  0
LINE
  5
72
330
1F
100
AcDbEntity
  8
FISHER_PAYKEL
 62
   250
420
  1316376
370
     9
100
AcDbLine
 10
624.0547761284071
 20
-224.6507110527311
 30
0.0
 11
624.0547761284071
 21
-224.6048492067791
 31
0.0
  0
SPLINE
  5
73
330
1F
100
AcDbEntity
  8
FISHER_PAYKEL
 62
   250
420
  1316376
370
     9
100
AcDbSpline
210
0.0
220
0.0
230
1.0
 70
     8
 71
     3
 72
     8
 73
     4
 74
     0
 42
0.000000001
 43
0.0000000001
 40
2.328372795275658
 40
2.328372795275658
 40
2.328372795275658
 40
2.328372795275658
 40
3.328372795275658
 40
3.328372795275658
 40
3.328372795275658
 40
3.328372795275658
 10
624.0547761284071
 20
-224.6048492067791
 30
0.0
 10
624.0547761284071
 20
-222.5551774761682
 30
0.0
 10
622.3684713311058
 20
-221.0946540743214
 30
0.0
 10
619.9519048328809
 20
-221.0946540743214
 30
0.0
  0
SPLINE
  5
74
330
1F
100
AcDbEntity
  8
FISHER_PAYKEL
 62
   250
420
  1316376
370
     9
100
AcDbSpline
210
0.0
220
0.0
230
1.0
 70
     8
 71
     3
 72
     8
 73
     4
 74
     0
 42
0.000000001
 43
0.0000000001
 40
3.328372795275658
 40
3.328372795275658
 40
3.328372795275658
 40
3.328372795275658
 40
4.328372795275659
 40
4.328372795275659
 40
4.328372795275659
 40
4.328372795275659
 10
619.9519048328809
 20
-221.0946540743214
 30
0.0
 10
618.5619381171136
 20
-221.0946540743214
 30
0.0
 10
617.5176991631362
 20
-221.5179941907986
 30
0.0
 10
616.5757674039739
 20
-222.0295301648755
 30
0.0
  0
LINE
  5
75
330
1F
100
AcDbEntity
  8
FISHER_PAYKEL
 62
   250
420
  1316376
370
     9
100
AcDbLine
 10
616.5757674039739
 20
-222.0295301648755
 30
0.0
 11
615.7185036681074
 21
-221.475660179151
 31
0.0
  0
LINE
  5
76
330
1F
100
AcDbEntity
  8
FISHER_PAYKEL
 62
   250
420
  1316376
370
     9
100
AcDbLine
 10
615.7185036681074
 20
-221.475660179151
 30
0.0
 11
616.1488994531928
 21
-214.3035730391641
 31
0.0
  0
LINE
  5
77
330
1F
100
AcDbEntity
  8
FISHER_PAYKEL
 62
   250
420
  1316376
370
     9
100
AcDbLine
 10
616.1488994531928
 20
-214.3035730391641
 30
0.0
 11
624.5451450966601
 21
-214.3035730391641
 31
0.0
  0
LINE
  5
78
330
1F
100
AcDbEntity
  8
FISHER_PAYKEL
 62
   250
420
  1316376
370
     9
100
AcDbLine
 10
624.5451450966601
 20
-214.3035730391641
 30
0.0
 11
624.5451450966601
 21
-215.3619233303575
 31
0.0
  0
LINE
  5
79
330
1F
100
AcDbEntity
  8
FISHER_PAYKEL
 62
   250
420
  1316376
370
     9
100
AcDbLine
 10
624.5451450966601
 20
-215.3619233303575
 30
0.0
 11
617.1296373896986
 21
-215.3619233303575
 31
0.0
  0
LINE
  5
7A
330
1F
100
AcDbEntity
  8
FISHER_PAYKEL
 62
   250
420
  1316376
370
     9
100
AcDbLine
 10
617.1296373896986
 20
-215.3619233303575
 30
0.0
 11
616.7662704563888
 21
-220.9041510219065
 31
0.0
  0
SPLINE
  5
7B
330
1F
100
AcDbEntity
  8
FISHER_PAYKEL
 62
   250
420
  1316376
370
     9
100
AcDbSpline
210
0.0
220
0.0
230
1.0
 70
     8
 71
     3
 72
     8
 73
     4
 74
     0
 42
0.000000001
 43
0.0000000001
 40
13.01070906300447
 40
13.01070906300447
 40
13.01070906300447
 40
13.01070906300447
 40
14.01070906300447
 40
14.01070906300447
 40
14.01070906300447
 40
14.01070906300447
 10
616.7662704563888
 20
-220.9041510219065
 30
0.0
 10
617.7293692213749
 20
-220.4384768937814
 30
0.0
 10
618.6924679863607
 20
-220.0998048005995
 30
0.0
 10
620.0789068678241
 20
-220.0998048005995
 30
0.0
  0
SPLINE
  5
7C
330
1F
100
AcDbEntity
  8
FISHER_PAYKEL
 62
   250
420
  1316376
370
     9
100
AcDbSpline
210
0.0
220
0.0
230
1.0
 70
     8
 71
     3
 72
     8
 73
     4
 74
     0
 42
0.000000001
 43
0.0000000001
 40
14.01070906300447
 40
14.01070906300447
 40
14.01070906300447
 40
14.01070906300447
 40
15.01070906300447
 40
15.01070906300447
 40
15.01070906300447
 40
15.01070906300447
 10
620.0789068678241
 20
-220.0998048005995
 30
0.0
 10
622.9646753284779
 20
-220.0998048005995
 30
0.0
 10
625.2083779458078
 20
-221.9201673014522
 30
0.0
 10
625.2083779458078
 20
-224.5625151951315
 30
0.0
  0
LINE
  5
7D
330
1F
100
AcDbEntity
  8
FISHER_PAYKEL
 62
   250
420
  1316376
370
     9
100
AcDbLine
 10
625.2083779458078
 20
-224.5625151951315
 30
0.0
 11
625.2083779458078
 21
-224.6048492067791
 31
0.0
  0
SPLINE
  5
7E
330
1F
100
AcDbEntity
  8
FISHER_PAYKEL
 62
   250
420
  1316376
370
     9
100
AcDbSpline
210
0.0
220
0.0
230
1.0
 70
     8
 71
     3
 72
     8
 73
     4
 74
     0
 42
0.000000001
 43
0.0000000001
 40
15.02270906300447
 40
15.02270906300447
 40
15.02270906300447
 40
15.02270906300447
 40
16.02270906300447
 40
16.02270906300447
 40
16.02270906300447
 40
16.02270906300447
 10
625.2083779458078
 20
-224.6048492067791
 30
0.0
 10
625.2083779458078
 20
-227.3988939755297
 30
0.0
 10
623.0070093401256
 20
-229.3674255171493
 30
0.0
 10
619.9942388445287
 20
-229.3674255171493
 30
0.0
  0
SPLINE
  5
7F
330
1F
100
AcDbEntity
  8
FISHER_PAYKEL
 62
   250
420
  1316376
370
     9
100
AcDbSpline
210
0.0
220
0.0
230
1.0
 70
     8
 71
     3
 72
     8
 73
     4
 74
     0
 42
0.000000001
 43
0.0000000001
 40
16.02270906300447
 40
16.02270906300447
 40
16.02270906300447
 40
16.02270906300447
 40
17.02270906300447
 40
17.02270906300447
 40
17.02270906300447
 40
17.02270906300447
 10
619.9942388445287
 20
-229.3674255171493
 30
0.0
 10
617.9657346033745
 20
-229.3674255171493
 30
0.0
 10
616.0642323366045
 20
-228.2879087348861
 30
0.0
 10
614.7589327374257
 20
-226.9755538590525
 30
0.0
  0
POLYLINE
  5
80
330
1F
100
AcDbEntity
  8
FISHER_PAYKEL
 62
   250
420
  1316376
370
     9
100
AcDb2dPolyline
 66
     1
 10
0.0
 20
0.0
 30
0.0
 70
     1
  0
VERTEX
  5
81
330
80
100
AcDbEntity
  8
FISHER_PAYKEL
 62
   250
420
  1316376
370
     9
100
AcDbVertex
100
AcDb2dVertex
 10
739.6816621418631
 20
-215.3411091079638
 30
0.0
  0
VERTEX
  5
82
330
80
100
AcDbEntity
  8
FISHER_PAYKEL
 62
   250
420
  1316376
370
     9
100
AcDbVertex
100
AcDb2dVertex
 10
736.7958936812093
 20
-216.3147913758617
 30
0.0
  0
VERTEX
  5
83
330
80
100
AcDbEntity
  8
FISHER_PAYKEL
 62
   250
420
  1316376
370
     9
100
AcDbVertex
100
AcDb2dVertex
 10
736.4960277653712
 20
-215.4469441370829
 30
0.0
  0
VERTEX
  5
84
330
80
100
AcDbEntity
  8
FISHER_PAYKEL
 62
   250
420
  1316376
370
     9
100
AcDbVertex
100
AcDb2dVertex
 10
739.9144992059256
 20
-214.1980907934749
 30
0.0
  0
VERTEX
  5
85
330
80
100
AcDbEntity
  8
FISHER_PAYKEL
 62
   250
420
  1316376
370
     9
100
AcDbVertex
100
AcDb2dVertex
 10
740.7717629417925
 20
-214.1980907934749
 30
0.0
  0
VERTEX
  5
86
330
80
100
AcDbEntity
  8
FISHER_PAYKEL
 62
   250
420
  1316376
370
     9
100
AcDbVertex
100
AcDb2dVertex
 10
740.7717629417925
 20
-229.1102463963894
 30
0.0
  0
VERTEX
  5
87
330
80
100
AcDbEntity
  8
FISHER_PAYKEL
 62
   250
420
  1316376
370
     9
100
AcDbVertex
100
AcDb2dVertex
 10
739.6816621418632
 20
-229.1102463963894
 30
0.0
  0
SEQEND
  5
88
330
80
100
AcDbEntity
  8
FISHER_PAYKEL
 62
   250
420
  1316376
370
     9
  0
LINE
  5
89
330
1F
100
AcDbEntity
  8
FISHER_PAYKEL
 62
   250
420
  1316376
370
     9
100
AcDbLine
 10
744.3740345495843
 20
-221.7525951720131
 30
0.0
 11
744.3740345495843
 21
-221.7067333260616
 31
0.0
  0
SPLINE
  5
8A
330
1F
100
AcDbEntity
  8
FISHER_PAYKEL
 62
   250
420
  1316376
370
     9
100
AcDbSpline
210
0.0
220
0.0
230
1.0
 70
     8
 71
     3
 72
     8
 73
     4
 74
     0
 42
0.000000001
 43
0.0000000001
 40
2.012999999999977
 40
2.012999999999977
 40
2.012999999999977
 40
2.012999999999977
 40
3.012999999999977
 40
3.012999999999977
 40
3.012999999999977
 40
3.012999999999977
 10
744.3740345495843
 20
-221.7067333260616
 30
0.0
 10
744.3740345495843
 20
-217.6250290363591
 30
0.0
 10
746.790601047809
 20
-214.0478050521256
 30
0.0
 10
750.5971342618011
 20
-214.0478050521256
 30
0.0
  0
SPLINE
  5
8B
330
1F
100
AcDbEntity
  8
FISHER_PAYKEL
 62
   250
420
  1316376
370
     9
100
AcDbSpline
210
0.0
220
0.0
230
1.0
 70
     8
 71
     3
 72
     8
 73
     4
 74
     0
 42
0.000000001
 43
0.0000000001
 40
3.012999999999977
 40
3.012999999999977
 40
3.012999999999977
 40
3.012999999999977
 40
4.012999999999977
 40
4.012999999999977
 40
4.012999999999977
 40
4.012999999999977
 10
750.5971342618011
 20
-214.0478050521256
 30
0.0
 10
754.4001396414892
 20
-214.0478050521256
 30
0.0
 10
756.7708442937624
 20
-217.5826950247115
 30
0.0
 10
756.7708442937624
 20
-221.6679271487178
 30
0.0
  0
LINE
  5
8C
330
1F
100
AcDbEntity
  8
FISHER_PAYKEL
 62
   250
420
  1316376
370
     9
100
AcDbLine
 10
756.7708442937624
 20
-221.6679271487178
 30
0.0
 11
756.7708442937624
 21
-221.7067333260616
 31
0.0
  0
SPLINE
  5
8D
330
1F
100
AcDbEntity
  8
FISHER_PAYKEL
 62
   250
420
  1316376
370
     9
100
AcDbSpline
210
0.0
220
0.0
230
1.0
 70
     8
 71
     3
 72
     8
 73
     4
 74
     0
 42
0.000000001
 43
0.0000000001
 40
4.024000000000001
 40
4.024000000000001
 40
4.024000000000001
 40
4.024000000000001
 40
5.024000000000001
 40
5.024000000000001
 40
5.024000000000001
 40
5.024000000000001
 10
756.7708442937624
 20
-221.7067333260616
 30
0.0
 10
756.7708442937624
 20
-225.7919654500677
 30
0.0
 10
754.3578056298416
 20
-229.3656615999973
 30
0.0
 10
750.5512724158496
 20
-229.3656615999973
 30
0.0
  0
SPLINE
  5
8E
330
1F
100
AcDbEntity
  8
FISHER_PAYKEL
 62
   250
420
  1316376
370
     9
100
AcDbSpline
210
0.0
220
0.0
230
1.0
 70
     8
 71
     3
 72
     8
 73
     4
 74
     0
 42
0.000000001
 43
0.0000000001
 40
5.024000000000001
 40
5.024000000000001
 40
5.024000000000001
 40
5.024000000000001
 40
6.024000000000001
 40
6.024000000000001
 40
6.024000000000001
 40
6.024000000000001
 10
750.5512724158496
 20
-229.3656615999973
 30
0.0
 10
746.7482670361613
 20
-229.3656615999973
 30
0.0
 10
744.3740345495843
 20
-225.8342994617155
 30
0.0
 10
744.3740345495843
 20
-221.7525951720131
 30
0.0
  0
LINE
  5
8F
330
1F
100
AcDbEntity
  8
FISHER_PAYKEL
 62
   250
420
  1316376
370
     9
100
AcDbLine
 10
755.6172424763618
 20
-221.7525951720131
 30
0.0
 11
755.6172424763618
 21
-221.7067333260616
 31
0.0
  0
SPLINE
  5
90
330
1F
100
AcDbEntity
  8
FISHER_PAYKEL
 62
   250
420
  1316376
370
     9
100
AcDbSpline
210
0.0
220
0.0
230
1.0
 70
     8
 71
     3
 72
     8
 73
     4
 74
     0
 42
0.000000001
 43
0.0000000001
 40
0.0129999999999768
 40
0.0129999999999768
 40
0.0129999999999768
 40
0.0129999999999768
 40
1.012999999999977
 40
1.012999999999977
 40
1.012999999999977
 40
1.012999999999977
 10
755.6172424763618
 20
-221.7067333260616
 30
0.0
 10
755.6172424763618
 20
-218.2600392110751
 30
0.0
 10
753.652238769046
 20
-215.0461821601511
 30
0.0
 10
750.5512724158496
 20
-215.0461821601511
 30
0.0
  0
SPLINE
  5
91
330
1F
100
AcDbEntity
  8
FISHER_PAYKEL
 62
   250
420
  1316376
370
     9
100
AcDbSpline
210
0.0
220
0.0
230
1.0
 70
     8
 71
     3
 72
     8
 73
     4
 74
     0
 42
0.000000001
 43
0.0000000001
 40
1.012999999999977
 40
1.012999999999977
 40
1.012999999999977
 40
1.012999999999977
 40
2.012999999999977
 40
2.012999999999977
 40
2.012999999999977
 40
2.012999999999977
 10
750.5512724158496
 20
-215.0461821601511
 30
0.0
 10
747.4538338969569
 20
-215.0461821601511
 30
0.0
 10
745.5311642012891
 20
-218.2177051994272
 30
0.0
 10
745.5311642012891
 20
-221.6679271487178
 30
0.0
  0
LINE
  5
92
330
1F
100
AcDbEntity
  8
FISHER_PAYKEL
 62
   250
420
  1316376
370
     9
100
AcDbLine
 10
745.5311642012891
 20
-221.6679271487178
 30
0.0
 11
745.5311642012891
 21
-221.7067333260616
 31
0.0
  0
SPLINE
  5
93
330
1F
100
AcDbEntity
  8
FISHER_PAYKEL
 62
   250
420
  1316376
370
     9
100
AcDbSpline
210
0.0
220
0.0
230
1.0
 70
     8
 71
     3
 72
     8
 73
     4
 74
     0
 42
0.000000001
 43
0.0000000001
 40
2.024000000000001
 40
2.024000000000001
 40
2.024000000000001
 40
2.024000000000001
 40
3.024000000000001
 40
3.024000000000001
 40
3.024000000000001
 40
3.024000000000001
 10
745.5311642012891
 20
-221.7067333260616
 30
0.0
 10
745.5311642012891
 20
-225.1357882695279
 30
0.0
 10
747.4961679086047
 20
-228.3743401605798
 30
0.0
 10
750.5971342618011
 20
-228.3743401605798
 30
0.0
  0
SPLINE
  5
94
330
1F
100
AcDbEntity
  8
FISHER_PAYKEL
 62
   250
420
  1316376
370
     9
100
AcDbSpline
210
0.0
220
0.0
230
1.0
 70
     8
 71
     3
 72
     8
 73
     4
 74
     0
 42
0.000000001
 43
0.0000000001
 40
3.024000000000001
 40
3.024000000000001
 40
3.024000000000001
 40
3.024000000000001
 40
4.024000000000001
 40
4.024000000000001
 40
4.024000000000001
 40
4.024000000000001
 10
750.5971342618011
 20
-228.3743401605798
 30
0.0
 10
753.6945727806936
 20
-228.3743401605798
 30
0.0
 10
755.6172424763618
 20
-225.1781222811758
 30
0.0
 10
755.6172424763618
 20
-221.7525951720131
 30
0.0
  0
LINE
  5
95
330
1F
100
AcDbEntity
  8
FISHER_PAYKEL
 62
   250
420
  1316376
370
     9
100
AcDbLine
 10
988.1650241259732
 20
-228.2882610035626
 30
0.0
 11
993.7425301605623
 21
-223.2963754634336
 31
0.0
  0
SPLINE
  5
96
330
1F
100
AcDbEntity
  8
FISHER_PAYKEL
 62
   250
420
  1316376
370
     9
100
AcDbSpline
210
0.0
220
0.0
230
1.0
 70
     8
 71
     3
 72
     8
 73
     4
 74
     0
 42
0.000000001
 43
0.0000000001
 40
2.121741266036095
 40
2.121741266036095
 40
2.121741266036095
 40
2.121741266036095
 40
3.121741266036095
 40
3.121741266036095
 40
3.121741266036095
 40
3.121741266036095
 10
993.7425301605623
 20
-223.2963754634336
 30
0.0
 10
996.1979028361308
 20
-221.0738398519277
 30
0.0
 10
997.0551665719973
 20
-219.8038195024958
 30
0.0
 10
997.0551665719973
 20
-218.2374610715297
 30
0.0
  0
SPLINE
  5
97
330
1F
100
AcDbEntity
  8
FISHER_PAYKEL
 62
   250
420
  1316376
370
     9
100
AcDbSpline
210
0.0
220
0.0
230
1.0
 70
     8
 71
     3
 72
     8
 73
     4
 74
     0
 42
0.000000001
 43
0.0000000001
 40
3.121741266036095
 40
3.121741266036095
 40
3.121741266036095
 40
3.121741266036095
 40
4.121741266036095
 40
4.121741266036095
 40
4.121741266036095
 40
4.121741266036095
 10
997.0551665719973
 20
-218.2374610715297
 30
0.0
 10
997.0551665719973
 20
-216.3147913758617
 30
0.0
 10
995.4711689695115
 20
-215.0659380322536
 30
0.0
 10
993.6755013087865
 20
-215.0659380322536
 30
0.0
  0
SPLINE
  5
98
330
1F
100
AcDbEntity
  8
FISHER_PAYKEL
 62
   250
420
  1316376
370
     9
100
AcDbSpline
210
0.0
220
0.0
230
1.0
 70
     8
 71
     3
 72
     8
 73
     4
 74
     0
 42
0.000000001
 43
0.0000000001
 40
4.121741266036095
 40
4.121741266036095
 40
4.121741266036095
 40
4.121741266036095
 40
5.121741266036095
 40
5.121741266036095
 40
5.121741266036095
 40
5.121741266036095
 10
993.6755013087865
 20
-215.0659380322536
 30
0.0
 10
991.7739986189428
 20
-215.0659380322536
 30
0.0
 10
990.5392566125503
 20
-216.0396203001515
 30
0.0
 10
989.29745893755
 20
-217.8176487893563
 30
0.0
  0
LINE
  5
99
330
1F
100
AcDbEntity
  8
FISHER_PAYKEL
 62
   250
420
  1316376
370
     9
100
AcDbLine
 10
989.29745893755
 20
-217.8176487893563
 30
0.0
 11
988.4648900418111
 21
-217.2673066379357
 31
0.0
  0
SPLINE
  5
9A
330
1F
100
AcDbEntity
  8
FISHER_PAYKEL
 62
   250
420
  1316376
370
     9
100
AcDbSpline
210
0.0
220
0.0
230
1.0
 70
     8
 71
     3
 72
     8
 73
     4
 74
     0
 42
0.000000001
 43
0.0000000001
 40
5.404640541397528
 40
5.404640541397528
 40
5.404640541397528
 40
5.404640541397528
 40
6.404640541397528
 40
6.404640541397528
 40
6.404640541397528
 40
6.404640541397528
 10
988.4648900418111
 20
-217.2673066379357
 30
0.0
 10
989.766660899979
 20
-215.2987750963159
 30
0.0
 10
991.1566276157465
 20
-214.0957835986596
 30
0.0
 10
993.78486417221
 20
-214.0957835986596
 30
0.0
  0
SPLINE
  5
9B
330
1F
100
AcDbEntity
  8
FISHER_PAYKEL
 62
   250
420
  1316376
370
     9
100
AcDbSpline
210
0.0
220
0.0
230
1.0
 70
     8
 71
     3
 72
     8
 73
     4
 74
     0
 42
0.000000001
 43
0.0000000001
 40
6.404640541397528
 40
6.404640541397528
 40
6.404640541397528
 40
6.404640541397528
 40
7.404640541397528
 40
7.404640541397528
 40
7.404640541397528
 40
7.404640541397528
 10
993.78486417221
 20
-214.0957835986596
 30
0.0
 10
996.3249048710737
 20
-214.0957835986596
 30
0.0
 10
998.2299353952218
 20
-215.8491172477366
 30
0.0
 10
998.2299353952218
 20
-218.1563208825382
 30
0.0
  0
LINE
  5
9C
330
1F
100
AcDbEntity
  8
FISHER_PAYKEL
 62
   250
420
  1316376
370
     9
100
AcDbLine
 10
998.2299353952218
 20
-218.1563208825382
 30
0.0
 11
998.2299353952218
 21
-218.1986548941859
 31
0.0
  0
SPLINE
  5
9D
330
1F
100
AcDbEntity
  8
FISHER_PAYKEL
 62
   250
420
  1316376
370
     9
100
AcDbSpline
210
0.0
220
0.0
230
1.0
 70
     8
 71
     3
 72
     8
 73
     4
 74
     0
 42
0.000000001
 43
0.0000000001
 40
7.416640541397529
 40
7.416640541397529
 40
7.416640541397529
 40
7.416640541397529
 40
8.416640541397529
 40
8.416640541397529
 40
8.416640541397529
 40
8.416640541397529
 10
998.2299353952218
 20
-218.1986548941859
 30
0.0
 10
998.2299353952218
 20
-220.2306874532771
 30
0.0
 10
997.1186675894688
 20
-221.5818479917007
 30
0.0
 10
994.4904310330054
 20
-223.9525526439738
 30
0.0
  0
LINE
  5
9E
330
1F
100
AcDbEntity
  8
FISHER_PAYKEL
 62
   250
420
  1316376
370
     9
100
AcDbLine
 10
994.4904310330054
 20
-223.9525526439738
 30
0.0
 11
989.9183577750501
 21
-228.058951773804
 31
0.0
  0
LINE
  5
9F
330
1F
100
AcDbEntity
  8
FISHER_PAYKEL
 62
   250
420
  1316376
370
     9
100
AcDbLine
 10
989.9183577750501
 20
-228.058951773804
 30
0.0
 11
998.3816322702929
 21
-228.058951773804
 31
0.0
  0
LINE
  5
A0
330
1F
100
AcDbEntity
  8
FISHER_PAYKEL
 62
   250
420
  1316376
370
     9
100
AcDbLine
 10
998.3816322702929
 20
-228.058951773804
 30
0.0
 11
998.3816322702929
 21
-229.1102463963894
 31
0.0
  0
LINE
  5
A1
330
1F
100
AcDbEntity
  8
FISHER_PAYKEL
 62
   250
420
  1316376
370
     9
100
AcDbLine
 10
998.3816322702929
 20
-229.1102463963894
 30
0.0
 11
988.1650241259732
 21
-229.1102463963894
 31
0.0
  0
LINE
  5
A2
330
1F
100
AcDbEntity
  8
FISHER_PAYKEL
 62
   250
420
  1316376
370
     9
100
AcDbLine
 10
988.1650241259732
 20
-229.1102463963894
 30
0.0
 11
988.1650241259732
 21
-228.2882610035626
 31
0.0
  0
LINE
  5
A3
330
1F
100
AcDbEntity
  8
FISHER_PAYKEL
 62
   250
420
  1316376
370
     9
100
AcDbLine
 10
1001.099828601508
 20
-221.7525951720131
 30
0.0
 11
1001.099828601508
 21
-221.7067333260616
 31
0.0
  0
SPLINE
  5
A4
330
1F
100
AcDbEntity
  8
FISHER_PAYKEL
 62
   250
420
  1316376
370
     9
100
AcDbSpline
210
0.0
220
0.0
230
1.0
 70
     8
 71
     3
 72
     8
 73
     4
 74
     0
 42
0.000000001
 43
0.0000000001
 40
2.012999999999977
 40
2.012999999999977
 40
2.012999999999977
 40
2.012999999999977
 40
3.012999999999977
 40
3.012999999999977
 40
3.012999999999977
 40
3.012999999999977
 10
1001.099828601508
 20
-221.7067333260616
 30
0.0
 10
1001.099828601508
 20
-217.6250290363591
 30
0.0
 10
1003.516395099733
 20
-214.0478050521256
 30
0.0
 10
1007.322928313725
 20
-214.0478050521256
 30
0.0
  0
SPLINE
  5
A5
330
1F
100
AcDbEntity
  8
FISHER_PAYKEL
 62
   250
420
  1316376
370
     9
100
AcDbSpline
210
0.0
220
0.0
230
1.0
 70
     8
 71
     3
 72
     8
 73
     4
 74
     0
 42
0.000000001
 43
0.0000000001
 40
3.012999999999977
 40
3.012999999999977
 40
3.012999999999977
 40
3.012999999999977
 40
4.012999999999977
 40
4.012999999999977
 40
4.012999999999977
 40
4.012999999999977
 10
1007.322928313725
 20
-214.0478050521256
 30
0.0
 10
1011.125933693413
 20
-214.0478050521256
 30
0.0
 10
1013.496638345686
 20
-217.5826950247115
 30
0.0
 10
1013.496638345686
 20
-221.6679271487178
 30
0.0
  0
LINE
  5
A6
330
1F
100
AcDbEntity
  8
FISHER_PAYKEL
 62
   250
420
  1316376
370
     9
100
AcDbLine
 10
1013.496638345686
 20
-221.6679271487178
 30
0.0
 11
1013.496638345686
 21
-221.7067333260616
 31
0.0
  0
SPLINE
  5
A7
330
1F
100
AcDbEntity
  8
FISHER_PAYKEL
 62
   250
420
  1316376
370
     9
100
AcDbSpline
210
0.0
220
0.0
230
1.0
 70
     8
 71
     3
 72
     8
 73
     4
 74
     0
 42
0.000000001
 43
0.0000000001
 40
4.024000000000001
 40
4.024000000000001
 40
4.024000000000001
 40
4.024000000000001
 40
5.024000000000001
 40
5.024000000000001
 40
5.024000000000001
 40
5.024000000000001
 10
1013.496638345686
 20
-221.7067333260616
 30
0.0
 10
1013.496638345686
 20
-225.7919654500677
 30
0.0
 10
1011.083599681765
 20
-229.3656615999973
 30
0.0
 10
1007.277066467773
 20
-229.3656615999973
 30
0.0
  0
SPLINE
  5
A8
330
1F
100
AcDbEntity
  8
FISHER_PAYKEL
 62
   250
420
  1316376
370
     9
100
AcDbSpline
210
0.0
220
0.0
230
1.0
 70
     8
 71
     3
 72
     8
 73
     4
 74
     0
 42
0.000000001
 43
0.0000000001
 40
5.024000000000001
 40
5.024000000000001
 40
5.024000000000001
 40
5.024000000000001
 40
6.024000000000001
 40
6.024000000000001
 40
6.024000000000001
 40
6.024000000000001
 10
1007.277066467773
 20
-229.3656615999973
 30
0.0
 10
1003.474061088085
 20
-229.3656615999973
 30
0.0
 10
1001.099828601508
 20
-225.8342994617155
 30
0.0
 10
1001.099828601508
 20
-221.7525951720131
 30
0.0
  0
LINE
  5
A9
330
1F
100
AcDbEntity
  8
FISHER_PAYKEL
 62
   250
420
  1316376
370
     9
100
AcDbLine
 10
1012.343036528285
 20
-221.7525951720131
 30
0.0
 11
1012.343036528285
 21
-221.7067333260616
 31
0.0
  0
SPLINE
  5
AA
330
1F
100
AcDbEntity
  8
FISHER_PAYKEL
 62
   250
420
  1316376
370
     9
100
AcDbSpline
210
0.0
220
0.0
230
1.0
 70
     8
 71
     3
 72
     8
 73
     4
 74
     0
 42
0.000000001
 43
0.0000000001
 40
0.0129999999999768
 40
0.0129999999999768
 40
0.0129999999999768
 40
0.0129999999999768
 40
1.012999999999977
 40
1.012999999999977
 40
1.012999999999977
 40
1.012999999999977
 10
1012.343036528285
 20
-221.7067333260616
 30
0.0
 10
1012.343036528285
 20
-218.2600392110751
 30
0.0
 10
1010.374504986666
 20
-215.0461821601511
 30
0.0
 10
1007.277066467773
 20
-215.0461821601511
 30
0.0
  0
SPLINE
  5
AB
330
1F
100
AcDbEntity
  8
FISHER_PAYKEL
 62
   250
420
  1316376
370
     9
100
AcDbSpline
210
0.0
220
0.0
230
1.0
 70
     8
 71
     3
 72
     8
 73
     4
 74
     0
 42
0.000000001
 43
0.0000000001
 40
1.012999999999977
 40
1.012999999999977
 40
1.012999999999977
 40
1.012999999999977
 40
2.012999999999977
 40
2.012999999999977
 40
2.012999999999977
 40
2.012999999999977
 10
1007.277066467773
 20
-215.0461821601511
 30
0.0
 10
1004.183155783184
 20
-215.0461821601511
 30
0.0
 10
1002.256958253212
 20
-218.2177051994272
 30
0.0
 10
1002.256958253212
 20
-221.6679271487178
 30
0.0
  0
LINE
  5
AC
330
1F
100
AcDbEntity
  8
FISHER_PAYKEL
 62
   250
420
  1316376
370
     9
100
AcDbLine
 10
1002.256958253212
 20
-221.6679271487178
 30
0.0
 11
1002.256958253212
 21
-221.7067333260616
 31
0.0
  0
SPLINE
  5
AD
330
1F
100
AcDbEntity
  8
FISHER_PAYKEL
 62
   250
420
  1316376
370
     9
100
AcDbSpline
210
0.0
220
0.0
230
1.0
 70
     8
 71
     3
 72
     8
 73
     4
 74
     0
 42
0.000000001
 43
0.0000000001
 40
2.024000000000001
 40
2.024000000000001
 40
2.024000000000001
 40
2.024000000000001
 40
3.024000000000001
 40
3.024000000000001
 40
3.024000000000001
 40
3.024000000000001
 10
1002.256958253212
 20
-221.7067333260616
 30
0.0
 10
1002.256958253212
 20
-225.1357882695279
 30
0.0
 10
1004.221961960528
 20
-228.3743401605798
 30
0.0
 10
1007.322928313725
 20
-228.3743401605798
 30
0.0
  0
SPLINE
  5
AE
330
1F
100
AcDbEntity
  8
FISHER_PAYKEL
 62
   250
420
  1316376
370
     9
100
AcDbSpline
210
0.0
220
0.0
230
1.0
 70
     8
 71
     3
 72
     8
 73
     4
 74
     0
 42
0.000000001
 43
0.0000000001
 40
3.024000000000001
 40
3.024000000000001
 40
3.024000000000001
 40
3.024000000000001
 40
4.024000000000001
 40
4.024000000000001
 40
4.024000000000001
 40
4.024000000000001
 10
1007.322928313725
 20
-228.3743401605798
 30
0.0
 10
1010.420366832617
 20
-228.3743401605798
 30
0.0
 10
1012.343036528285
 20
-225.1781222811758
 30
0.0
 10
1012.343036528285
 20
-221.7525951720131
 30
0.0
  0
LINE
  5
AF
330
1F
100
AcDbEntity
  8
FISHER_PAYKEL
 62
   250
420
  1316376
370
     9
100
AcDbLine
 10
486.8008546978452
 20
-221.7525951720131
 30
0.0
 11
486.8008546978452
 21
-221.7067333260616
 31
0.0
  0
SPLINE
  5
B0
330
1F
100
AcDbEntity
  8
FISHER_PAYKEL
 62
   250
420
  1316376
370
     9
100
AcDbSpline
210
0.0
220
0.0
230
1.0
 70
     8
 71
     3
 72
     8
 73
     4
 74
     0
 42
0.000000001
 43
0.0000000001
 40
2.012999999999977
 40
2.012999999999977
 40
2.012999999999977
 40
2.012999999999977
 40
3.012999999999977
 40
3.012999999999977
 40
3.012999999999977
 40
3.012999999999977
 10
486.8008546978452
 20
-221.7067333260616
 30
0.0
 10
486.8008546978452
 20
-217.6250290363591
 30
0.0
 10
489.2174211960699
 20
-214.0478050521256
 30
0.0
 10
493.0239544100622
 20
-214.0478050521256
 30
0.0
  0
SPLINE
  5
B1
330
1F
100
AcDbEntity
  8
FISHER_PAYKEL
 62
   250
420
  1316376
370
     9
100
AcDbSpline
210
0.0
220
0.0
230
1.0
 70
     8
 71
     3
 72
     8
 73
     4
 74
     0
 42
0.000000001
 43
0.0000000001
 40
3.012999999999977
 40
3.012999999999977
 40
3.012999999999977
 40
3.012999999999977
 40
4.012999999999977
 40
4.012999999999977
 40
4.012999999999977
 40
4.012999999999977
 10
493.0239544100622
 20
-214.0478050521256
 30
0.0
 10
496.8269597897504
 20
-214.0478050521256
 30
0.0
 10
499.1976644420234
 20
-217.5826950247115
 30
0.0
 10
499.1976644420234
 20
-221.6679271487178
 30
0.0
  0
LINE
  5
B2
330
1F
100
AcDbEntity
  8
FISHER_PAYKEL
 62
   250
420
  1316376
370
     9
100
AcDbLine
 10
499.1976644420234
 20
-221.6679271487178
 30
0.0
 11
499.1976644420234
 21
-221.7067333260616
 31
0.0
  0
SPLINE
  5
B3
330
1F
100
AcDbEntity
  8
FISHER_PAYKEL
 62
   250
420
  1316376
370
     9
100
AcDbSpline
210
0.0
220
0.0
230
1.0
 70
     8
 71
     3
 72
     8
 73
     4
 74
     0
 42
0.000000001
 43
0.0000000001
 40
4.024000000000001
 40
4.024000000000001
 40
4.024000000000001
 40
4.024000000000001
 40
5.024000000000001
 40
5.024000000000001
 40
5.024000000000001
 40
5.024000000000001
 10
499.1976644420234
 20
-221.7067333260616
 30
0.0
 10
499.1976644420234
 20
-225.7919654500677
 30
0.0
 10
496.7846257781025
 20
-229.3656615999973
 30
0.0
 10
492.9780925641104
 20
-229.3656615999973
 30
0.0
  0
SPLINE
  5
B4
330
1F
100
AcDbEntity
  8
FISHER_PAYKEL
 62
   250
420
  1316376
370
     9
100
AcDbSpline
210
0.0
220
0.0
230
1.0
 70
     8
 71
     3
 72
     8
 73
     4
 74
     0
 42
0.000000001
 43
0.0000000001
 40
5.024000000000001
 40
5.024000000000001
 40
5.024000000000001
 40
5.024000000000001
 40
6.024000000000001
 40
6.024000000000001
 40
6.024000000000001
 40
6.024000000000001
 10
492.9780925641104
 20
-229.3656615999973
 30
0.0
 10
489.1750871844223
 20
-229.3656615999973
 30
0.0
 10
486.8008546978452
 20
-225.8342994617155
 30
0.0
 10
486.8008546978452
 20
-221.7525951720131
 30
0.0
  0
LINE
  5
B5
330
1F
100
AcDbEntity
  8
FISHER_PAYKEL
 62
   250
420
  1316376
370
     9
100
AcDbLine
 10
498.0440626246227
 20
-221.7525951720131
 30
0.0
 11
498.0440626246227
 21
-221.7067333260616
 31
0.0
  0
SPLINE
  5
B6
330
1F
100
AcDbEntity
  8
FISHER_PAYKEL
 62
   250
420
  1316376
370
     9
100
AcDbSpline
210
0.0
220
0.0
230
1.0
 70
     8
 71
     3
 72
     8
 73
     4
 74
     0
 42
0.000000001
 43
0.0000000001
 40
0.0129999999999768
 40
0.0129999999999768
 40
0.0129999999999768
 40
0.0129999999999768
 40
1.012999999999977
 40
1.012999999999977
 40
1.012999999999977
 40
1.012999999999977
 10
498.0440626246227
 20
-221.7067333260616
 30
0.0
 10
498.0440626246227
 20
-218.2600392110751
 30
0.0
 10
496.0790589173071
 20
-215.0461821601511
 30
0.0
 10
492.9780925641104
 20
-215.0461821601511
 30
0.0
  0
SPLINE
  5
B7
330
1F
100
AcDbEntity
  8
FISHER_PAYKEL
 62
   250
420
  1316376
370
     9
100
AcDbSpline
210
0.0
220
0.0
230
1.0
 70
     8
 71
     3
 72
     8
 73
     4
 74
     0
 42
0.000000001
 43
0.0000000001
 40
1.012999999999977
 40
1.012999999999977
 40
1.012999999999977
 40
1.012999999999977
 40
2.012999999999977
 40
2.012999999999977
 40
2.012999999999977
 40
2.012999999999977
 10
492.9780925641104
 20
-215.0461821601511
 30
0.0
 10
489.880654045218
 20
-215.0461821601511
 30
0.0
 10
487.95798434955
 20
-218.2177051994272
 30
0.0
 10
487.95798434955
 20
-221.6679271487178
 30
0.0
  0
LINE
  5
B8
330
1F
100
AcDbEntity
  8
FISHER_PAYKEL
 62
   250
420
  1316376
370
     9
100
AcDbLine
 10
487.95798434955
 20
-221.6679271487178
 30
0.0
 11
487.95798434955
 21
-221.7067333260616
 31
0.0
  0
SPLINE
  5
B9
330
1F
100
AcDbEntity
  8
FISHER_PAYKEL
 62
   250
420
  1316376
370
     9
100
AcDbSpline
210
0.0
220
0.0
230
1.0
 70
     8
 71
     3
 72
     8
 73
     4
 74
     0
 42
0.000000001
 43
0.0000000001
 40
2.024000000000001
 40
2.024000000000001
 40
2.024000000000001
 40
2.024000000000001
 40
3.024000000000001
 40
3.024000000000001
 40
3.024000000000001
 40
3.024000000000001
 10
487.95798434955
 20
-221.7067333260616
 30
0.0
 10
487.95798434955
 20
-225.1357882695279
 30
0.0
 10
489.9229880568657
 20
-228.3743401605798
 30
0.0
 10
493.0239544100622
 20
-228.3743401605798
 30
0.0
  0
SPLINE
  5
BA
330
1F
100
AcDbEntity
  8
FISHER_PAYKEL
 62
   250
420
  1316376
370
     9
100
AcDbSpline
210
0.0
220
0.0
230
1.0
 70
     8
 71
     3
 72
     8
 73
     4
 74
     0
 42
0.000000001
 43
0.0000000001
 40
3.024000000000001
 40
3.024000000000001
 40
3.024000000000001
 40
3.024000000000001
 40
4.024000000000001
 40
4.024000000000001
 40
4.024000000000001
 40
4.024000000000001
 10
493.0239544100622
 20
-228.3743401605798
 30
0.0
 10
496.1213929289547
 20
-228.3743401605798
 30
0.0
 10
498.0440626246227
 20
-225.1781222811758
 30
0.0
 10
498.0440626246227
 20
-221.7525951720131
 30
0.0
  0
POLYLINE
  5
BB
330
1F
100
AcDbEntity
  8
FISHER_PAYKEL
 62
   250
420
  1316376
370
     9
100
AcDb2dPolyline
 66
     1
 10
0.0
 20
0.0
 30
0.0
 70
     1
  0
VERTEX
  5
BC
330
BB
100
AcDbEntity
  8
FISHER_PAYKEL
 62
   250
420
  1316376
370
     9
100
AcDbVertex
100
AcDb2dVertex
 10
1016.663575200367
 20
-263.5581372410113
 30
0.0
  0
VERTEX
  5
BD
330
BB
100
AcDbEntity
  8
FISHER_PAYKEL
 62
   250
420
  1316376
370
     9
100
AcDbVertex
100
AcDb2dVertex
 10
1017.77484300612
 20
-263.5581372410113
 30
0.0
  0
VERTEX
  5
BE
330
BB
100
AcDbEntity
  8
FISHER_PAYKEL
 62
   250
420
  1316376
370
     9
100
AcDbVertex
100
AcDb2dVertex
 10
1017.77484300612
 20
-278.3644578148064
 30
0.0
  0
VERTEX
  5
BF
330
BB
100
AcDbEntity
  8
FISHER_PAYKEL
 62
   250
420
  1316376
370
     9
100
AcDbVertex
100
AcDb2dVertex
 10
1016.663575200367
 20
-278.3644578148064
 30
0.0
  0
SEQEND
  5
C0
330
BB
100
AcDbEntity
  8
FISHER_PAYKEL
 62
   250
420
  1316376
370
     9
  0
LINE
  5
C1
330
1F
100
AcDbEntity
  8
FISHER_PAYKEL
 62
   250
420
  1316376
370
     9
100
AcDbLine
 10
1022.106670747974
 20
-267.5802211309765
 30
0.0
 11
1023.154437536256
 21
-267.5802211309765
 31
0.0
  0
LINE
  5
C2
330
1F
100
AcDbEntity
  8
FISHER_PAYKEL
 62
   250
420
  1316376
370
     9
100
AcDbLine
 10
1023.154437536256
 20
-267.5802211309765
 30
0.0
 11
1023.154437536256
 21
-269.58755884994
 31
0.0
  0
SPLINE
  5
C3
330
1F
100
AcDbEntity
  8
FISHER_PAYKEL
 62
   250
420
  1316376
370
     9
100
AcDbSpline
210
0.0
220
0.0
230
1.0
 70
     8
 71
     3
 72
     8
 73
     4
 74
     0
 42
0.000000001
 43
0.0000000001
 40
0.8660000000000423
 40
0.8660000000000423
 40
0.8660000000000423
 40
0.8660000000000423
 40
1.866000000000042
 40
1.866000000000042
 40
1.866000000000042
 40
1.866000000000042
 10
1023.154437536256
 20
-269.58755884994
 30
0.0
 10
1023.881171402875
 20
-268.3175385005079
 30
0.0
 10
1025.101802072052
 20
-267.3262170610901
 30
0.0
 10
1027.084444950887
 20
-267.3262170610901
 30
0.0
  0
SPLINE
  5
C4
330
1F
100
AcDbEntity
  8
FISHER_PAYKEL
 62
   250
420
  1316376
370
     9
100
AcDbSpline
210
0.0
220
0.0
230
1.0
 70
     8
 71
     3
 72
     8
 73
     4
 74
     0
 42
0.000000001
 43
0.0000000001
 40
1.866000000000042
 40
1.866000000000042
 40
1.866000000000042
 40
1.866000000000042
 40
2.866000000000042
 40
2.866000000000042
 40
2.866000000000042
 40
2.866000000000042
 10
1027.084444950887
 20
-267.3262170610901
 30
0.0
 10
1029.839683542294
 20
-267.3262170610901
 30
0.0
 10
1031.444848150604
 20
-269.1853857392864
 30
0.0
 10
1031.444848150604
 20
-271.7677604497983
 30
0.0
  0
LINE
  5
C5
330
1F
100
AcDbEntity
  8
FISHER_PAYKEL
 62
   250
420
  1316376
370
     9
100
AcDbLine
 10
1031.444848150604
 20
-271.7677604497983
 30
0.0
 11
1031.444848150604
 21
-278.3683384325409
 31
0.0
  0
LINE
  5
C6
330
1F
100
AcDbEntity
  8
FISHER_PAYKEL
 62
   250
420
  1316376
370
     9
100
AcDbLine
 10
1031.444848150604
 20
-278.3683384325409
 30
0.0
 11
1030.400609196627
 21
-278.3683384325409
 31
0.0
  0
LINE
  5
C7
330
1F
100
AcDbEntity
  8
FISHER_PAYKEL
 62
   250
420
  1316376
370
     9
100
AcDbLine
 10
1030.400609196627
 20
-278.3683384325409
 30
0.0
 11
1030.400609196627
 21
-271.958263502213
 31
0.0
  0
SPLINE
  5
C8
330
1F
100
AcDbEntity
  8
FISHER_PAYKEL
 62
   250
420
  1316376
370
     9
100
AcDbSpline
210
0.0
220
0.0
230
1.0
 70
     8
 71
     3
 72
     8
 73
     4
 74
     0
 42
0.000000001
 43
0.0000000001
 40
6.850000000000023
 40
6.850000000000023
 40
6.850000000000023
 40
6.850000000000023
 40
7.850000000000023
 40
7.850000000000023
 40
7.850000000000023
 40
7.850000000000023
 10
1030.400609196627
 20
-271.958263502213
 30
0.0
 10
1030.400609196627
 20
-269.735727890707
 30
0.0
 10
1029.137644515802
 20
-268.27520448886
 30
0.0
 10
1026.93627591012
 20
-268.27520448886
 30
0.0
  0
SPLINE
  5
C9
330
1F
100
AcDbEntity
  8
FISHER_PAYKEL
 62
   250
420
  1316376
370
     9
100
AcDbSpline
210
0.0
220
0.0
230
1.0
 70
     8
 71
     3
 72
     8
 73
     4
 74
     0
 42
0.000000001
 43
0.0000000001
 40
7.850000000000023
 40
7.850000000000023
 40
7.850000000000023
 40
7.850000000000023
 40
8.850000000000023
 40
8.850000000000023
 40
8.850000000000023
 40
8.850000000000023
 10
1026.93627591012
 20
-268.27520448886
 30
0.0
 10
1024.798408321909
 20
-268.27520448886
 30
0.0
 10
1023.154437536256
 20
-269.8838969314741
 30
0.0
 10
1023.154437536256
 20
-272.1275995488038
 30
0.0
  0
LINE
  5
CA
330
1F
100
AcDbEntity
  8
FISHER_PAYKEL
 62
   250
420
  1316376
370
     9
100
AcDbLine
 10
1023.154437536256
 20
-272.1275995488038
 30
0.0
 11
1023.154437536256
 21
-278.3683384325409
 31
0.0
  0
LINE
  5
CB
330
1F
100
AcDbEntity
  8
FISHER_PAYKEL
 62
   250
420
  1316376
370
     9
100
AcDbLine
 10
1023.154437536256
 20
-278.3683384325409
 30
0.0
 11
1022.106670747974
 21
-278.3683384325409
 31
0.0
  0
LINE
  5
CC
330
1F
100
AcDbEntity
  8
FISHER_PAYKEL
 62
   250
420
  1316376
370
     9
100
AcDbLine
 10
1022.106670747974
 20
-278.3683384325409
 30
0.0
 11
1022.106670747974
 21
-267.5802211309765
 31
0.0
  0
LINE
  5
CD
330
1F
100
AcDbEntity
  8
FISHER_PAYKEL
 62
   250
420
  1316376
370
     9
100
AcDbLine
 10
1034.426573704326
 20
-273.0166137934063
 30
0.0
 11
1034.426573704326
 21
-272.9742797817587
 31
0.0
  0
SPLINE
  5
CE
330
1F
100
AcDbEntity
  8
FISHER_PAYKEL
 62
   250
420
  1316376
370
     9
100
AcDbSpline
210
0.0
220
0.0
230
1.0
 70
     8
 71
     3
 72
     8
 73
     4
 74
     0
 42
0.000000001
 43
0.0000000001
 40
0.0120000000000005
 40
0.0120000000000005
 40
0.0120000000000005
 40
0.0120000000000005
 40
1.012
 40
1.012
 40
1.012
 40
1.012
 10
1034.426573704326
 20
-272.9742797817587
 30
0.0
 10
1034.426573704326
 20
-269.9473979489458
 30
0.0
 10
1036.86077937407
 20
-267.3262170610901
 30
0.0
 10
1039.982912733091
 20
-267.3262170610901
 30
0.0
  0
SPLINE
  5
CF
330
1F
100
AcDbEntity
  8
FISHER_PAYKEL
 62
   250
420
  1316376
370
     9
100
AcDbSpline
210
0.0
220
0.0
230
1.0
 70
     8
 71
     3
 72
     8
 73
     4
 74
     0
 42
0.000000001
 43
0.0000000001
 40
1.012
 40
1.012
 40
1.012
 40
1.012
 40
2.012
 40
2.012
 40
2.012
 40
2.012
 10
1039.982912733091
 20
-267.3262170610901
 30
0.0
 10
1042.032584463702
 20
-267.3262170610901
 30
0.0
 10
1043.320243984654
 20
-268.2540374830362
 30
0.0
 10
1044.343315932807
 20
-269.3123877742296
 30
0.0
  0
LINE
  5
D0
330
1F
100
AcDbEntity
  8
FISHER_PAYKEL
 62
   250
420
  1316376
370
     9
100
AcDbLine
 10
1044.343315932807
 20
-269.3123877742296
 30
0.0
 11
1043.595415060364
 21
-270.074399983889
 31
0.0
  0
SPLINE
  5
D1
330
1F
100
AcDbEntity
  8
FISHER_PAYKEL
 62
   250
420
  1316376
370
     9
100
AcDbSpline
210
0.0
220
0.0
230
1.0
 70
     8
 71
     3
 72
     8
 73
     4
 74
     0
 42
0.000000001
 43
0.0000000001
 40
2.31465491900843
 40
2.31465491900843
 40
2.31465491900843
 40
2.31465491900843
 40
3.31465491900843
 40
3.31465491900843
 40
3.31465491900843
 40
3.31465491900843
 10
1043.595415060364
 20
-270.074399983889
 30
0.0
 10
1042.653483301202
 20
-269.1218847218149
 30
0.0
 10
1041.584549507097
 20
-268.2963714946839
 30
0.0
 10
1039.961745727267
 20
-268.2963714946839
 30
0.0
  0
SPLINE
  5
D2
330
1F
100
AcDbEntity
  8
FISHER_PAYKEL
 62
   250
420
  1316376
370
     9
100
AcDbSpline
210
0.0
220
0.0
230
1.0
 70
     8
 71
     3
 72
     8
 73
     4
 74
     0
 42
0.000000001
 43
0.0000000001
 40
3.31465491900843
 40
3.31465491900843
 40
3.31465491900843
 40
3.31465491900843
 40
4.314654919008429
 40
4.314654919008429
 40
4.314654919008429
 40
4.314654919008429
 10
1039.961745727267
 20
-268.2963714946839
 30
0.0
 10
1037.48167821157
 20
-268.2963714946839
 30
0.0
 10
1035.559008515903
 20
-270.3495710595992
 30
0.0
 10
1035.559008515903
 20
-272.931945770111
 30
0.0
  0
LINE
  5
D3
330
1F
100
AcDbEntity
  8
FISHER_PAYKEL
 62
   250
420
  1316376
370
     9
100
AcDbLine
 10
1035.559008515903
 20
-272.931945770111
 30
0.0
 11
1035.559008515903
 21
-272.9742797817587
 31
0.0
  0
SPLINE
  5
D4
330
1F
100
AcDbEntity
  8
FISHER_PAYKEL
 62
   250
420
  1316376
370
     9
100
AcDbSpline
210
0.0
220
0.0
230
1.0
 70
     8
 71
     3
 72
     8
 73
     4
 74
     0
 42
0.000000001
 43
0.0000000001
 40
4.32665491900843
 40
4.32665491900843
 40
4.32665491900843
 40
4.32665491900843
 40
5.32665491900843
 40
5.32665491900843
 40
5.32665491900843
 40
5.32665491900843
 10
1035.559008515903
 20
-272.9742797817587
 30
0.0
 10
1035.559008515903
 20
-275.5778214980942
 30
0.0
 10
1037.545179229042
 20
-277.6451324002253
 30
0.0
 10
1040.046413750563
 20
-277.6451324002253
 30
0.0
  0
SPLINE
  5
D5
330
1F
100
AcDbEntity
  8
FISHER_PAYKEL
 62
   250
420
  1316376
370
     9
100
AcDbSpline
210
0.0
220
0.0
230
1.0
 70
     8
 71
     3
 72
     8
 73
     4
 74
     0
 42
0.000000001
 43
0.0000000001
 40
5.32665491900843
 40
5.32665491900843
 40
5.32665491900843
 40
5.32665491900843
 40
6.32665491900843
 40
6.32665491900843
 40
6.32665491900843
 40
6.32665491900843
 10
1040.046413750563
 20
-277.6451324002253
 30
0.0
 10
1041.584549507097
 20
-277.6451324002253
 30
0.0
 10
1042.780485336145
 20
-276.8654810190462
 30
0.0
 10
1043.701250089484
 20
-275.8494647395005
 30
0.0
  0
LINE
  5
D6
330
1F
100
AcDbEntity
  8
FISHER_PAYKEL
 62
   250
420
  1316376
370
     9
100
AcDbLine
 10
1043.701250089484
 20
-275.8494647395005
 30
0.0
 11
1044.427983956103
 21
-276.4844749142167
 31
0.0
  0
SPLINE
  5
D7
330
1F
100
AcDbEntity
  8
FISHER_PAYKEL
 62
   250
420
  1316376
370
     9
100
AcDbSpline
210
0.0
220
0.0
230
1.0
 70
     8
 71
     3
 72
     8
 73
     4
 74
     0
 42
0.000000001
 43
0.0000000001
 40
6.600216612233169
 40
6.600216612233169
 40
6.600216612233169
 40
6.600216612233169
 40
7.600216612233169
 40
7.600216612233169
 40
7.600216612233169
 40
7.600216612233169
 10
1044.427983956103
 20
-276.4844749142167
 30
0.0
 10
1043.320243984654
 20
-277.7333282578247
 30
0.0
 10
1041.990250452054
 20
-278.622342502427
 30
0.0
 10
1039.982912733091
 20
-278.622342502427
 30
0.0
  0
SPLINE
  5
D8
330
1F
100
AcDbEntity
  8
FISHER_PAYKEL
 62
   250
420
  1316376
370
     9
100
AcDbSpline
210
0.0
220
0.0
230
1.0
 70
     8
 71
     3
 72
     8
 73
     4
 74
     0
 42
0.000000001
 43
0.0000000001
 40
7.600216612233169
 40
7.600216612233169
 40
7.600216612233169
 40
7.600216612233169
 40
8.600216612233169
 40
8.600216612233169
 40
8.600216612233169
 40
8.600216612233169
 10
1039.982912733091
 20
-278.622342502427
 30
0.0
 10
1036.84314020255
 20
-278.622342502427
 30
0.0
 10
1034.426573704326
 20
-276.0399677919154
 30
0.0
 10
1034.426573704326
 20
-273.0166137934063
 30
0.0
  0
LINE
  5
D9
330
1F
100
AcDbEntity
  8
FISHER_PAYKEL
 62
   250
420
  1316376
370
     9
100
AcDbLine
 10
1047.342327874619
 20
-262.9220687160041
 30
0.0
 11
1048.390094662901
 21
-262.9220687160041
 31
0.0
  0
LINE
  5
DA
330
1F
100
AcDbEntity
  8
FISHER_PAYKEL
 62
   250
420
  1316376
370
     9
100
AcDbLine
 10
1048.390094662901
 20
-262.9220687160041
 30
0.0
 11
1048.390094662901
 21
-269.5896755505223
 31
0.0
  0
SPLINE
  5
DB
330
1F
100
AcDbEntity
  8
FISHER_PAYKEL
 62
   250
420
  1316376
370
     9
100
AcDbSpline
210
0.0
220
0.0
230
1.0
 70
     8
 71
     3
 72
     8
 73
     4
 74
     0
 42
0.000000001
 43
0.0000000001
 40
2.187000000000012
 40
2.187000000000012
 40
2.187000000000012
 40
2.187000000000012
 40
3.187000000000012
 40
3.187000000000012
 40
3.187000000000012
 40
3.187000000000012
 10
1048.390094662901
 20
-269.5896755505223
 30
0.0
 10
1049.11682852952
 20
-268.3161273667863
 30
0.0
 10
1050.333931364392
 20
-267.3248059273685
 30
0.0
 10
1052.320102077532
 20
-267.3248059273685
 30
0.0
  0
SPLINE
  5
DC
330
1F
100
AcDbEntity
  8
FISHER_PAYKEL
 62
   250
420
  1316376
370
     9
100
AcDbSpline
210
0.0
220
0.0
230
1.0
 70
     8
 71
     3
 72
     8
 73
     4
 74
     0
 42
0.000000001
 43
0.0000000001
 40
3.187000000000012
 40
3.187000000000012
 40
3.187000000000012
 40
3.187000000000012
 40
4.187000000000012
 40
4.187000000000012
 40
4.187000000000012
 40
4.187000000000012
 10
1052.320102077532
 20
-267.3248059273685
 30
0.0
 10
1055.078868503243
 20
-267.3248059273685
 30
0.0
 10
1056.676977442945
 20
-269.1839746055648
 30
0.0
 10
1056.676977442945
 20
-271.7698771503806
 30
0.0
  0
LINE
  5
DD
330
1F
100
AcDbEntity
  8
FISHER_PAYKEL
 62
   250
420
  1316376
370
     9
100
AcDbLine
 10
1056.676977442945
 20
-271.7698771503806
 30
0.0
 11
1056.676977442945
 21
-278.3669272988191
 31
0.0
  0
LINE
  5
DE
330
1F
100
AcDbEntity
  8
FISHER_PAYKEL
 62
   250
420
  1316376
370
     9
100
AcDbLine
 10
1056.676977442945
 20
-278.3669272988191
 30
0.0
 11
1055.632738488967
 21
-278.3669272988191
 31
0.0
  0
LINE
  5
DF
330
1F
100
AcDbEntity
  8
FISHER_PAYKEL
 62
   250
420
  1316376
370
     9
100
AcDbLine
 10
1055.632738488967
 20
-278.3669272988191
 30
0.0
 11
1055.632738488967
 21
-271.9603802027955
 31
0.0
  0
SPLINE
  5
E0
330
1F
100
AcDbEntity
  8
FISHER_PAYKEL
 62
   250
420
  1316376
370
     9
100
AcDbSpline
210
0.0
220
0.0
230
1.0
 70
     8
 71
     3
 72
     8
 73
     4
 74
     0
 42
0.000000001
 43
0.0000000001
 40
8.168999999999983
 40
8.168999999999983
 40
8.168999999999983
 40
8.168999999999983
 40
9.168999999999983
 40
9.168999999999983
 40
9.168999999999983
 40
9.168999999999983
 10
1055.632738488967
 20
-271.9603802027955
 30
0.0
 10
1055.632738488967
 20
-269.7378445912893
 30
0.0
 10
1054.369773808143
 20
-268.2773211894423
 30
0.0
 10
1052.171933036765
 20
-268.2773211894423
 30
0.0
  0
SPLINE
  5
E1
330
1F
100
AcDbEntity
  8
FISHER_PAYKEL
 62
   250
420
  1316376
370
     9
100
AcDbSpline
210
0.0
220
0.0
230
1.0
 70
     8
 71
     3
 72
     8
 73
     4
 74
     0
 42
0.000000001
 43
0.0000000001
 40
9.168999999999983
 40
9.168999999999983
 40
9.168999999999983
 40
9.168999999999983
 40
10.16899999999998
 40
10.16899999999998
 40
10.16899999999998
 40
10.16899999999998
 10
1052.171933036765
 20
-268.2773211894423
 30
0.0
 10
1050.037593282858
 20
-268.2773211894423
 30
0.0
 10
1048.390094662901
 20
-269.8860136320563
 30
0.0
 10
1048.390094662901
 20
-272.1261884150822
 30
0.0
  0
LINE
  5
E2
330
1F
100
AcDbEntity
  8
FISHER_PAYKEL
 62
   250
420
  1316376
370
     9
100
AcDbLine
 10
1048.390094662901
 20
-272.1261884150822
 30
0.0
 11
1048.390094662901
 21
-278.3669272988191
 31
0.0
  0
LINE
  5
E3
330
1F
100
AcDbEntity
  8
FISHER_PAYKEL
 62
   250
420
  1316376
370
     9
100
AcDbLine
 10
1048.390094662901
 20
-278.3669272988191
 30
0.0
 11
1047.342327874619
 21
-278.3669272988191
 31
0.0
  0
LINE
  5
E4
330
1F
100
AcDbEntity
  8
FISHER_PAYKEL
 62
   250
420
  1316376
370
     9
100
AcDbLine
 10
1047.342327874619
 20
-278.3669272988191
 30
0.0
 11
1047.342327874619
 21
-262.9220687160041
 31
0.0
  0
LINE
  5
E5
330
1F
100
AcDbEntity
  8
FISHER_PAYKEL
 62
   250
420
  1316376
370
     9
100
AcDbLine
 10
1059.660466913819
 20
-272.9943884372913
 30
0.0
 11
1059.660466913819
 21
-272.9520544256436
 31
0.0
  0
SPLINE
  5
E6
330
1F
100
AcDbEntity
  8
FISHER_PAYKEL
 62
   250
420
  1316376
370
     9
100
AcDbSpline
210
0.0
220
0.0
230
1.0
 70
     8
 71
     3
 72
     8
 73
     4
 74
     0
 42
0.000000001
 43
0.0000000001
 40
2.012
 40
2.012
 40
2.012
 40
2.012
 40
3.012
 40
3.012
 40
3.012
 40
3.012
 10
1059.660466913819
 20
-272.9520544256436
 30
0.0
 10
1059.660466913819
 20
-269.8193375637113
 30
0.0
 10
1061.879474691021
 20
-267.3251587107991
 30
0.0
 10
1064.828744169146
 20
-267.3251587107991
 30
0.0
  0
SPLINE
  5
E7
330
1F
100
AcDbEntity
  8
FISHER_PAYKEL
 62
   250
420
  1316376
370
     9
100
AcDbSpline
210
0.0
220
0.0
230
1.0
 70
     8
 71
     3
 72
     8
 73
     4
 74
     0
 42
0.000000001
 43
0.0000000001
 40
3.012
 40
3.012
 40
3.012
 40
3.012
 40
4.012
 40
4.012
 40
4.012
 40
4.012
 10
1064.828744169146
 20
-267.3251587107991
 30
0.0
 10
1067.890904344999
 20
-267.3251587107991
 30
0.0
 10
1069.831213212187
 20
-269.7770035520637
 30
0.0
 10
1069.831213212187
 20
-272.9767492657713
 30
0.0
  0
SPLINE
  5
E8
330
1F
100
AcDbEntity
  8
FISHER_PAYKEL
 62
   250
420
  1316376
370
     9
100
AcDbSpline
210
0.0
220
0.0
230
1.0
 70
     8
 71
     3
 72
     8
 73
     4
 74
     0
 42
0.000000001
 43
0.0000000001
 40
4.012
 40
4.012
 40
4.012
 40
4.012
 40
5.012
 40
5.012
 40
5.012
 40
5.012
 10
1069.831213212187
 20
-272.9767492657713
 30
0.0
 10
1069.831213212187
 20
-273.1637244838821
 30
0.0
 10
1069.831213212187
 20
-273.2272255013538
 30
0.0
 10
1069.810046206363
 20
-273.3965615479449
 30
0.0
  0
LINE
  5
E9
330
1F
100
AcDbEntity
  8
FISHER_PAYKEL
 62
   250
420
  1316376
370
     9
100
AcDbLine
 10
1069.810046206363
 20
-273.3965615479449
 30
0.0
 11
1060.771734719572
 21
-273.3965615479449
 31
0.0
  0
SPLINE
  5
EA
330
1F
100
AcDbEntity
  8
FISHER_PAYKEL
 62
   250
420
  1316376
370
     9
100
AcDbSpline
210
0.0
220
0.0
230
1.0
 70
     8
 71
     3
 72
     8
 73
     4
 74
     0
 42
0.000000001
 43
0.0000000001
 40
7.574000000000012
 40
7.574000000000012
 40
7.574000000000012
 40
7.574000000000012
 40
8.574000000000012
 40
8.574000000000012
 40
8.574000000000012
 40
8.574000000000012
 10
1060.771734719572
 20
-273.3965615479449
 30
0.0
 10
1060.96576560629
 20
-276.081243453272
 30
0.0
 10
1062.906074473478
 20
-277.6476018842382
 30
0.0
 10
1065.043942061689
 20
-277.6476018842382
 30
0.0
  0
SPLINE
  5
EB
330
1F
100
AcDbEntity
  8
FISHER_PAYKEL
 62
   250
420
  1316376
370
     9
100
AcDbSpline
210
0.0
220
0.0
230
1.0
 70
     8
 71
     3
 72
     8
 73
     4
 74
     0
 42
0.000000001
 43
0.0000000001
 40
8.574000000000012
 40
8.574000000000012
 40
8.574000000000012
 40
8.574000000000012
 40
9.574000000000012
 40
9.574000000000012
 40
9.574000000000012
 40
9.574000000000012
 10
1065.043942061689
 20
-277.6476018842382
 30
0.0
 10
1066.73024685899
 20
-277.6476018842382
 30
0.0
 10
1067.890904344999
 20
-276.9102845147067
 30
0.0
 10
1068.783446423905
 20
-275.9542414183286
 30
0.0
  0
LINE
  5
EC
330
1F
100
AcDbEntity
  8
FISHER_PAYKEL
 62
   250
420
  1316376
370
     9
100
AcDbLine
 10
1068.783446423905
 20
-275.9542414183286
 30
0.0
 11
1069.510180290525
 21
-276.5927794273489
 31
0.0
  0
SPLINE
  5
ED
330
1F
100
AcDbEntity
  8
FISHER_PAYKEL
 62
   250
420
  1316376
370
     9
100
AcDbSpline
210
0.0
220
0.0
230
1.0
 70
     8
 71
     3
 72
     8
 73
     4
 74
     0
 42
0.000000001
 43
0.0000000001
 40
9.848220714024357
 40
9.848220714024357
 40
9.848220714024357
 40
9.848220714024357
 40
10.84822071402436
 40
10.84822071402436
 40
10.84822071402436
 40
10.84822071402436
 10
1069.510180290525
 20
-276.5927794273489
 30
0.0
 10
1068.398912484772
 20
-277.7746039191813
 30
0.0
 10
1067.097141626604
 20
-278.621284152136
 30
0.0
 10
1065.001608050041
 20
-278.621284152136
 30
0.0
  0
SPLINE
  5
EE
330
1F
100
AcDbEntity
  8
FISHER_PAYKEL
 62
   250
420
  1316376
370
     9
100
AcDbSpline
210
0.0
220
0.0
230
1.0
 70
     8
 71
     3
 72
     8
 73
     4
 74
     0
 42
0.000000001
 43
0.0000000001
 40
10.84822071402436
 40
10.84822071402436
 40
10.84822071402436
 40
10.84822071402436
 40
11.84822071402436
 40
11.84822071402436
 40
11.84822071402436
 40
11.84822071402436
 10
1065.001608050041
 20
-278.621284152136
 30
0.0
 10
1062.140534429515
 20
-278.621284152136
 30
0.0
 10
1059.660466913819
 20
-276.3599423632861
 30
0.0
 10
1059.660466913819
 20
-272.9943884372913
 30
0.0
  0
SPLINE
  5
EF
330
1F
100
AcDbEntity
  8
FISHER_PAYKEL
 62
   250
420
  1316376
370
     9
100
AcDbSpline
210
0.0
220
0.0
230
1.0
 70
     8
 71
     3
 72
     8
 73
     4
 74
     0
 42
0.000000001
 43
0.0000000001
 40
0.0
 40
0.0
 40
0.0
 40
0.0
 40
1.0
 40
1.0
 40
1.0
 40
1.0
 10
1068.69877840061
 20
-272.4652132916947
 30
0.0
 10
1068.550609359843
 20
-270.2885395261403
 30
0.0
 10
1067.291172513323
 20
-268.2776739728729
 30
0.0
 10
1064.789937991803
 20
-268.2776739728729
 30
0.0
  0
SPLINE
  5
F0
330
1F
100
AcDbEntity
  8
FISHER_PAYKEL
 62
   250
420
  1316376
370
     9
100
AcDbSpline
210
0.0
220
0.0
230
1.0
 70
     8
 71
     3
 72
     8
 73
     4
 74
     0
 42
0.000000001
 43
0.0000000001
 40
1.0
 40
1.0
 40
1.0
 40
1.0
 40
2.0
 40
2.0
 40
2.0
 40
2.0
 10
1064.789937991803
 20
-268.2776739728729
 30
0.0
 10
1062.630903397768
 20
-268.2776739728729
 30
0.0
 10
1060.96576560629
 20
-270.0733416335977
 30
0.0
 10
1060.771734719572
 20
-272.4652132916947
 30
0.0
  0
LINE
  5
F1
330
1F
100
AcDbEntity
  8
FISHER_PAYKEL
 62
   250
420
  1316376
370
     9
100
AcDbLine
 10
1060.771734719572
 20
-272.4652132916947
 30
0.0
 11
1068.69877840061
 21
-272.4652132916947
 31
0.0
  0
LINE
  5
F2
330
1F
100
AcDbEntity
  8
FISHER_PAYKEL
 62
   250
420
  1316376
370
     9
100
AcDbLine
 10
1071.912988234964
 20
-277.0129444929526
 30
0.0
 11
1072.533887072464
 21
-276.1909591001258
 31
0.0
  0
SPLINE
  5
F3
330
1F
100
AcDbEntity
  8
FISHER_PAYKEL
 62
   250
420
  1316376
370
     9
100
AcDbSpline
210
0.0
220
0.0
230
1.0
 70
     8
 71
     3
 72
     8
 73
     4
 74
     0
 42
0.000000001
 43
0.0000000001
 40
0.2920017123236627
 40
0.2920017123236627
 40
0.2920017123236627
 40
0.2920017123236627
 40
1.292001712323663
 40
1.292001712323663
 40
1.292001712323663
 40
1.292001712323663
 10
1072.533887072464
 20
-276.1909591001258
 30
0.0
 10
1073.733350735817
 20
-277.0976125162481
 30
0.0
 10
1075.056288599808
 20
-277.6056206560208
 30
0.0
 10
1076.446255315576
 20
-277.6056206560208
 30
0.0
  0
SPLINE
  5
F4
330
1F
100
AcDbEntity
  8
FISHER_PAYKEL
 62
   250
420
  1316376
370
     9
100
AcDbSpline
210
0.0
220
0.0
230
1.0
 70
     8
 71
     3
 72
     8
 73
     4
 74
     0
 42
0.000000001
 43
0.0000000001
 40
1.292001712323663
 40
1.292001712323663
 40
1.292001712323663
 40
1.292001712323663
 40
2.292001712323663
 40
2.292001712323663
 40
2.292001712323663
 40
2.292001712323663
 10
1076.446255315576
 20
-277.6056206560208
 30
0.0
 10
1077.920890054638
 20
-277.6056206560208
 30
0.0
 10
1079.070964037735
 20
-276.8012744347138
 30
0.0
 10
1079.070964037735
 20
-275.5524210911058
 30
0.0
  0
LINE
  5
F5
330
1F
100
AcDbEntity
  8
FISHER_PAYKEL
 62
   250
420
  1316376
370
     9
100
AcDbLine
 10
1079.070964037735
 20
-275.5524210911058
 30
0.0
 11
1079.070964037735
 21
-275.5100870794581
 31
0.0
  0
SPLINE
  5
F6
330
1F
100
AcDbEntity
  8
FISHER_PAYKEL
 62
   250
420
  1316376
370
     9
100
AcDbSpline
210
0.0
220
0.0
230
1.0
 70
     8
 71
     3
 72
     8
 73
     4
 74
     0
 42
0.000000001
 43
0.0000000001
 40
2.304001712323663
 40
2.304001712323663
 40
2.304001712323663
 40
2.304001712323663
 40
3.304001712323663
 40
3.304001712323663
 40
3.304001712323663
 40
3.304001712323663
 10
1079.070964037735
 20
-275.5100870794581
 30
0.0
 10
1079.070964037735
 20
-274.2435945643299
 30
0.0
 10
1077.709219996399
 20
-273.777920436205
 30
0.0
 10
1076.188723411385
 20
-273.3545803197276
 30
0.0
  0
SPLINE
  5
F7
330
1F
100
AcDbEntity
  8
FISHER_PAYKEL
 62
   250
420
  1316376
370
     9
100
AcDbSpline
210
0.0
220
0.0
230
1.0
 70
     8
 71
     3
 72
     8
 73
     4
 74
     0
 42
0.000000001
 43
0.0000000001
 40
3.304001712323663
 40
3.304001712323663
 40
3.304001712323663
 40
3.304001712323663
 40
4.304001712323663
 40
4.304001712323663
 40
4.304001712323663
 40
4.304001712323663
 10
1076.188723411385
 20
-273.3545803197276
 30
0.0
 10
1074.414222756484
 20
-272.8430443456507
 30
0.0
 10
1072.449219049169
 20
-272.317397034358
 30
0.0
 10
1072.449219049169
 20
-270.3911995043861
 30
0.0
  0
LINE
  5
F8
330
1F
100
AcDbEntity
  8
FISHER_PAYKEL
 62
   250
420
  1316376
370
     9
100
AcDbLine
 10
1072.449219049169
 20
-270.3911995043861
 30
0.0
 11
1072.449219049169
 21
-270.3488654927385
 31
0.0
  0
SPLINE
  5
F9
330
1F
100
AcDbEntity
  8
FISHER_PAYKEL
 62
   250
420
  1316376
370
     9
100
AcDbSpline
210
0.0
220
0.0
230
1.0
 70
     8
 71
     3
 72
     8
 73
     4
 74
     0
 42
0.000000001
 43
0.0000000001
 40
4.316001712323663
 40
4.316001712323663
 40
4.316001712323663
 40
4.316001712323663
 40
5.316001712323663
 40
5.316001712323663
 40
5.316001712323663
 40
5.316001712323663
 10
1072.449219049169
 20
-270.3488654927385
 30
0.0
 10
1072.449219049169
 20
-268.6131710151815
 30
0.0
 10
1073.923853788231
 20
-267.3678455058773
 30
0.0
 10
1076.040554370618
 20
-267.3678455058773
 30
0.0
  0
SPLINE
  5
FA
330
1F
100
AcDbEntity
  8
FISHER_PAYKEL
 62
   250
420
  1316376
370
     9
100
AcDbSpline
210
0.0
220
0.0
230
1.0
 70
     8
 71
     3
 72
     8
 73
     4
 74
     0
 42
0.000000001
 43
0.0000000001
 40
5.316001712323663
 40
5.316001712323663
 40
5.316001712323663
 40
5.316001712323663
 40
6.316001712323663
 40
6.316001712323663
 40
6.316001712323663
 40
6.316001712323663
 10
1076.040554370618
 20
-267.3678455058773
 30
0.0
 10
1077.342325228786
 20
-267.3678455058773
 30
0.0
 10
1078.816959967849
 20
-267.8299917996983
 30
0.0
 10
1079.907060767778
 20
-268.5531978320137
 30
0.0
  0
LINE
  5
FB
330
1F
100
AcDbEntity
  8
FISHER_PAYKEL
 62
   250
420
  1316376
370
     9
100
AcDbLine
 10
1079.907060767778
 20
-268.5531978320137
 30
0.0
 11
1079.349662947749
 21
-269.4210450707924
 31
0.0
  0
SPLINE
  5
FC
330
1F
100
AcDbEntity
  8
FISHER_PAYKEL
 62
   250
420
  1316376
370
     9
100
AcDbSpline
210
0.0
220
0.0
230
1.0
 70
     8
 71
     3
 72
     8
 73
     4
 74
     0
 42
0.000000001
 43
0.0000000001
 40
6.608371341389377
 40
6.608371341389377
 40
6.608371341389377
 40
6.608371341389377
 40
7.608371341389377
 40
7.608371341389377
 40
7.608371341389377
 40
7.608371341389377
 10
1079.349662947749
 20
-269.4210450707924
 30
0.0
 10
1078.34775800542
 20
-268.7648678902524
 30
0.0
 10
1077.148294342067
 20
-268.337999939471
 30
0.0
 10
1075.994692524666
 20
-268.337999939471
 30
0.0
  0
SPLINE
  5
FD
330
1F
100
AcDbEntity
  8
FISHER_PAYKEL
 62
   250
420
  1316376
370
     9
100
AcDbSpline
210
0.0
220
0.0
230
1.0
 70
     8
 71
     3
 72
     8
 73
     4
 74
     0
 42
0.000000001
 43
0.0000000001
 40
7.608371341389377
 40
7.608371341389377
 40
7.608371341389377
 40
7.608371341389377
 40
8.608371341389377
 40
8.608371341389377
 40
8.608371341389377
 40
8.608371341389377
 10
1075.994692524666
 20
-268.337999939471
 30
0.0
 10
1074.49889077978
 20
-268.337999939471
 30
0.0
 10
1073.518152843274
 20
-269.145873995082
 30
0.0
 10
1073.518152843274
 20
-270.2218634577953
 30
0.0
  0
LINE
  5
FE
330
1F
100
AcDbEntity
  8
FISHER_PAYKEL
 62
   250
420
  1316376
370
     9
100
AcDbLine
 10
1073.518152843274
 20
-270.2218634577953
 30
0.0
 11
1073.518152843274
 21
-270.2677253037471
 31
0.0
  0
SPLINE
  5
FF
330
1F
100
AcDbEntity
  8
FISHER_PAYKEL
 62
   250
420
  1316376
370
     9
100
AcDbSpline
210
0.0
220
0.0
230
1.0
 70
     8
 71
     3
 72
     8
 73
     4
 74
     0
 42
0.000000001
 43
0.0000000001
 40
8.62137134138941
 40
8.62137134138941
 40
8.62137134138941
 40
8.62137134138941
 40
9.62137134138941
 40
9.62137134138941
 40
9.62137134138941
 40
9.62137134138941
 10
1073.518152843274
 20
-270.2677253037471
 30
0.0
 10
1073.518152843274
 20
-271.4742446357072
 30
0.0
 10
1074.992787582336
 20
-271.9152239237046
 30
0.0
 10
1076.548562510391
 20
-272.3597310460057
 30
0.0
  0
SPLINE
  5
100
330
1F
100
AcDbEntity
  8
FISHER_PAYKEL
 62
   250
420
  1316376
370
     9
100
AcDbSpline
210
0.0
220
0.0
230
1.0
 70
     8
 71
     3
 72
     8
 73
     4
 74
     0
 42
0.000000001
 43
0.0000000001
 40
9.62137134138941
 40
9.62137134138941
 40
9.62137134138941
 40
9.62137134138941
 40
10.62137134138941
 40
10.62137134138941
 40
10.62137134138941
 40
10.62137134138941
 10
1076.548562510391
 20
-272.3597310460057
 30
0.0
 10
1078.305423993772
 20
-272.8430443456507
 30
0.0
 10
1080.13989783184
 20
-273.4815823546708
 30
0.0
 10
1080.13989783184
 20
-275.3866128788188
 30
0.0
  0
LINE
  5
101
330
1F
100
AcDbEntity
  8
FISHER_PAYKEL
 62
   250
420
  1316376
370
     9
100
AcDbLine
 10
1080.13989783184
 20
-275.3866128788188
 30
0.0
 11
1080.13989783184
 21
-275.4289468904665
 31
0.0
  0
SPLINE
  5
102
330
1F
100
AcDbEntity
  8
FISHER_PAYKEL
 62
   250
420
  1316376
370
     9
100
AcDbSpline
210
0.0
220
0.0
230
1.0
 70
     8
 71
     3
 72
     8
 73
     4
 74
     0
 42
0.000000001
 43
0.0000000001
 40
10.63337134138941
 40
10.63337134138941
 40
10.63337134138941
 40
10.63337134138941
 40
11.63337134138941
 40
11.63337134138941
 40
11.63337134138941
 40
11.63337134138941
 10
1080.13989783184
 20
-275.4289468904665
 30
0.0
 10
1080.13989783184
 20
-277.3516165861345
 30
0.0
 10
1078.474760040363
 20
-278.5793029239187
 30
0.0
 10
1076.382754298104
 20
-278.5793029239187
 30
0.0
  0
SPLINE
  5
103
330
1F
100
AcDbEntity
  8
FISHER_PAYKEL
 62
   250
420
  1316376
370
     9
100
AcDbSpline
210
0.0
220
0.0
230
1.0
 70
     8
 71
     3
 72
     8
 73
     4
 74
     0
 42
0.000000001
 43
0.0000000001
 40
11.63337134138941
 40
11.63337134138941
 40
11.63337134138941
 40
11.63337134138941
 40
12.63337134138941
 40
12.63337134138941
 40
12.63337134138941
 40
12.63337134138941
 10
1076.382754298104
 20
-278.5793029239187
 30
0.0
 10
1074.798757073273
 20
-278.5793029239187
 30
0.0
 10
1073.070118710948
 20
-277.944293051999
 30
0.0
 10
1071.912988234964
 20
-277.0129444929526
 30
0.0
  0
POLYLINE
  5
104
330
1F
100
AcDbEntity
  8
FISHER_PAYKEL
 62
   250
420
  1316376
370
     9
100
AcDb2dPolyline
 66
     1
 10
0.0
 20
0.0
 30
0.0
  0
VERTEX
  5
105
330
104
100
AcDbEntity
  8
FISHER_PAYKEL
 62
   250
420
  1316376
370
     9
100
AcDbVertex
100
AcDb2dVertex
 10
492.9967900859215
 20
-238.7130113718169
 30
0.0
  0
VERTEX
  5
106
330
104
100
AcDbEntity
  8
FISHER_PAYKEL
 62
   250
420
  1316376
370
     9
100
AcDbVertex
100
AcDb2dVertex
 10
492.9967900859215
 20
-278.7151245446216
 30
0.0
  0
SEQEND
  5
107
330
104
100
AcDbEntity
  8
FISHER_PAYKEL
 62
   250
420
  1316376
370
     9
  0
POLYLINE
  5
108
330
1F
100
AcDbEntity
  8
FISHER_PAYKEL
 62
   250
420
  1316376
370
     9
100
AcDb2dPolyline
 66
     1
 10
0.0
 20
0.0
 30
0.0
 70
     1
  0
VERTEX
  5
109
330
108
100
AcDbEntity
  8
FISHER_PAYKEL
 62
   250
420
  1316376
370
     9
100
AcDbVertex
100
AcDb2dVertex
 10
492.9953789522
 20
-278.7137134109003
 30
0.0
  0
VERTEX
  5
10A
330
108
100
AcDbEntity
  8
FISHER_PAYKEL
 62
   250
420
  1316376
370
     9
100
AcDbVertex
100
AcDb2dVertex
 10
619.9974138954022
 20
-278.7137134109003
 30
0.0
  0
VERTEX
  5
10B
330
108
100
AcDbEntity
  8
FISHER_PAYKEL
 62
   250
420
  1316376
370
     9
100
AcDbVertex
100
AcDb2dVertex
 10
619.9974138954022
 20
-263.7133619503863
 30
0.0
  0
VERTEX
  5
10C
330
108
100
AcDbEntity
  8
FISHER_PAYKEL
 62
   250
420
  1316376
370
     9
100
AcDbVertex
100
AcDb2dVertex
 10
492.9953789522
 20
-263.7133619503863
 30
0.0
  0
SEQEND
  5
10D
330
108
100
AcDbEntity
  8
FISHER_PAYKEL
 62
   250
420
  1316376
370
     9
  0
POLYLINE
  5
10E
330
1F
100
AcDbEntity
  8
FISHER_PAYKEL
 62
   250
420
  1316376
370
     9
100
AcDb2dPolyline
 66
     1
 10
0.0
 20
0.0
 30
0.0
 70
     1
  0
VERTEX
  5
10F
330
10E
100
AcDbEntity
  8
FISHER_PAYKEL
 62
   250
420
  1316376
370
     9
100
AcDbVertex
100
AcDb2dVertex
 10
619.9974138954022
 20
-263.7133619503863
 30
0.0
  0
VERTEX
  5
110
330
10E
100
AcDbEntity
  8
FISHER_PAYKEL
 62
   250
420
  1316376
370
     9
100
AcDbVertex
100
AcDb2dVertex
 10
746.9994488386047
 20
-263.7133619503863
 30
0.0
  0
VERTEX
  5
111
330
10E
100
AcDbEntity
  8
FISHER_PAYKEL
 62
   250
420
  1316376
370
     9
100
AcDbVertex
100
AcDb2dVertex
 10
746.9994488386047
 20
-248.7130104898727
 30
0.0
  0
VERTEX
  5
112
330
10E
100
AcDbEntity
  8
FISHER_PAYKEL
 62
   250
420
  1316376
370
     9
100
AcDbVertex
100
AcDb2dVertex
 10
619.9974138954022
 20
-248.7130104898727
 30
0.0
  0
SEQEND
  5
113
330
10E
100
AcDbEntity
  8
FISHER_PAYKEL
 62
   250
420
  1316376
370
     9
  0
POLYLINE
  5
114
330
1F
100
AcDbEntity
  8
FISHER_PAYKEL
 62
   250
420
  1316376
370
     9
100
AcDb2dPolyline
 66
     1
 10
0.0
 20
0.0
 30
0.0
 70
     1
  0
VERTEX
  5
115
330
114
100
AcDbEntity
  8
FISHER_PAYKEL
 62
   250
420
  1316376
370
     9
100
AcDbVertex
100
AcDb2dVertex
 10
746.9994488386047
 20
-278.7137134109003
 30
0.0
  0
VERTEX
  5
116
330
114
100
AcDbEntity
  8
FISHER_PAYKEL
 62
   250
420
  1316376
370
     9
100
AcDbVertex
100
AcDb2dVertex
 10
1001.003518725009
 20
-278.7137134109003
 30
0.0
  0
VERTEX
  5
117
330
114
100
AcDbEntity
  8
FISHER_PAYKEL
 62
   250
420
  1316376
370
     9
100
AcDbVertex
100
AcDb2dVertex
 10
1001.003518725009
 20
-263.7133619503863
 30
0.0
  0
VERTEX
  5
118
330
114
100
AcDbEntity
  8
FISHER_PAYKEL
 62
   250
420
  1316376
370
     9
100
AcDbVertex
100
AcDb2dVertex
 10
746.9994488386047
 20
-263.7133619503863
 30
0.0
  0
SEQEND
  5
119
330
114
100
AcDbEntity
  8
FISHER_PAYKEL
 62
   250
420
  1316376
370
     9
  0
POLYLINE
  5
11A
330
1F
100
AcDbEntity
  8
FISHER_PAYKEL
 62
   250
420
  1316376
370
     9
100
AcDb2dPolyline
 66
     1
 10
0.0
 20
0.0
 30
0.0
 70
     1
  0
VERTEX
  5
11B
330
11A
100
AcDbEntity
  8
FISHER_PAYKEL
 62
   250
420
  1316376
370
     9
100
AcDbVertex
100
AcDb2dVertex
 10
492.9953789522
 20
-278.7137134109003
 30
0.0
  0
VERTEX
  5
11C
330
11A
100
AcDbEntity
  8
FISHER_PAYKEL
 62
   250
420
  1316376
370
     9
100
AcDbVertex
100
AcDb2dVertex
 10
1001.003518725009
 20
-278.7137134109003
 30
0.0
  0
VERTEX
  5
11D
330
11A
100
AcDbEntity
  8
FISHER_PAYKEL
 62
   250
420
  1316376
370
     9
100
AcDbVertex
100
AcDb2dVertex
 10
1001.003518725009
 20
-248.7130104898727
 30
0.0
  0
VERTEX
  5
11E
330
11A
100
AcDbEntity
  8
FISHER_PAYKEL
 62
   250
420
  1316376
370
     9
100
AcDbVertex
100
AcDb2dVertex
 10
492.9953789522
 20
-248.7130104898727
 30
0.0
  0
SEQEND
  5
11F
330
11A
100
AcDbEntity
  8
FISHER_PAYKEL
 62
   250
420
  1316376
370
     9
  0
POLYLINE
  5
120
330
1F
100
AcDbEntity
  8
FISHER_PAYKEL
 62
   250
420
  1316376
370
     9
100
AcDb2dPolyline
 66
     1
 10
0.0
 20
0.0
 30
0.0
  0
VERTEX
  5
121
330
120
100
AcDbEntity
  8
FISHER_PAYKEL
 62
   250
420
  1316376
370
     9
100
AcDbVertex
100
AcDb2dVertex
 10
1001.004929858731
 20
-238.7130113718169
 30
0.0
  0
VERTEX
  5
122
330
120
100
AcDbEntity
  8
FISHER_PAYKEL
 62
   250
420
  1316376
370
     9
100
AcDbVertex
100
AcDb2dVertex
 10
1001.004929858731
 20
-278.7151245446216
 30
0.0
  0
SEQEND
  5
123
330
120
100
AcDbEntity
  8
FISHER_PAYKEL
 62
   250
420
  1316376
370
     9
  0
POLYLINE
  5
124
330
1F
100
AcDbEntity
  8
FISHER_PAYKEL
 62
   250
420
  1316376
370
     9
100
AcDb2dPolyline
 66
     1
 10
0.0
 20
0.0
 30
0.0
  0
VERTEX
  5
125
330
124
100
AcDbEntity
  8
FISHER_PAYKEL
 62
   250
420
  1316376
370
     9
100
AcDbVertex
100
AcDb2dVertex
 10
747.0008599723261
 20
-238.7130113718169
 30
0.0
  0
VERTEX
  5
126
330
124
100
AcDbEntity
  8
FISHER_PAYKEL
 62
   250
420
  1316376
370
     9
100
AcDbVertex
100
AcDb2dVertex
 10
747.0008599723261
 20
-278.7151245446216
 30
0.0
  0
SEQEND
  5
127
330
124
100
AcDbEntity
  8
FISHER_PAYKEL
 62
   250
420
  1316376
370
     9
  0
POLYLINE
  5
128
330
1F
100
AcDbEntity
  8
FISHER_PAYKEL
 62
   250
420
  1316376
370
     9
100
AcDb2dPolyline
 66
     1
 10
0.0
 20
0.0
 30
0.0
  0
VERTEX
  5
129
330
128
100
AcDbEntity
  8
FISHER_PAYKEL
 62
   250
420
  1316376
370
     9
100
AcDbVertex
100
AcDb2dVertex
 10
619.9988250291239
 20
-238.7130113718169
 30
0.0
  0
VERTEX
  5
12A
330
128
100
AcDbEntity
  8
FISHER_PAYKEL
 62
   250
420
  1316376
370
     9
100
AcDbVertex
100
AcDb2dVertex
 10
619.9988250291239
 20
-278.7151245446216
 30
0.0
  0
SEQEND
  5
12B
330
128
100
AcDbEntity
  8
FISHER_PAYKEL
 62
   250
420
  1316376
370
     9
  0
POLYLINE
  5
12C
330
1F
100
AcDbEntity
  8
FISHER_PAYKEL
100
AcDb2dPolyline
 66
     1
 10
0.0
 20
0.0
 30
0.0
  0
VERTEX
  5
12D
330
12C
100
AcDbEntity
  8
FISHER_PAYKEL
100
AcDbVertex
100
AcDb2dVertex
 10
492.9953789522
 20
-155.2536574776485
 30
0.0
  0
VERTEX
  5
12E
330
12C
100
AcDbEntity
  8
FISHER_PAYKEL
100
AcDbVertex
100
AcDb2dVertex
 10
892.9953789522
 20
-155.2536574776486
 30
0.0
  0
SEQEND
  5
12F
330
12C
100
AcDbEntity
  8
FISHER_PAYKEL
  0
POLYLINE
  5
130
330
1F
100
AcDbEntity
  8
FISHER_PAYKEL
 62
   250
420
  1316376
370
     9
100
AcDb2dPolyline
 66
     1
 10
0.0
 20
0.0
 30
0.0
 70
     1
  0
VERTEX
  5
131
330
130
100
AcDbEntity
  8
FISHER_PAYKEL
 62
   250
420
  1316376
370
     9
100
AcDbVertex
100
AcDb2dVertex
 10
578.1065158751359
 20
-106.8782309072689
 30
0.0
  0
VERTEX
  5
132
330
130
100
AcDbEntity
  8
FISHER_PAYKEL
 62
   250
420
  1316376
370
     9
100
AcDbVertex
100
AcDb2dVertex
 10
575.2242752487861
 20
-107.8519131751669
 30
0.0
  0
VERTEX
  5
133
330
130
100
AcDbEntity
  8
FISHER_PAYKEL
 62
   250
420
  1316376
370
     9
100
AcDbVertex
100
AcDb2dVertex
 10
574.9244093329479
 20
-106.9840659363882
 30
0.0
  0
VERTEX
  5
134
330
130
100
AcDbEntity
  8
FISHER_PAYKEL
 62
   250
420
  1316376
370
     9
100
AcDbVertex
100
AcDb2dVertex
 10
578.3393529391984
 20
-105.7352125927802
 30
0.0
  0
VERTEX
  5
135
330
130
100
AcDbEntity
  8
FISHER_PAYKEL
 62
   250
420
  1316376
370
     9
100
AcDbVertex
100
AcDb2dVertex
 10
579.196616675065
 20
-105.7352125927802
 30
0.0
  0
VERTEX
  5
136
330
130
100
AcDbEntity
  8
FISHER_PAYKEL
 62
   250
420
  1316376
370
     9
100
AcDbVertex
100
AcDb2dVertex
 10
579.196616675065
 20
-120.6508960299983
 30
0.0
  0
VERTEX
  5
137
330
130
100
AcDbEntity
  8
FISHER_PAYKEL
 62
   250
420
  1316376
370
     9
100
AcDbVertex
100
AcDb2dVertex
 10
578.1065158751359
 20
-120.6508960299983
 30
0.0
  0
SEQEND
  5
138
330
130
100
AcDbEntity
  8
FISHER_PAYKEL
 62
   250
420
  1316376
370
     9
  0
LINE
  5
139
330
1F
100
AcDbEntity
  8
FISHER_PAYKEL
 62
   250
420
  1316376
370
     9
100
AcDbLine
 10
582.8006522000088
 20
-113.2879530541662
 30
0.0
 11
582.8006522000088
 21
-113.2456190425186
 31
0.0
  0
SPLINE
  5
13A
330
1F
100
AcDbEntity
  8
FISHER_PAYKEL
 62
   250
420
  1316376
370
     9
100
AcDbSpline
210
0.0
220
0.0
230
1.0
 70
     8
 71
     3
 72
     8
 73
     4
 74
     0
 42
0.000000001
 43
0.0000000001
 40
2.012
 40
2.012
 40
2.012
 40
2.012
 40
3.012
 40
3.012
 40
3.012
 40
3.012
 10
582.8006522000088
 20
-113.2456190425186
 30
0.0
 10
582.8006522000088
 20
-109.1639147528164
 30
0.0
 10
585.2172186982338
 20
-105.5866907685826
 30
0.0
 10
589.0202240779219
 20
-105.5866907685826
 30
0.0
  0
SPLINE
  5
13B
330
1F
100
AcDbEntity
  8
FISHER_PAYKEL
 62
   250
420
  1316376
370
     9
100
AcDbSpline
210
0.0
220
0.0
230
1.0
 70
     8
 71
     3
 72
     8
 73
     4
 74
     0
 42
0.000000001
 43
0.0000000001
 40
3.012
 40
3.012
 40
3.012
 40
3.012
 40
4.012
 40
4.012
 40
4.012
 40
4.012
 10
589.0202240779219
 20
-105.5866907685826
 30
0.0
 10
592.82322945761
 20
-105.5866907685826
 30
0.0
 10
595.197461944187
 20
-109.1180529068644
 30
0.0
 10
595.197461944187
 20
-113.2032850308709
 30
0.0
  0
LINE
  5
13C
330
1F
100
AcDbEntity
  8
FISHER_PAYKEL
 62
   250
420
  1316376
370
     9
100
AcDbLine
 10
595.197461944187
 20
-113.2032850308709
 30
0.0
 11
595.197461944187
 21
-113.2456190425186
 31
0.0
  0
SPLINE
  5
13D
330
1F
100
AcDbEntity
  8
FISHER_PAYKEL
 62
   250
420
  1316376
370
     9
100
AcDbSpline
210
0.0
220
0.0
230
1.0
 70
     8
 71
     3
 72
     8
 73
     4
 74
     0
 42
0.000000001
 43
0.0000000001
 40
4.024000000000001
 40
4.024000000000001
 40
4.024000000000001
 40
4.024000000000001
 40
5.024000000000001
 40
5.024000000000001
 40
5.024000000000001
 40
5.024000000000001
 10
595.197461944187
 20
-113.2456190425186
 30
0.0
 10
595.197461944187
 20
-117.3308511665249
 30
0.0
 10
592.7844232802662
 20
-120.9045473164546
 30
0.0
 10
588.9778900662741
 20
-120.9045473164546
 30
0.0
  0
SPLINE
  5
13E
330
1F
100
AcDbEntity
  8
FISHER_PAYKEL
 62
   250
420
  1316376
370
     9
100
AcDbSpline
210
0.0
220
0.0
230
1.0
 70
     8
 71
     3
 72
     8
 73
     4
 74
     0
 42
0.000000001
 43
0.0000000001
 40
5.024000000000001
 40
5.024000000000001
 40
5.024000000000001
 40
5.024000000000001
 40
6.024000000000001
 40
6.024000000000001
 40
6.024000000000001
 40
6.024000000000001
 10
588.9778900662741
 20
-120.9045473164546
 30
0.0
 10
585.171356852282
 20
-120.9045473164546
 30
0.0
 10
582.8006522000088
 20
-117.3696573438687
 30
0.0
 10
582.8006522000088
 20
-113.2879530541662
 30
0.0
  0
LINE
  5
13F
330
1F
100
AcDbEntity
  8
FISHER_PAYKEL
 62
   250
420
  1316376
370
     9
100
AcDbLine
 10
594.0438601267863
 20
-113.2879530541662
 30
0.0
 11
594.0438601267863
 21
-113.2456190425186
 31
0.0
  0
SPLINE
  5
140
330
1F
100
AcDbEntity
  8
FISHER_PAYKEL
 62
   250
420
  1316376
370
     9
100
AcDbSpline
210
0.0
220
0.0
230
1.0
 70
     8
 71
     3
 72
     8
 73
     4
 74
     0
 42
0.000000001
 43
0.0000000001
 40
0.0120000000000005
 40
0.0120000000000005
 40
0.0120000000000005
 40
0.0120000000000005
 40
1.012
 40
1.012
 40
1.012
 40
1.012
 10
594.0438601267863
 20
-113.2456190425186
 30
0.0
 10
594.0438601267863
 20
-109.7989249275321
 30
0.0
 10
592.0753285851666
 20
-106.5815400423043
 30
0.0
 10
588.9778900662741
 20
-106.5815400423043
 30
0.0
  0
SPLINE
  5
141
330
1F
100
AcDbEntity
  8
FISHER_PAYKEL
 62
   250
420
  1316376
370
     9
100
AcDbSpline
210
0.0
220
0.0
230
1.0
 70
     8
 71
     3
 72
     8
 73
     4
 74
     0
 42
0.000000001
 43
0.0000000001
 40
1.012
 40
1.012
 40
1.012
 40
1.012
 40
2.012
 40
2.012
 40
2.012
 40
2.012
 10
588.9778900662741
 20
-106.5815400423043
 30
0.0
 10
585.8804515473815
 20
-106.5815400423043
 30
0.0
 10
583.9577818517135
 20
-109.7565909158844
 30
0.0
 10
583.9577818517135
 20
-113.2032850308709
 30
0.0
  0
LINE
  5
142
330
1F
100
AcDbEntity
  8
FISHER_PAYKEL
 62
   250
420
  1316376
370
     9
100
AcDbLine
 10
583.9577818517135
 20
-113.2032850308709
 30
0.0
 11
583.9577818517135
 21
-113.2456190425186
 31
0.0
  0
SPLINE
  5
143
330
1F
100
AcDbEntity
  8
FISHER_PAYKEL
 62
   250
420
  1316376
370
     9
100
AcDbSpline
210
0.0
220
0.0
230
1.0
 70
     8
 71
     3
 72
     8
 73
     4
 74
     0
 42
0.000000001
 43
0.0000000001
 40
2.024000000000001
 40
2.024000000000001
 40
2.024000000000001
 40
2.024000000000001
 40
3.024000000000001
 40
3.024000000000001
 40
3.024000000000001
 40
3.024000000000001
 10
583.9577818517135
 20
-113.2456190425186
 30
0.0
 10
583.9577818517135
 20
-116.671146151681
 30
0.0
 10
585.9227855590293
 20
-119.9096980427329
 30
0.0
 10
589.0202240779219
 20
-119.9096980427329
 30
0.0
  0
SPLINE
  5
144
330
1F
100
AcDbEntity
  8
FISHER_PAYKEL
 62
   250
420
  1316376
370
     9
100
AcDbSpline
210
0.0
220
0.0
230
1.0
 70
     8
 71
     3
 72
     8
 73
     4
 74
     0
 42
0.000000001
 43
0.0000000001
 40
3.024000000000001
 40
3.024000000000001
 40
3.024000000000001
 40
3.024000000000001
 40
4.024000000000001
 40
4.024000000000001
 40
4.024000000000001
 40
4.024000000000001
 10
589.0202240779219
 20
-119.9096980427329
 30
0.0
 10
592.1211904311183
 20
-119.9096980427329
 30
0.0
 10
594.0438601267863
 20
-116.7170079976325
 30
0.0
 10
594.0438601267863
 20
-113.2879530541662
 30
0.0
  0
LINE
  5
145
330
1F
100
AcDbEntity
  8
FISHER_PAYKEL
 62
   250
420
  1316376
370
     9
100
AcDbLine
 10
597.9354141475042
 20
-113.2879530541662
 30
0.0
 11
597.9354141475042
 21
-113.2456190425186
 31
0.0
  0
SPLINE
  5
146
330
1F
100
AcDbEntity
  8
FISHER_PAYKEL
 62
   250
420
  1316376
370
     9
100
AcDbSpline
210
0.0
220
0.0
230
1.0
 70
     8
 71
     3
 72
     8
 73
     4
 74
     0
 42
0.000000001
 43
0.0000000001
 40
2.012
 40
2.012
 40
2.012
 40
2.012
 40
3.012
 40
3.012
 40
3.012
 40
3.012
 10
597.9354141475042
 20
-113.2456190425186
 30
0.0
 10
597.9354141475042
 20
-109.1639147528164
 30
0.0
 10
600.3519806457289
 20
-105.5866907685826
 30
0.0
 10
604.158513859721
 20
-105.5866907685826
 30
0.0
  0
SPLINE
  5
147
330
1F
100
AcDbEntity
  8
FISHER_PAYKEL
 62
   250
420
  1316376
370
     9
100
AcDbSpline
210
0.0
220
0.0
230
1.0
 70
     8
 71
     3
 72
     8
 73
     4
 74
     0
 42
0.000000001
 43
0.0000000001
 40
3.012
 40
3.012
 40
3.012
 40
3.012
 40
4.012
 40
4.012
 40
4.012
 40
4.012
 10
604.158513859721
 20
-105.5866907685826
 30
0.0
 10
607.9615192394091
 20
-105.5866907685826
 30
0.0
 10
610.3322238916821
 20
-109.1180529068644
 30
0.0
 10
610.3322238916821
 20
-113.2032850308709
 30
0.0
  0
LINE
  5
148
330
1F
100
AcDbEntity
  8
FISHER_PAYKEL
 62
   250
420
  1316376
370
     9
100
AcDbLine
 10
610.3322238916821
 20
-113.2032850308709
 30
0.0
 11
610.3322238916821
 21
-113.2456190425186
 31
0.0
  0
SPLINE
  5
149
330
1F
100
AcDbEntity
  8
FISHER_PAYKEL
 62
   250
420
  1316376
370
     9
100
AcDbSpline
210
0.0
220
0.0
230
1.0
 70
     8
 71
     3
 72
     8
 73
     4
 74
     0
 42
0.000000001
 43
0.0000000001
 40
4.024000000000001
 40
4.024000000000001
 40
4.024000000000001
 40
4.024000000000001
 40
5.024000000000001
 40
5.024000000000001
 40
5.024000000000001
 40
5.024000000000001
 10
610.3322238916821
 20
-113.2456190425186
 30
0.0
 10
610.3322238916821
 20
-117.3308511665249
 30
0.0
 10
607.9191852277612
 20
-120.9045473164546
 30
0.0
 10
604.1126520137693
 20
-120.9045473164546
 30
0.0
  0
SPLINE
  5
14A
330
1F
100
AcDbEntity
  8
FISHER_PAYKEL
 62
   250
420
  1316376
370
     9
100
AcDbSpline
210
0.0
220
0.0
230
1.0
 70
     8
 71
     3
 72
     8
 73
     4
 74
     0
 42
0.000000001
 43
0.0000000001
 40
5.024000000000001
 40
5.024000000000001
 40
5.024000000000001
 40
5.024000000000001
 40
6.024000000000001
 40
6.024000000000001
 40
6.024000000000001
 40
6.024000000000001
 10
604.1126520137693
 20
-120.9045473164546
 30
0.0
 10
600.3096466340812
 20
-120.9045473164546
 30
0.0
 10
597.9354141475042
 20
-117.3696573438687
 30
0.0
 10
597.9354141475042
 20
-113.2879530541662
 30
0.0
  0
LINE
  5
14B
330
1F
100
AcDbEntity
  8
FISHER_PAYKEL
 62
   250
420
  1316376
370
     9
100
AcDbLine
 10
609.1786220742814
 20
-113.2879530541662
 30
0.0
 11
609.1786220742814
 21
-113.2456190425186
 31
0.0
  0
SPLINE
  5
14C
330
1F
100
AcDbEntity
  8
FISHER_PAYKEL
 62
   250
420
  1316376
370
     9
100
AcDbSpline
210
0.0
220
0.0
230
1.0
 70
     8
 71
     3
 72
     8
 73
     4
 74
     0
 42
0.000000001
 43
0.0000000001
 40
0.0120000000000005
 40
0.0120000000000005
 40
0.0120000000000005
 40
0.0120000000000005
 40
1.012
 40
1.012
 40
1.012
 40
1.012
 10
609.1786220742814
 20
-113.2456190425186
 30
0.0
 10
609.1786220742814
 20
-109.7989249275321
 30
0.0
 10
607.2136183669658
 20
-106.5815400423043
 30
0.0
 10
604.1126520137693
 20
-106.5815400423043
 30
0.0
  0
SPLINE
  5
14D
330
1F
100
AcDbEntity
  8
FISHER_PAYKEL
 62
   250
420
  1316376
370
     9
100
AcDbSpline
210
0.0
220
0.0
230
1.0
 70
     8
 71
     3
 72
     8
 73
     4
 74
     0
 42
0.000000001
 43
0.0000000001
 40
1.012
 40
1.012
 40
1.012
 40
1.012
 40
2.012
 40
2.012
 40
2.012
 40
2.012
 10
604.1126520137693
 20
-106.5815400423043
 30
0.0
 10
601.0187413291808
 20
-106.5815400423043
 30
0.0
 10
599.0925437992088
 20
-109.7565909158844
 30
0.0
 10
599.0925437992088
 20
-113.2032850308709
 30
0.0
  0
LINE
  5
14E
330
1F
100
AcDbEntity
  8
FISHER_PAYKEL
 62
   250
420
  1316376
370
     9
100
AcDbLine
 10
599.0925437992088
 20
-113.2032850308709
 30
0.0
 11
599.0925437992088
 21
-113.2456190425186
 31
0.0
  0
SPLINE
  5
14F
330
1F
100
AcDbEntity
  8
FISHER_PAYKEL
 62
   250
420
  1316376
370
     9
100
AcDbSpline
210
0.0
220
0.0
230
1.0
 70
     8
 71
     3
 72
     8
 73
     4
 74
     0
 42
0.000000001
 43
0.0000000001
 40
2.024000000000001
 40
2.024000000000001
 40
2.024000000000001
 40
2.024000000000001
 40
3.024000000000001
 40
3.024000000000001
 40
3.024000000000001
 40
3.024000000000001
 10
599.0925437992088
 20
-113.2456190425186
 30
0.0
 10
599.0925437992088
 20
-116.671146151681
 30
0.0
 10
601.0575475065244
 20
-119.9096980427329
 30
0.0
 10
604.158513859721
 20
-119.9096980427329
 30
0.0
  0
SPLINE
  5
150
330
1F
100
AcDbEntity
  8
FISHER_PAYKEL
 62
   250
420
  1316376
370
     9
100
AcDbSpline
210
0.0
220
0.0
230
1.0
 70
     8
 71
     3
 72
     8
 73
     4
 74
     0
 42
0.000000001
 43
0.0000000001
 40
3.024000000000001
 40
3.024000000000001
 40
3.024000000000001
 40
3.024000000000001
 40
4.024000000000001
 40
4.024000000000001
 40
4.024000000000001
 40
4.024000000000001
 10
604.158513859721
 20
-119.9096980427329
 30
0.0
 10
607.2559523786135
 20
-119.9096980427329
 30
0.0
 10
609.1786220742814
 20
-116.7170079976325
 30
0.0
 10
609.1786220742814
 20
-113.2879530541662
 30
0.0
  0
LINE
  5
151
330
1F
100
AcDbEntity
  8
FISHER_PAYKEL
 62
   250
420
  1316376
370
     9
100
AcDbLine
 10
672.586504720258
 20
-119.8250300194369
 30
0.0
 11
678.1640107548469
 21
-114.8296166450044
 31
0.0
  0
SPLINE
  5
152
330
1F
100
AcDbEntity
  8
FISHER_PAYKEL
 62
   250
420
  1316376
370
     9
100
AcDbSpline
210
0.0
220
0.0
230
1.0
 70
     8
 71
     3
 72
     8
 73
     4
 74
     0
 42
0.000000001
 43
0.0000000001
 40
2.122408301906088
 40
2.122408301906088
 40
2.122408301906088
 40
2.122408301906088
 40
3.122408301906088
 40
3.122408301906088
 40
3.122408301906088
 40
3.122408301906088
 10
678.1640107548469
 20
-114.8296166450044
 30
0.0
 10
680.6193834304153
 20
-112.6106088678024
 30
0.0
 10
681.4766471662819
 20
-111.3405885183707
 30
0.0
 10
681.4766471662819
 20
-109.7777579217083
 30
0.0
  0
SPLINE
  5
153
330
1F
100
AcDbEntity
  8
FISHER_PAYKEL
 62
   250
420
  1316376
370
     9
100
AcDbSpline
210
0.0
220
0.0
230
1.0
 70
     8
 71
     3
 72
     8
 73
     4
 74
     0
 42
0.000000001
 43
0.0000000001
 40
3.122408301906088
 40
3.122408301906088
 40
3.122408301906088
 40
3.122408301906088
 40
4.122408301906088
 40
4.122408301906088
 40
4.122408301906088
 40
4.122408301906088
 10
681.4766471662819
 20
-109.7777579217083
 30
0.0
 10
681.4766471662819
 20
-107.8515603917364
 30
0.0
 10
679.892649563796
 20
-106.6027070481283
 30
0.0
 10
678.0969819030712
 20
-106.6027070481283
 30
0.0
  0
SPLINE
  5
154
330
1F
100
AcDbEntity
  8
FISHER_PAYKEL
 62
   250
420
  1316376
370
     9
100
AcDbSpline
210
0.0
220
0.0
230
1.0
 70
     8
 71
     3
 72
     8
 73
     4
 74
     0
 42
0.000000001
 43
0.0000000001
 40
4.122408301906088
 40
4.122408301906088
 40
4.122408301906088
 40
4.122408301906088
 40
5.122408301906088
 40
5.122408301906088
 40
5.122408301906088
 40
5.122408301906088
 10
678.0969819030712
 20
-106.6027070481283
 30
0.0
 10
676.1954792132271
 20
-106.6027070481283
 30
0.0
 10
674.9607372068348
 20
-107.5763893160264
 30
0.0
 10
673.7189395318348
 20
-109.3544178052308
 30
0.0
  0
LINE
  5
155
330
1F
100
AcDbEntity
  8
FISHER_PAYKEL
 62
   250
420
  1316376
370
     9
100
AcDbLine
 10
673.7189395318348
 20
-109.3544178052308
 30
0.0
 11
672.8863706360958
 21
-108.8005478195065
 31
0.0
  0
SPLINE
  5
156
330
1F
100
AcDbEntity
  8
FISHER_PAYKEL
 62
   250
420
  1316376
370
     9
100
AcDbSpline
210
0.0
220
0.0
230
1.0
 70
     8
 71
     3
 72
     8
 73
     4
 74
     0
 42
0.000000001
 43
0.0000000001
 40
5.405860237867048
 40
5.405860237867048
 40
5.405860237867048
 40
5.405860237867048
 40
6.405860237867048
 40
6.405860237867048
 40
6.405860237867048
 40
6.405860237867048
 10
672.8863706360958
 20
-108.8005478195065
 30
0.0
 10
674.1881414942637
 20
-106.8355441121906
 30
0.0
 10
675.578108210031
 20
-105.6290247802305
 30
0.0
 10
678.2063447664945
 20
-105.6290247802305
 30
0.0
  0
SPLINE
  5
157
330
1F
100
AcDbEntity
  8
FISHER_PAYKEL
 62
   250
420
  1316376
370
     9
100
AcDbSpline
210
0.0
220
0.0
230
1.0
 70
     8
 71
     3
 72
     8
 73
     4
 74
     0
 42
0.000000001
 43
0.0000000001
 40
6.405860237867048
 40
6.405860237867048
 40
6.405860237867048
 40
6.405860237867048
 40
7.405860237867048
 40
7.405860237867048
 40
7.405860237867048
 40
7.405860237867048
 10
678.2063447664945
 20
-105.6290247802305
 30
0.0
 10
680.7499132996626
 20
-105.6290247802305
 30
0.0
 10
682.6549438238105
 20
-107.3858862636113
 30
0.0
 10
682.6549438238105
 20
-109.6895620641088
 30
0.0
  0
LINE
  5
158
330
1F
100
AcDbEntity
  8
FISHER_PAYKEL
 62
   250
420
  1316376
370
     9
100
AcDbLine
 10
682.6549438238105
 20
-109.6895620641088
 30
0.0
 11
682.6549438238105
 21
-109.7354239100606
 31
0.0
  0
SPLINE
  5
159
330
1F
100
AcDbEntity
  8
FISHER_PAYKEL
 62
   250
420
  1316376
370
     9
100
AcDbSpline
210
0.0
220
0.0
230
1.0
 70
     8
 71
     3
 72
     8
 73
     4
 74
     0
 42
0.000000001
 43
0.0000000001
 40
7.418860237867025
 40
7.418860237867025
 40
7.418860237867025
 40
7.418860237867025
 40
8.418860237867026
 40
8.418860237867026
 40
8.418860237867026
 40
8.418860237867026
 10
682.6549438238105
 20
-109.7354239100606
 30
0.0
 10
682.6549438238105
 20
-111.763928634848
 30
0.0
 10
681.5401481837536
 20
-113.1186170075754
 30
0.0
 10
678.9119116272901
 20
-115.4893216598485
 30
0.0
  0
LINE
  5
15A
330
1F
100
AcDbEntity
  8
FISHER_PAYKEL
 62
   250
420
  1316376
370
     9
100
AcDbLine
 10
678.9119116272901
 20
-115.4893216598485
 30
0.0
 11
674.3398383693348
 21
-119.5921929553746
 31
0.0
  0
LINE
  5
15B
330
1F
100
AcDbEntity
  8
FISHER_PAYKEL
 62
   250
420
  1316376
370
     9
100
AcDbLine
 10
674.3398383693348
 20
-119.5921929553746
 30
0.0
 11
682.8031128645777
 21
-119.5921929553746
 31
0.0
  0
LINE
  5
15C
330
1F
100
AcDbEntity
  8
FISHER_PAYKEL
 62
   250
420
  1316376
370
     9
100
AcDbLine
 10
682.8031128645777
 20
-119.5921929553746
 30
0.0
 11
682.8031128645777
 21
-120.650543246568
 31
0.0
  0
LINE
  5
15D
330
1F
100
AcDbEntity
  8
FISHER_PAYKEL
 62
   250
420
  1316376
370
     9
100
AcDbLine
 10
682.8031128645777
 20
-120.650543246568
 30
0.0
 11
672.5865047202577
 21
-120.650543246568
 31
0.0
  0
LINE
  5
15E
330
1F
100
AcDbEntity
  8
FISHER_PAYKEL
 62
   250
420
  1316376
370
     9
100
AcDbLine
 10
672.5865047202577
 20
-120.650543246568
 30
0.0
 11
672.586504720258
 21
-119.8250300194369
 31
0.0
  0
LINE
  5
15F
330
1F
100
AcDbEntity
  8
FISHER_PAYKEL
 62
   250
420
  1316376
370
     9
100
AcDbLine
 10
685.5213091957926
 20
-113.2879530541662
 30
0.0
 11
685.5213091957926
 21
-113.2456190425186
 31
0.0
  0
SPLINE
  5
160
330
1F
100
AcDbEntity
  8
FISHER_PAYKEL
 62
   250
420
  1316376
370
     9
100
AcDbSpline
210
0.0
220
0.0
230
1.0
 70
     8
 71
     3
 72
     8
 73
     4
 74
     0
 42
0.000000001
 43
0.0000000001
 40
2.012
 40
2.012
 40
2.012
 40
2.012
 40
3.012
 40
3.012
 40
3.012
 40
3.012
 10
685.5213091957926
 20
-113.2456190425186
 30
0.0
 10
685.5213091957926
 20
-109.1639147528164
 30
0.0
 10
687.9378756940173
 20
-105.5866907685826
 30
0.0
 10
691.7444089080094
 20
-105.5866907685826
 30
0.0
  0
SPLINE
  5
161
330
1F
100
AcDbEntity
  8
FISHER_PAYKEL
 62
   250
420
  1316376
370
     9
100
AcDbSpline
210
0.0
220
0.0
230
1.0
 70
     8
 71
     3
 72
     8
 73
     4
 74
     0
 42
0.000000001
 43
0.0000000001
 40
3.012
 40
3.012
 40
3.012
 40
3.012
 40
4.012
 40
4.012
 40
4.012
 40
4.012
 10
691.7444089080094
 20
-105.5866907685826
 30
0.0
 10
695.5474142876974
 20
-105.5866907685826
 30
0.0
 10
697.9181189399707
 20
-109.1180529068644
 30
0.0
 10
697.9181189399707
 20
-113.2032850308709
 30
0.0
  0
LINE
  5
162
330
1F
100
AcDbEntity
  8
FISHER_PAYKEL
 62
   250
420
  1316376
370
     9
100
AcDbLine
 10
697.9181189399707
 20
-113.2032850308709
 30
0.0
 11
697.9181189399707
 21
-113.2456190425186
 31
0.0
  0
SPLINE
  5
163
330
1F
100
AcDbEntity
  8
FISHER_PAYKEL
 62
   250
420
  1316376
370
     9
100
AcDbSpline
210
0.0
220
0.0
230
1.0
 70
     8
 71
     3
 72
     8
 73
     4
 74
     0
 42
0.000000001
 43
0.0000000001
 40
4.024000000000001
 40
4.024000000000001
 40
4.024000000000001
 40
4.024000000000001
 40
5.024000000000001
 40
5.024000000000001
 40
5.024000000000001
 40
5.024000000000001
 10
697.9181189399707
 20
-113.2456190425186
 30
0.0
 10
697.9181189399707
 20
-117.3308511665249
 30
0.0
 10
695.5050802760496
 20
-120.9045473164546
 30
0.0
 10
691.6985470620579
 20
-120.9045473164546
 30
0.0
  0
SPLINE
  5
164
330
1F
100
AcDbEntity
  8
FISHER_PAYKEL
 62
   250
420
  1316376
370
     9
100
AcDbSpline
210
0.0
220
0.0
230
1.0
 70
     8
 71
     3
 72
     8
 73
     4
 74
     0
 42
0.000000001
 43
0.0000000001
 40
5.024000000000001
 40
5.024000000000001
 40
5.024000000000001
 40
5.024000000000001
 40
6.024000000000001
 40
6.024000000000001
 40
6.024000000000001
 40
6.024000000000001
 10
691.6985470620579
 20
-120.9045473164546
 30
0.0
 10
687.8955416823696
 20
-120.9045473164546
 30
0.0
 10
685.5213091957926
 20
-117.3696573438687
 30
0.0
 10
685.5213091957926
 20
-113.2879530541662
 30
0.0
  0
LINE
  5
165
330
1F
100
AcDbEntity
  8
FISHER_PAYKEL
 62
   250
420
  1316376
370
     9
100
AcDbLine
 10
696.7645171225698
 20
-113.2879530541662
 30
0.0
 11
696.7645171225698
 21
-113.2456190425186
 31
0.0
  0
SPLINE
  5
166
330
1F
100
AcDbEntity
  8
FISHER_PAYKEL
 62
   250
420
  1316376
370
     9
100
AcDbSpline
210
0.0
220
0.0
230
1.0
 70
     8
 71
     3
 72
     8
 73
     4
 74
     0
 42
0.000000001
 43
0.0000000001
 40
0.0120000000000005
 40
0.0120000000000005
 40
0.0120000000000005
 40
0.0120000000000005
 40
1.012
 40
1.012
 40
1.012
 40
1.012
 10
696.7645171225698
 20
-113.2456190425186
 30
0.0
 10
696.7645171225698
 20
-109.7989249275321
 30
0.0
 10
694.7995134152542
 20
-106.5815400423043
 30
0.0
 10
691.6985470620579
 20
-106.5815400423043
 30
0.0
  0
SPLINE
  5
167
330
1F
100
AcDbEntity
  8
FISHER_PAYKEL
 62
   250
420
  1316376
370
     9
100
AcDbSpline
210
0.0
220
0.0
230
1.0
 70
     8
 71
     3
 72
     8
 73
     4
 74
     0
 42
0.000000001
 43
0.0000000001
 40
1.012
 40
1.012
 40
1.012
 40
1.012
 40
2.012
 40
2.012
 40
2.012
 40
2.012
 10
691.6985470620579
 20
-106.5815400423043
 30
0.0
 10
688.6046363774692
 20
-106.5815400423043
 30
0.0
 10
686.6784388474973
 20
-109.7565909158844
 30
0.0
 10
686.6784388474973
 20
-113.2032850308709
 30
0.0
  0
LINE
  5
168
330
1F
100
AcDbEntity
  8
FISHER_PAYKEL
 62
   250
420
  1316376
370
     9
100
AcDbLine
 10
686.6784388474973
 20
-113.2032850308709
 30
0.0
 11
686.6784388474973
 21
-113.2456190425186
 31
0.0
  0
SPLINE
  5
169
330
1F
100
AcDbEntity
  8
FISHER_PAYKEL
 62
   250
420
  1316376
370
     9
100
AcDbSpline
210
0.0
220
0.0
230
1.0
 70
     8
 71
     3
 72
     8
 73
     4
 74
     0
 42
0.000000001
 43
0.0000000001
 40
2.024000000000001
 40
2.024000000000001
 40
2.024000000000001
 40
2.024000000000001
 40
3.024000000000001
 40
3.024000000000001
 40
3.024000000000001
 40
3.024000000000001
 10
686.6784388474973
 20
-113.2456190425186
 30
0.0
 10
686.6784388474973
 20
-116.671146151681
 30
0.0
 10
688.6434425548127
 20
-119.9096980427329
 30
0.0
 10
691.7444089080094
 20
-119.9096980427329
 30
0.0
  0
SPLINE
  5
16A
330
1F
100
AcDbEntity
  8
FISHER_PAYKEL
 62
   250
420
  1316376
370
     9
100
AcDbSpline
210
0.0
220
0.0
230
1.0
 70
     8
 71
     3
 72
     8
 73
     4
 74
     0
 42
0.000000001
 43
0.0000000001
 40
3.024000000000001
 40
3.024000000000001
 40
3.024000000000001
 40
3.024000000000001
 40
4.024000000000001
 40
4.024000000000001
 40
4.024000000000001
 40
4.024000000000001
 10
691.7444089080094
 20
-119.9096980427329
 30
0.0
 10
694.841847426902
 20
-119.9096980427329
 30
0.0
 10
696.7645171225698
 20
-116.7170079976325
 30
0.0
 10
696.7645171225698
 20
-113.2879530541662
 30
0.0
  0
LINE
  5
16B
330
1F
100
AcDbEntity
  8
FISHER_PAYKEL
 62
   250
420
  1316376
370
     9
100
AcDbLine
 10
700.6592461941614
 20
-113.2879530541662
 30
0.0
 11
700.6592461941614
 21
-113.2456190425186
 31
0.0
  0
SPLINE
  5
16C
330
1F
100
AcDbEntity
  8
FISHER_PAYKEL
 62
   250
420
  1316376
370
     9
100
AcDbSpline
210
0.0
220
0.0
230
1.0
 70
     8
 71
     3
 72
     8
 73
     4
 74
     0
 42
0.000000001
 43
0.0000000001
 40
2.012
 40
2.012
 40
2.012
 40
2.012
 40
3.012
 40
3.012
 40
3.012
 40
3.012
 10
700.6592461941614
 20
-113.2456190425186
 30
0.0
 10
700.6592461941614
 20
-109.1639147528164
 30
0.0
 10
703.0758126923862
 20
-105.5866907685826
 30
0.0
 10
706.8823459063784
 20
-105.5866907685826
 30
0.0
  0
SPLINE
  5
16D
330
1F
100
AcDbEntity
  8
FISHER_PAYKEL
 62
   250
420
  1316376
370
     9
100
AcDbSpline
210
0.0
220
0.0
230
1.0
 70
     8
 71
     3
 72
     8
 73
     4
 74
     0
 42
0.000000001
 43
0.0000000001
 40
3.012
 40
3.012
 40
3.012
 40
3.012
 40
4.012
 40
4.012
 40
4.012
 40
4.012
 10
706.8823459063784
 20
-105.5866907685826
 30
0.0
 10
710.6853512860664
 20
-105.5866907685826
 30
0.0
 10
713.0560559383396
 20
-109.1180529068644
 30
0.0
 10
713.0560559383396
 20
-113.2032850308709
 30
0.0
  0
LINE
  5
16E
330
1F
100
AcDbEntity
  8
FISHER_PAYKEL
 62
   250
420
  1316376
370
     9
100
AcDbLine
 10
713.0560559383396
 20
-113.2032850308709
 30
0.0
 11
713.0560559383396
 21
-113.2456190425186
 31
0.0
  0
SPLINE
  5
16F
330
1F
100
AcDbEntity
  8
FISHER_PAYKEL
 62
   250
420
  1316376
370
     9
100
AcDbSpline
210
0.0
220
0.0
230
1.0
 70
     8
 71
     3
 72
     8
 73
     4
 74
     0
 42
0.000000001
 43
0.0000000001
 40
4.024000000000001
 40
4.024000000000001
 40
4.024000000000001
 40
4.024000000000001
 40
5.024000000000001
 40
5.024000000000001
 40
5.024000000000001
 40
5.024000000000001
 10
713.0560559383396
 20
-113.2456190425186
 30
0.0
 10
713.0560559383396
 20
-117.3308511665249
 30
0.0
 10
710.6430172744186
 20
-120.9045473164546
 30
0.0
 10
706.8364840604266
 20
-120.9045473164546
 30
0.0
  0
SPLINE
  5
170
330
1F
100
AcDbEntity
  8
FISHER_PAYKEL
 62
   250
420
  1316376
370
     9
100
AcDbSpline
210
0.0
220
0.0
230
1.0
 70
     8
 71
     3
 72
     8
 73
     4
 74
     0
 42
0.000000001
 43
0.0000000001
 40
5.024000000000001
 40
5.024000000000001
 40
5.024000000000001
 40
5.024000000000001
 40
6.024000000000001
 40
6.024000000000001
 40
6.024000000000001
 40
6.024000000000001
 10
706.8364840604266
 20
-120.9045473164546
 30
0.0
 10
703.0334786807384
 20
-120.9045473164546
 30
0.0
 10
700.6592461941614
 20
-117.3696573438687
 30
0.0
 10
700.6592461941614
 20
-113.2879530541662
 30
0.0
  0
LINE
  5
171
330
1F
100
AcDbEntity
  8
FISHER_PAYKEL
 62
   250
420
  1316376
370
     9
100
AcDbLine
 10
711.9024541209388
 20
-113.2879530541662
 30
0.0
 11
711.9024541209388
 21
-113.2456190425186
 31
0.0
  0
SPLINE
  5
172
330
1F
100
AcDbEntity
  8
FISHER_PAYKEL
 62
   250
420
  1316376
370
     9
100
AcDbSpline
210
0.0
220
0.0
230
1.0
 70
     8
 71
     3
 72
     8
 73
     4
 74
     0
 42
0.000000001
 43
0.0000000001
 40
0.0120000000000005
 40
0.0120000000000005
 40
0.0120000000000005
 40
0.0120000000000005
 40
1.012
 40
1.012
 40
1.012
 40
1.012
 10
711.9024541209388
 20
-113.2456190425186
 30
0.0
 10
711.9024541209388
 20
-109.7989249275321
 30
0.0
 10
709.9374504136231
 20
-106.5815400423043
 30
0.0
 10
706.8364840604266
 20
-106.5815400423043
 30
0.0
  0
SPLINE
  5
173
330
1F
100
AcDbEntity
  8
FISHER_PAYKEL
 62
   250
420
  1316376
370
     9
100
AcDbSpline
210
0.0
220
0.0
230
1.0
 70
     8
 71
     3
 72
     8
 73
     4
 74
     0
 42
0.000000001
 43
0.0000000001
 40
1.012
 40
1.012
 40
1.012
 40
1.012
 40
2.012
 40
2.012
 40
2.012
 40
2.012
 10
706.8364840604266
 20
-106.5815400423043
 30
0.0
 10
703.7425733758381
 20
-106.5815400423043
 30
0.0
 10
701.8163758458662
 20
-109.7565909158844
 30
0.0
 10
701.8163758458662
 20
-113.2032850308709
 30
0.0
  0
LINE
  5
174
330
1F
100
AcDbEntity
  8
FISHER_PAYKEL
 62
   250
420
  1316376
370
     9
100
AcDbLine
 10
701.8163758458662
 20
-113.2032850308709
 30
0.0
 11
701.8163758458662
 21
-113.2456190425186
 31
0.0
  0
SPLINE
  5
175
330
1F
100
AcDbEntity
  8
FISHER_PAYKEL
 62
   250
420
  1316376
370
     9
100
AcDbSpline
210
0.0
220
0.0
230
1.0
 70
     8
 71
     3
 72
     8
 73
     4
 74
     0
 42
0.000000001
 43
0.0000000001
 40
2.024000000000001
 40
2.024000000000001
 40
2.024000000000001
 40
2.024000000000001
 40
3.024000000000001
 40
3.024000000000001
 40
3.024000000000001
 40
3.024000000000001
 10
701.8163758458662
 20
-113.2456190425186
 30
0.0
 10
701.8163758458662
 20
-116.671146151681
 30
0.0
 10
703.7813795531818
 20
-119.9096980427329
 30
0.0
 10
706.8823459063784
 20
-119.9096980427329
 30
0.0
  0
SPLINE
  5
176
330
1F
100
AcDbEntity
  8
FISHER_PAYKEL
 62
   250
420
  1316376
370
     9
100
AcDbSpline
210
0.0
220
0.0
230
1.0
 70
     8
 71
     3
 72
     8
 73
     4
 74
     0
 42
0.000000001
 43
0.0000000001
 40
3.024000000000001
 40
3.024000000000001
 40
3.024000000000001
 40
3.024000000000001
 40
4.024000000000001
 40
4.024000000000001
 40
4.024000000000001
 40
4.024000000000001
 10
706.8823459063784
 20
-119.9096980427329
 30
0.0
 10
709.9797844252707
 20
-119.9096980427329
 30
0.0
 10
711.9024541209388
 20
-116.7170079976325
 30
0.0
 10
711.9024541209388
 20
-113.2879530541662
 30
0.0
  0
POLYLINE
  5
177
330
1F
100
AcDbEntity
  8
FISHER_PAYKEL
 62
   250
420
  1316376
370
     9
100
AcDb2dPolyline
 66
     1
 10
0.0
 20
0.0
 30
0.0
 70
     1
  0
VERTEX
  5
178
330
177
100
AcDbEntity
  8
FISHER_PAYKEL
 62
   250
420
  1316376
370
     9
100
AcDbVertex
100
AcDb2dVertex
 10
880.2842215326492
 20
-117.0327491678385
 30
0.0
  0
VERTEX
  5
179
330
177
100
AcDbEntity
  8
FISHER_PAYKEL
 62
   250
420
  1316376
370
     9
100
AcDbVertex
100
AcDb2dVertex
 10
872.1843139707161
 20
-117.0327491678385
 30
0.0
  0
VERTEX
  5
17A
330
177
100
AcDbEntity
  8
FISHER_PAYKEL
 62
   250
420
  1316376
370
     9
100
AcDbVertex
100
AcDb2dVertex
 10
871.7997800315826
 20
-116.2072359407076
 30
0.0
  0
VERTEX
  5
17B
330
177
100
AcDbEntity
  8
FISHER_PAYKEL
 62
   250
420
  1316376
370
     9
100
AcDbVertex
100
AcDb2dVertex
 10
880.3477225501207
 20
-105.7366237265013
 30
0.0
  0
VERTEX
  5
17C
330
177
100
AcDbEntity
  8
FISHER_PAYKEL
 62
   250
420
  1316376
370
     9
100
AcDbVertex
100
AcDb2dVertex
 10
881.3531553267545
 20
-105.7366237265013
 30
0.0
  0
VERTEX
  5
17D
330
177
100
AcDbEntity
  8
FISHER_PAYKEL
 62
   250
420
  1316376
370
     9
100
AcDbVertex
100
AcDb2dVertex
 10
881.3531553267545
 20
-116.0802339057647
 30
0.0
  0
VERTEX
  5
17E
330
177
100
AcDbEntity
  8
FISHER_PAYKEL
 62
   250
420
  1316376
370
     9
100
AcDbVertex
100
AcDb2dVertex
 10
883.7873609964992
 20
-116.0802339057647
 30
0.0
  0
VERTEX
  5
17F
330
177
100
AcDbEntity
  8
FISHER_PAYKEL
 62
   250
420
  1316376
370
     9
100
AcDbVertex
100
AcDb2dVertex
 10
883.7873609964992
 20
-117.0327491678385
 30
0.0
  0
VERTEX
  5
180
330
177
100
AcDbEntity
  8
FISHER_PAYKEL
 62
   250
420
  1316376
370
     9
100
AcDbVertex
100
AcDb2dVertex
 10
881.3531553267545
 20
-117.0327491678385
 30
0.0
  0
VERTEX
  5
181
330
177
100
AcDbEntity
  8
FISHER_PAYKEL
 62
   250
420
  1316376
370
     9
100
AcDbVertex
100
AcDb2dVertex
 10
881.3531553267545
 20
-120.6487793294158
 30
0.0
  0
VERTEX
  5
182
330
177
100
AcDbEntity
  8
FISHER_PAYKEL
 62
   250
420
  1316376
370
     9
100
AcDbVertex
100
AcDb2dVertex
 10
880.2842215326492
 20
-120.6487793294158
 30
0.0
  0
SEQEND
  5
183
330
177
100
AcDbEntity
  8
FISHER_PAYKEL
 62
   250
420
  1316376
370
     9
  0
POLYLINE
  5
184
330
1F
100
AcDbEntity
  8
FISHER_PAYKEL
 62
   250
420
  1316376
370
     9
100
AcDb2dPolyline
 66
     1
 10
0.0
 20
0.0
 30
0.0
 70
     1
  0
VERTEX
  5
185
330
184
100
AcDbEntity
  8
FISHER_PAYKEL
 62
   250
420
  1316376
370
     9
100
AcDbVertex
100
AcDb2dVertex
 10
880.2842215326492
 20
-116.0802339057647
 30
0.0
  0
VERTEX
  5
186
330
184
100
AcDbEntity
  8
FISHER_PAYKEL
 62
   250
420
  1316376
370
     9
100
AcDbVertex
100
AcDb2dVertex
 10
880.2842215326492
 20
-107.3241491632915
 30
0.0
  0
VERTEX
  5
187
330
184
100
AcDbEntity
  8
FISHER_PAYKEL
 62
   250
420
  1316376
370
     9
100
AcDbVertex
100
AcDb2dVertex
 10
873.147412735702
 20
-116.0802339057647
 30
0.0
  0
SEQEND
  5
188
330
184
100
AcDbEntity
  8
FISHER_PAYKEL
 62
   250
420
  1316376
370
     9
  0
LINE
  5
189
330
1F
100
AcDbEntity
  8
FISHER_PAYKEL
 62
   250
420
  1316376
370
     9
100
AcDbLine
 10
886.3150542752993
 20
-113.2879530541662
 30
0.0
 11
886.3150542752993
 21
-113.2456190425186
 31
0.0
  0
SPLINE
  5
18A
330
1F
100
AcDbEntity
  8
FISHER_PAYKEL
 62
   250
420
  1316376
370
     9
100
AcDbSpline
210
0.0
220
0.0
230
1.0
 70
     8
 71
     3
 72
     8
 73
     4
 74
     0
 42
0.000000001
 43
0.0000000001
 40
2.012
 40
2.012
 40
2.012
 40
2.012
 40
3.012
 40
3.012
 40
3.012
 40
3.012
 10
886.3150542752993
 20
-113.2456190425186
 30
0.0
 10
886.3150542752993
 20
-109.1639147528164
 30
0.0
 10
888.731620773524
 20
-105.5866907685826
 30
0.0
 10
892.5346261532123
 20
-105.5866907685826
 30
0.0
  0
SPLINE
  5
18B
330
1F
100
AcDbEntity
  8
FISHER_PAYKEL
 62
   250
420
  1316376
370
     9
100
AcDbSpline
210
0.0
220
0.0
230
1.0
 70
     8
 71
     3
 72
     8
 73
     4
 74
     0
 42
0.000000001
 43
0.0000000001
 40
3.012
 40
3.012
 40
3.012
 40
3.012
 40
4.012
 40
4.012
 40
4.012
 40
4.012
 10
892.5346261532123
 20
-105.5866907685826
 30
0.0
 10
896.3376315329002
 20
-105.5866907685826
 30
0.0
 10
898.7118640194775
 20
-109.1180529068644
 30
0.0
 10
898.7118640194775
 20
-113.2032850308709
 30
0.0
  0
LINE
  5
18C
330
1F
100
AcDbEntity
  8
FISHER_PAYKEL
 62
   250
420
  1316376
370
     9
100
AcDbLine
 10
898.7118640194775
 20
-113.2032850308709
 30
0.0
 11
898.7118640194775
 21
-113.2456190425186
 31
0.0
  0
SPLINE
  5
18D
330
1F
100
AcDbEntity
  8
FISHER_PAYKEL
 62
   250
420
  1316376
370
     9
100
AcDbSpline
210
0.0
220
0.0
230
1.0
 70
     8
 71
     3
 72
     8
 73
     4
 74
     0
 42
0.000000001
 43
0.0000000001
 40
4.024000000000001
 40
4.024000000000001
 40
4.024000000000001
 40
4.024000000000001
 40
5.024000000000001
 40
5.024000000000001
 40
5.024000000000001
 40
5.024000000000001
 10
898.7118640194775
 20
-113.2456190425186
 30
0.0
 10
898.7118640194775
 20
-117.3308511665249
 30
0.0
 10
896.2988253555565
 20
-120.9045473164546
 30
0.0
 10
892.4922921415647
 20
-120.9045473164546
 30
0.0
  0
SPLINE
  5
18E
330
1F
100
AcDbEntity
  8
FISHER_PAYKEL
 62
   250
420
  1316376
370
     9
100
AcDbSpline
210
0.0
220
0.0
230
1.0
 70
     8
 71
     3
 72
     8
 73
     4
 74
     0
 42
0.000000001
 43
0.0000000001
 40
5.024000000000001
 40
5.024000000000001
 40
5.024000000000001
 40
5.024000000000001
 40
6.024000000000001
 40
6.024000000000001
 40
6.024000000000001
 40
6.024000000000001
 10
892.4922921415647
 20
-120.9045473164546
 30
0.0
 10
888.6857589275725
 20
-120.9045473164546
 30
0.0
 10
886.3150542752993
 20
-117.3696573438687
 30
0.0
 10
886.3150542752993
 20
-113.2879530541662
 30
0.0
  0
LINE
  5
18F
330
1F
100
AcDbEntity
  8
FISHER_PAYKEL
 62
   250
420
  1316376
370
     9
100
AcDbLine
 10
897.5582622020767
 20
-113.2879530541662
 30
0.0
 11
897.5582622020767
 21
-113.2456190425186
 31
0.0
  0
SPLINE
  5
190
330
1F
100
AcDbEntity
  8
FISHER_PAYKEL
 62
   250
420
  1316376
370
     9
100
AcDbSpline
210
0.0
220
0.0
230
1.0
 70
     8
 71
     3
 72
     8
 73
     4
 74
     0
 42
0.000000001
 43
0.0000000001
 40
0.0120000000000005
 40
0.0120000000000005
 40
0.0120000000000005
 40
0.0120000000000005
 40
1.012
 40
1.012
 40
1.012
 40
1.012
 10
897.5582622020767
 20
-113.2456190425186
 30
0.0
 10
897.5582622020767
 20
-109.7989249275321
 30
0.0
 10
895.5897306604571
 20
-106.5815400423043
 30
0.0
 10
892.4922921415647
 20
-106.5815400423043
 30
0.0
  0
SPLINE
  5
191
330
1F
100
AcDbEntity
  8
FISHER_PAYKEL
 62
   250
420
  1316376
370
     9
100
AcDbSpline
210
0.0
220
0.0
230
1.0
 70
     8
 71
     3
 72
     8
 73
     4
 74
     0
 42
0.000000001
 43
0.0000000001
 40
1.012
 40
1.012
 40
1.012
 40
1.012
 40
2.012
 40
2.012
 40
2.012
 40
2.012
 10
892.4922921415647
 20
-106.5815400423043
 30
0.0
 10
889.3948536226718
 20
-106.5815400423043
 30
0.0
 10
887.472183927004
 20
-109.7565909158844
 30
0.0
 10
887.472183927004
 20
-113.2032850308709
 30
0.0
  0
LINE
  5
192
330
1F
100
AcDbEntity
  8
FISHER_PAYKEL
 62
   250
420
  1316376
370
     9
100
AcDbLine
 10
887.472183927004
 20
-113.2032850308709
 30
0.0
 11
887.472183927004
 21
-113.2456190425186
 31
0.0
  0
SPLINE
  5
193
330
1F
100
AcDbEntity
  8
FISHER_PAYKEL
 62
   250
420
  1316376
370
     9
100
AcDbSpline
210
0.0
220
0.0
230
1.0
 70
     8
 71
     3
 72
     8
 73
     4
 74
     0
 42
0.000000001
 43
0.0000000001
 40
2.024000000000001
 40
2.024000000000001
 40
2.024000000000001
 40
2.024000000000001
 40
3.024000000000001
 40
3.024000000000001
 40
3.024000000000001
 40
3.024000000000001
 10
887.472183927004
 20
-113.2456190425186
 30
0.0
 10
887.472183927004
 20
-116.671146151681
 30
0.0
 10
889.4371876343197
 20
-119.9096980427329
 30
0.0
 10
892.5346261532123
 20
-119.9096980427329
 30
0.0
  0
SPLINE
  5
194
330
1F
100
AcDbEntity
  8
FISHER_PAYKEL
 62
   250
420
  1316376
370
     9
100
AcDbSpline
210
0.0
220
0.0
230
1.0
 70
     8
 71
     3
 72
     8
 73
     4
 74
     0
 42
0.000000001
 43
0.0000000001
 40
3.024000000000001
 40
3.024000000000001
 40
3.024000000000001
 40
3.024000000000001
 40
4.024000000000001
 40
4.024000000000001
 40
4.024000000000001
 40
4.024000000000001
 10
892.5346261532123
 20
-119.9096980427329
 30
0.0
 10
895.6355925064087
 20
-119.9096980427329
 30
0.0
 10
897.5582622020767
 20
-116.7170079976325
 30
0.0
 10
897.5582622020767
 20
-113.2879530541662
 30
0.0
  0
LINE
  5
195
330
1F
100
AcDbEntity
  8
FISHER_PAYKEL
 62
   250
420
  1316376
370
     9
100
AcDbLine
 10
901.4529912736681
 20
-113.2879530541662
 30
0.0
 11
901.4529912736681
 21
-113.2456190425186
 31
0.0
  0
SPLINE
  5
196
330
1F
100
AcDbEntity
  8
FISHER_PAYKEL
 62
   250
420
  1316376
370
     9
100
AcDbSpline
210
0.0
220
0.0
230
1.0
 70
     8
 71
     3
 72
     8
 73
     4
 74
     0
 42
0.000000001
 43
0.0000000001
 40
2.012
 40
2.012
 40
2.012
 40
2.012
 40
3.012
 40
3.012
 40
3.012
 40
3.012
 10
901.4529912736681
 20
-113.2456190425186
 30
0.0
 10
901.4529912736681
 20
-109.1639147528164
 30
0.0
 10
903.869557771893
 20
-105.5866907685826
 30
0.0
 10
907.6725631515814
 20
-105.5866907685826
 30
0.0
  0
SPLINE
  5
197
330
1F
100
AcDbEntity
  8
FISHER_PAYKEL
 62
   250
420
  1316376
370
     9
100
AcDbSpline
210
0.0
220
0.0
230
1.0
 70
     8
 71
     3
 72
     8
 73
     4
 74
     0
 42
0.000000001
 43
0.0000000001
 40
3.012
 40
3.012
 40
3.012
 40
3.012
 40
4.012
 40
4.012
 40
4.012
 40
4.012
 10
907.6725631515814
 20
-105.5866907685826
 30
0.0
 10
911.4755685312692
 20
-105.5866907685826
 30
0.0
 10
913.8498010178463
 20
-109.1180529068644
 30
0.0
 10
913.8498010178463
 20
-113.2032850308709
 30
0.0
  0
LINE
  5
198
330
1F
100
AcDbEntity
  8
FISHER_PAYKEL
 62
   250
420
  1316376
370
     9
100
AcDbLine
 10
913.8498010178463
 20
-113.2032850308709
 30
0.0
 11
913.8498010178463
 21
-113.2456190425186
 31
0.0
  0
SPLINE
  5
199
330
1F
100
AcDbEntity
  8
FISHER_PAYKEL
 62
   250
420
  1316376
370
     9
100
AcDbSpline
210
0.0
220
0.0
230
1.0
 70
     8
 71
     3
 72
     8
 73
     4
 74
     0
 42
0.000000001
 43
0.0000000001
 40
4.024000000000001
 40
4.024000000000001
 40
4.024000000000001
 40
4.024000000000001
 40
5.024000000000001
 40
5.024000000000001
 40
5.024000000000001
 40
5.024000000000001
 10
913.8498010178463
 20
-113.2456190425186
 30
0.0
 10
913.8498010178463
 20
-117.3308511665249
 30
0.0
 10
911.4367623539255
 20
-120.9045473164546
 30
0.0
 10
907.6302291399335
 20
-120.9045473164546
 30
0.0
  0
SPLINE
  5
19A
330
1F
100
AcDbEntity
  8
FISHER_PAYKEL
 62
   250
420
  1316376
370
     9
100
AcDbSpline
210
0.0
220
0.0
230
1.0
 70
     8
 71
     3
 72
     8
 73
     4
 74
     0
 42
0.000000001
 43
0.0000000001
 40
5.024000000000001
 40
5.024000000000001
 40
5.024000000000001
 40
5.024000000000001
 40
6.024000000000001
 40
6.024000000000001
 40
6.024000000000001
 40
6.024000000000001
 10
907.6302291399335
 20
-120.9045473164546
 30
0.0
 10
903.8236959259413
 20
-120.9045473164546
 30
0.0
 10
901.4529912736681
 20
-117.3696573438687
 30
0.0
 10
901.4529912736681
 20
-113.2879530541662
 30
0.0
  0
LINE
  5
19B
330
1F
100
AcDbEntity
  8
FISHER_PAYKEL
 62
   250
420
  1316376
370
     9
100
AcDbLine
 10
912.6961992004454
 20
-113.2879530541662
 30
0.0
 11
912.6961992004454
 21
-113.2456190425186
 31
0.0
  0
SPLINE
  5
19C
330
1F
100
AcDbEntity
  8
FISHER_PAYKEL
 62
   250
420
  1316376
370
     9
100
AcDbSpline
210
0.0
220
0.0
230
1.0
 70
     8
 71
     3
 72
     8
 73
     4
 74
     0
 42
0.000000001
 43
0.0000000001
 40
0.0120000000000005
 40
0.0120000000000005
 40
0.0120000000000005
 40
0.0120000000000005
 40
1.012
 40
1.012
 40
1.012
 40
1.012
 10
912.6961992004454
 20
-113.2456190425186
 30
0.0
 10
912.6961992004454
 20
-109.7989249275321
 30
0.0
 10
910.7276676588259
 20
-106.5815400423043
 30
0.0
 10
907.6302291399335
 20
-106.5815400423043
 30
0.0
  0
SPLINE
  5
19D
330
1F
100
AcDbEntity
  8
FISHER_PAYKEL
 62
   250
420
  1316376
370
     9
100
AcDbSpline
210
0.0
220
0.0
230
1.0
 70
     8
 71
     3
 72
     8
 73
     4
 74
     0
 42
0.000000001
 43
0.0000000001
 40
1.012
 40
1.012
 40
1.012
 40
1.012
 40
2.012
 40
2.012
 40
2.012
 40
2.012
 10
907.6302291399335
 20
-106.5815400423043
 30
0.0
 10
904.5327906210408
 20
-106.5815400423043
 30
0.0
 10
902.610120925373
 20
-109.7565909158844
 30
0.0
 10
902.610120925373
 20
-113.2032850308709
 30
0.0
  0
LINE
  5
19E
330
1F
100
AcDbEntity
  8
FISHER_PAYKEL
 62
   250
420
  1316376
370
     9
100
AcDbLine
 10
902.610120925373
 20
-113.2032850308709
 30
0.0
 11
902.610120925373
 21
-113.2456190425186
 31
0.0
  0
SPLINE
  5
19F
330
1F
100
AcDbEntity
  8
FISHER_PAYKEL
 62
   250
420
  1316376
370
     9
100
AcDbSpline
210
0.0
220
0.0
230
1.0
 70
     8
 71
     3
 72
     8
 73
     4
 74
     0
 42
0.000000001
 43
0.0000000001
 40
2.024000000000001
 40
2.024000000000001
 40
2.024000000000001
 40
2.024000000000001
 40
3.024000000000001
 40
3.024000000000001
 40
3.024000000000001
 40
3.024000000000001
 10
902.610120925373
 20
-113.2456190425186
 30
0.0
 10
902.610120925373
 20
-116.671146151681
 30
0.0
 10
904.5751246326885
 20
-119.9096980427329
 30
0.0
 10
907.6725631515814
 20
-119.9096980427329
 30
0.0
  0
SPLINE
  5
1A0
330
1F
100
AcDbEntity
  8
FISHER_PAYKEL
 62
   250
420
  1316376
370
     9
100
AcDbSpline
210
0.0
220
0.0
230
1.0
 70
     8
 71
     3
 72
     8
 73
     4
 74
     0
 42
0.000000001
 43
0.0000000001
 40
3.024000000000001
 40
3.024000000000001
 40
3.024000000000001
 40
3.024000000000001
 40
4.024000000000001
 40
4.024000000000001
 40
4.024000000000001
 40
4.024000000000001
 10
907.6725631515814
 20
-119.9096980427329
 30
0.0
 10
910.7735295047777
 20
-119.9096980427329
 30
0.0
 10
912.6961992004454
 20
-116.7170079976325
 30
0.0
 10
912.6961992004454
 20
-113.2879530541662
 30
0.0
  0
LINE
  5
1A1
330
1F
100
AcDbEntity
  8
FISHER_PAYKEL
 62
   250
420
  1316376
370
     9
100
AcDbLine
 10
486.7980500692902
 20
-113.2879530541662
 30
0.0
 11
486.7980500692902
 21
-113.2456190425186
 31
0.0
  0
SPLINE
  5
1A2
330
1F
100
AcDbEntity
  8
FISHER_PAYKEL
 62
   250
420
  1316376
370
     9
100
AcDbSpline
210
0.0
220
0.0
230
1.0
 70
     8
 71
     3
 72
     8
 73
     4
 74
     0
 42
0.000000001
 43
0.0000000001
 40
2.012
 40
2.012
 40
2.012
 40
2.012
 40
3.012
 40
3.012
 40
3.012
 40
3.012
 10
486.7980500692902
 20
-113.2456190425186
 30
0.0
 10
486.7980500692902
 20
-109.1639147528164
 30
0.0
 10
489.2146165675149
 20
-105.5866907685826
 30
0.0
 10
493.021149781507
 20
-105.5866907685826
 30
0.0
  0
SPLINE
  5
1A3
330
1F
100
AcDbEntity
  8
FISHER_PAYKEL
 62
   250
420
  1316376
370
     9
100
AcDbSpline
210
0.0
220
0.0
230
1.0
 70
     8
 71
     3
 72
     8
 73
     4
 74
     0
 42
0.000000001
 43
0.0000000001
 40
3.012
 40
3.012
 40
3.012
 40
3.012
 40
4.012
 40
4.012
 40
4.012
 40
4.012
 10
493.021149781507
 20
-105.5866907685826
 30
0.0
 10
496.8241551611953
 20
-105.5866907685826
 30
0.0
 10
499.1948598134684
 20
-109.1180529068644
 30
0.0
 10
499.1948598134684
 20
-113.2032850308709
 30
0.0
  0
LINE
  5
1A4
330
1F
100
AcDbEntity
  8
FISHER_PAYKEL
 62
   250
420
  1316376
370
     9
100
AcDbLine
 10
499.1948598134684
 20
-113.2032850308709
 30
0.0
 11
499.1948598134684
 21
-113.2456190425186
 31
0.0
  0
SPLINE
  5
1A5
330
1F
100
AcDbEntity
  8
FISHER_PAYKEL
 62
   250
420
  1316376
370
     9
100
AcDbSpline
210
0.0
220
0.0
230
1.0
 70
     8
 71
     3
 72
     8
 73
     4
 74
     0
 42
0.000000001
 43
0.0000000001
 40
4.024000000000001
 40
4.024000000000001
 40
4.024000000000001
 40
4.024000000000001
 40
5.024000000000001
 40
5.024000000000001
 40
5.024000000000001
 40
5.024000000000001
 10
499.1948598134684
 20
-113.2456190425186
 30
0.0
 10
499.1948598134684
 20
-117.3308511665249
 30
0.0
 10
496.7818211495475
 20
-120.9045473164546
 30
0.0
 10
492.9752879355553
 20
-120.9045473164546
 30
0.0
  0
SPLINE
  5
1A6
330
1F
100
AcDbEntity
  8
FISHER_PAYKEL
 62
   250
420
  1316376
370
     9
100
AcDbSpline
210
0.0
220
0.0
230
1.0
 70
     8
 71
     3
 72
     8
 73
     4
 74
     0
 42
0.000000001
 43
0.0000000001
 40
5.024000000000001
 40
5.024000000000001
 40
5.024000000000001
 40
5.024000000000001
 40
6.024000000000001
 40
6.024000000000001
 40
6.024000000000001
 40
6.024000000000001
 10
492.9752879355553
 20
-120.9045473164546
 30
0.0
 10
489.1722825558672
 20
-120.9045473164546
 30
0.0
 10
486.7980500692902
 20
-117.3696573438687
 30
0.0
 10
486.7980500692902
 20
-113.2879530541662
 30
0.0
  0
LINE
  5
1A7
330
1F
100
AcDbEntity
  8
FISHER_PAYKEL
 62
   250
420
  1316376
370
     9
100
AcDbLine
 10
498.0412579960677
 20
-113.2879530541662
 30
0.0
 11
498.0412579960677
 21
-113.2456190425186
 31
0.0
  0
SPLINE
  5
1A8
330
1F
100
AcDbEntity
  8
FISHER_PAYKEL
 62
   250
420
  1316376
370
     9
100
AcDbSpline
210
0.0
220
0.0
230
1.0
 70
     8
 71
     3
 72
     8
 73
     4
 74
     0
 42
0.000000001
 43
0.0000000001
 40
0.0120000000000005
 40
0.0120000000000005
 40
0.0120000000000005
 40
0.0120000000000005
 40
1.012
 40
1.012
 40
1.012
 40
1.012
 10
498.0412579960677
 20
-113.2456190425186
 30
0.0
 10
498.0412579960677
 20
-109.7989249275321
 30
0.0
 10
496.076254288752
 20
-106.5815400423043
 30
0.0
 10
492.9752879355553
 20
-106.5815400423043
 30
0.0
  0
SPLINE
  5
1A9
330
1F
100
AcDbEntity
  8
FISHER_PAYKEL
 62
   250
420
  1316376
370
     9
100
AcDbSpline
210
0.0
220
0.0
230
1.0
 70
     8
 71
     3
 72
     8
 73
     4
 74
     0
 42
0.000000001
 43
0.0000000001
 40
1.012
 40
1.012
 40
1.012
 40
1.012
 40
2.012
 40
2.012
 40
2.012
 40
2.012
 10
492.9752879355553
 20
-106.5815400423043
 30
0.0
 10
489.8813772509669
 20
-106.5815400423043
 30
0.0
 10
487.9551797209949
 20
-109.7565909158844
 30
0.0
 10
487.9551797209949
 20
-113.2032850308709
 30
0.0
  0
LINE
  5
1AA
330
1F
100
AcDbEntity
  8
FISHER_PAYKEL
 62
   250
420
  1316376
370
     9
100
AcDbLine
 10
487.9551797209949
 20
-113.2032850308709
 30
0.0
 11
487.9551797209949
 21
-113.2456190425186
 31
0.0
  0
SPLINE
  5
1AB
330
1F
100
AcDbEntity
  8
FISHER_PAYKEL
 62
   250
420
  1316376
370
     9
100
AcDbSpline
210
0.0
220
0.0
230
1.0
 70
     8
 71
     3
 72
     8
 73
     4
 74
     0
 42
0.000000001
 43
0.0000000001
 40
2.024000000000001
 40
2.024000000000001
 40
2.024000000000001
 40
2.024000000000001
 40
3.024000000000001
 40
3.024000000000001
 40
3.024000000000001
 40
3.024000000000001
 10
487.9551797209949
 20
-113.2456190425186
 30
0.0
 10
487.9551797209949
 20
-116.671146151681
 30
0.0
 10
489.9201834283107
 20
-119.9096980427329
 30
0.0
 10
493.021149781507
 20
-119.9096980427329
 30
0.0
  0
SPLINE
  5
1AC
330
1F
100
AcDbEntity
  8
FISHER_PAYKEL
 62
   250
420
  1316376
370
     9
100
AcDbSpline
210
0.0
220
0.0
230
1.0
 70
     8
 71
     3
 72
     8
 73
     4
 74
     0
 42
0.000000001
 43
0.0000000001
 40
3.024000000000001
 40
3.024000000000001
 40
3.024000000000001
 40
3.024000000000001
 40
4.024000000000001
 40
4.024000000000001
 40
4.024000000000001
 40
4.024000000000001
 10
493.021149781507
 20
-119.9096980427329
 30
0.0
 10
496.1185883003997
 20
-119.9096980427329
 30
0.0
 10
498.0412579960677
 20
-116.7170079976325
 30
0.0
 10
498.0412579960677
 20
-113.2879530541662
 30
0.0
  0
POLYLINE
  5
1AD
330
1F
100
AcDbEntity
  8
FISHER_PAYKEL
 62
   250
420
  1316376
370
     9
100
AcDb2dPolyline
 66
     1
 10
0.0
 20
0.0
 30
0.0
 70
     1
  0
VERTEX
  5
1AE
330
1AD
100
AcDbEntity
  8
FISHER_PAYKEL
 62
   250
420
  1316376
370
     9
100
AcDbVertex
100
AcDb2dVertex
 10
908.0006517418511
 20
-155.0945534734557
 30
0.0
  0
VERTEX
  5
1AF
330
1AD
100
AcDbEntity
  8
FISHER_PAYKEL
 62
   250
420
  1316376
370
     9
100
AcDbVertex
100
AcDb2dVertex
 10
909.0484185301326
 20
-155.0945534734557
 30
0.0
  0
VERTEX
  5
1B0
330
1AD
100
AcDbEntity
  8
FISHER_PAYKEL
 62
   250
420
  1316376
370
     9
100
AcDbVertex
100
AcDb2dVertex
 10
915.052792515503
 20
-163.8541660502327
 30
0.0
  0
VERTEX
  5
1B1
330
1AD
100
AcDbEntity
  8
FISHER_PAYKEL
 62
   250
420
  1316376
370
     9
100
AcDbVertex
100
AcDb2dVertex
 10
921.0571665008734
 20
-155.0945534734557
 30
0.0
  0
VERTEX
  5
1B2
330
1AD
100
AcDbEntity
  8
FISHER_PAYKEL
 62
   250
420
  1316376
370
     9
100
AcDbVertex
100
AcDb2dVertex
 10
922.1049332891547
 20
-155.0945534734557
 30
0.0
  0
VERTEX
  5
1B3
330
1AD
100
AcDbEntity
  8
FISHER_PAYKEL
 62
   250
420
  1316376
370
     9
100
AcDbVertex
100
AcDb2dVertex
 10
922.1049332891547
 20
-169.9044018815547
 30
0.0
  0
VERTEX
  5
1B4
330
1AD
100
AcDbEntity
  8
FISHER_PAYKEL
 62
   250
420
  1316376
370
     9
100
AcDbVertex
100
AcDb2dVertex
 10
920.9971933177056
 20
-169.9044018815547
 30
0.0
  0
VERTEX
  5
1B5
330
1AD
100
AcDbEntity
  8
FISHER_PAYKEL
 62
   250
420
  1316376
370
     9
100
AcDbVertex
100
AcDb2dVertex
 10
920.9971933177056
 20
-157.0419180092514
 30
0.0
  0
VERTEX
  5
1B6
330
1AD
100
AcDbEntity
  8
FISHER_PAYKEL
 62
   250
420
  1316376
370
     9
100
AcDbVertex
100
AcDb2dVertex
 10
915.0774873556308
 20
-165.5686935219659
 30
0.0
  0
VERTEX
  5
1B7
330
1AD
100
AcDbEntity
  8
FISHER_PAYKEL
 62
   250
420
  1316376
370
     9
100
AcDbVertex
100
AcDb2dVertex
 10
914.9892914980313
 20
-165.5686935219659
 30
0.0
  0
VERTEX
  5
1B8
330
1AD
100
AcDbEntity
  8
FISHER_PAYKEL
 62
   250
420
  1316376
370
     9
100
AcDbVertex
100
AcDb2dVertex
 10
909.0731133702603
 20
-157.0419180092514
 30
0.0
  0
VERTEX
  5
1B9
330
1AD
100
AcDbEntity
  8
FISHER_PAYKEL
 62
   250
420
  1316376
370
     9
100
AcDbVertex
100
AcDb2dVertex
 10
909.0731133702603
 20
-169.9044018815547
 30
0.0
  0
VERTEX
  5
1BA
330
1AD
100
AcDbEntity
  8
FISHER_PAYKEL
 62
   250
420
  1316376
370
     9
100
AcDbVertex
100
AcDb2dVertex
 10
908.0006517418511
 20
-169.9044018815547
 30
0.0
  0
SEQEND
  5
1BB
330
1AD
100
AcDbEntity
  8
FISHER_PAYKEL
 62
   250
420
  1316376
370
     9
  0
POLYLINE
  5
1BC
330
1F
100
AcDbEntity
  8
FISHER_PAYKEL
 62
   250
420
  1316376
370
     9
100
AcDb2dPolyline
 66
     1
 10
0.0
 20
0.0
 30
0.0
 70
     1
  0
VERTEX
  5
1BD
330
1BC
100
AcDbEntity
  8
FISHER_PAYKEL
 62
   250
420
  1316376
370
     9
100
AcDbVertex
100
AcDb2dVertex
 10
926.2974115760018
 20
-154.8860584660907
 30
0.0
  0
VERTEX
  5
1BE
330
1BC
100
AcDbEntity
  8
FISHER_PAYKEL
 62
   250
420
  1316376
370
     9
100
AcDbVertex
100
AcDb2dVertex
 10
927.6027102684737
 20
-154.8860584660907
 30
0.0
  0
VERTEX
  5
1BF
330
1BC
100
AcDbEntity
  8
FISHER_PAYKEL
 62
   250
420
  1316376
370
     9
100
AcDbVertex
100
AcDb2dVertex
 10
927.6027102684737
 20
-156.300720021986
 30
0.0
  0
VERTEX
  5
1C0
330
1BC
100
AcDbEntity
  8
FISHER_PAYKEL
 62
   250
420
  1316376
370
     9
100
AcDbVertex
100
AcDb2dVertex
 10
926.2974115760018
 20
-156.300720021986
 30
0.0
  0
SEQEND
  5
1C1
330
1BC
100
AcDbEntity
  8
FISHER_PAYKEL
 62
   250
420
  1316376
370
     9
  0
POLYLINE
  5
1C2
330
1F
100
AcDbEntity
  8
FISHER_PAYKEL
 62
   250
420
  1316376
370
     9
100
AcDb2dPolyline
 66
     1
 10
0.0
 20
0.0
 30
0.0
 70
     1
  0
VERTEX
  5
1C3
330
1C2
100
AcDbEntity
  8
FISHER_PAYKEL
 62
   250
420
  1316376
370
     9
100
AcDbVertex
100
AcDb2dVertex
 10
926.4279414452491
 20
-159.1159317965599
 30
0.0
  0
VERTEX
  5
1C4
330
1C2
100
AcDbEntity
  8
FISHER_PAYKEL
 62
   250
420
  1316376
370
     9
100
AcDbVertex
100
AcDb2dVertex
 10
927.4757082335306
 20
-159.1159317965599
 30
0.0
  0
VERTEX
  5
1C5
330
1C2
100
AcDbEntity
  8
FISHER_PAYKEL
 62
   250
420
  1316376
370
     9
100
AcDbVertex
100
AcDb2dVertex
 10
927.4757082335306
 20
-169.9075769324285
 30
0.0
  0
VERTEX
  5
1C6
330
1C2
100
AcDbEntity
  8
FISHER_PAYKEL
 62
   250
420
  1316376
370
     9
100
AcDbVertex
100
AcDb2dVertex
 10
926.4279414452491
 20
-169.9075769324285
 30
0.0
  0
SEQEND
  5
1C7
330
1C2
100
AcDbEntity
  8
FISHER_PAYKEL
 62
   250
420
  1316376
370
     9
  0
POLYLINE
  5
1C8
330
1F
100
AcDbEntity
  8
FISHER_PAYKEL
 62
   250
420
  1316376
370
     9
100
AcDb2dPolyline
 66
     1
 10
0.0
 20
0.0
 30
0.0
 70
     1
  0
VERTEX
  5
1C9
330
1C8
100
AcDbEntity
  8
FISHER_PAYKEL
 62
   250
420
  1316376
370
     9
100
AcDbVertex
100
AcDb2dVertex
 10
931.7196929012158
 20
-154.4591905153092
 30
0.0
  0
VERTEX
  5
1CA
330
1C8
100
AcDbEntity
  8
FISHER_PAYKEL
 62
   250
420
  1316376
370
     9
100
AcDbVertex
100
AcDb2dVertex
 10
932.7674596894973
 20
-154.4591905153092
 30
0.0
  0
VERTEX
  5
1CB
330
1C8
100
AcDbEntity
  8
FISHER_PAYKEL
 62
   250
420
  1316376
370
     9
100
AcDbVertex
100
AcDb2dVertex
 10
932.7674596894973
 20
-169.9040490981241
 30
0.0
  0
VERTEX
  5
1CC
330
1C8
100
AcDbEntity
  8
FISHER_PAYKEL
 62
   250
420
  1316376
370
     9
100
AcDbVertex
100
AcDb2dVertex
 10
931.7196929012158
 20
-169.9040490981241
 30
0.0
  0
SEQEND
  5
1CD
330
1C8
100
AcDbEntity
  8
FISHER_PAYKEL
 62
   250
420
  1316376
370
     9
  0
POLYLINE
  5
1CE
330
1F
100
AcDbEntity
  8
FISHER_PAYKEL
 62
   250
420
  1316376
370
     9
100
AcDb2dPolyline
 66
     1
 10
0.0
 20
0.0
 30
0.0
 70
     1
  0
VERTEX
  5
1CF
330
1CE
100
AcDbEntity
  8
FISHER_PAYKEL
 62
   250
420
  1316376
370
     9
100
AcDbVertex
100
AcDb2dVertex
 10
937.0149721914864
 20
-154.4591905153092
 30
0.0
  0
VERTEX
  5
1D0
330
1CE
100
AcDbEntity
  8
FISHER_PAYKEL
 62
   250
420
  1316376
370
     9
100
AcDbVertex
100
AcDb2dVertex
 10
938.0627389797681
 20
-154.4591905153092
 30
0.0
  0
VERTEX
  5
1D1
330
1CE
100
AcDbEntity
  8
FISHER_PAYKEL
 62
   250
420
  1316376
370
     9
100
AcDbVertex
100
AcDb2dVertex
 10
938.0627389797681
 20
-169.9040490981241
 30
0.0
  0
VERTEX
  5
1D2
330
1CE
100
AcDbEntity
  8
FISHER_PAYKEL
 62
   250
420
  1316376
370
     9
100
AcDbVertex
100
AcDb2dVertex
 10
937.0149721914864
 20
-169.9040490981241
 30
0.0
  0
SEQEND
  5
1D3
330
1CE
100
AcDbEntity
  8
FISHER_PAYKEL
 62
   250
420
  1316376
370
     9
  0
POLYLINE
  5
1D4
330
1F
100
AcDbEntity
  8
FISHER_PAYKEL
 62
   250
420
  1316376
370
     9
100
AcDb2dPolyline
 66
     1
 10
0.0
 20
0.0
 30
0.0
 70
     1
  0
VERTEX
  5
1D5
330
1D4
100
AcDbEntity
  8
FISHER_PAYKEL
 62
   250
420
  1316376
370
     9
100
AcDbVertex
100
AcDb2dVertex
 10
942.1832494468141
 20
-154.8860584660907
 30
0.0
  0
VERTEX
  5
1D6
330
1D4
100
AcDbEntity
  8
FISHER_PAYKEL
 62
   250
420
  1316376
370
     9
100
AcDbVertex
100
AcDb2dVertex
 10
943.485020304982
 20
-154.8860584660907
 30
0.0
  0
VERTEX
  5
1D7
330
1D4
100
AcDbEntity
  8
FISHER_PAYKEL
 62
   250
420
  1316376
370
     9
100
AcDbVertex
100
AcDb2dVertex
 10
943.485020304982
 20
-156.300720021986
 30
0.0
  0
VERTEX
  5
1D8
330
1D4
100
AcDbEntity
  8
FISHER_PAYKEL
 62
   250
420
  1316376
370
     9
100
AcDbVertex
100
AcDb2dVertex
 10
942.1832494468141
 20
-156.300720021986
 30
0.0
  0
SEQEND
  5
1D9
330
1D4
100
AcDbEntity
  8
FISHER_PAYKEL
 62
   250
420
  1316376
370
     9
  0
POLYLINE
  5
1DA
330
1F
100
AcDbEntity
  8
FISHER_PAYKEL
 62
   250
420
  1316376
370
     9
100
AcDb2dPolyline
 66
     1
 10
0.0
 20
0.0
 30
0.0
 70
     1
  0
VERTEX
  5
1DB
330
1DA
100
AcDbEntity
  8
FISHER_PAYKEL
 62
   250
420
  1316376
370
     9
100
AcDbVertex
100
AcDb2dVertex
 10
942.3102514817573
 20
-159.1159317965599
 30
0.0
  0
VERTEX
  5
1DC
330
1DA
100
AcDbEntity
  8
FISHER_PAYKEL
 62
   250
420
  1316376
370
     9
100
AcDbVertex
100
AcDb2dVertex
 10
943.3580182700388
 20
-159.1159317965599
 30
0.0
  0
VERTEX
  5
1DD
330
1DA
100
AcDbEntity
  8
FISHER_PAYKEL
 62
   250
420
  1316376
370
     9
100
AcDbVertex
100
AcDb2dVertex
 10
943.3580182700388
 20
-169.9075769324285
 30
0.0
  0
VERTEX
  5
1DE
330
1DA
100
AcDbEntity
  8
FISHER_PAYKEL
 62
   250
420
  1316376
370
     9
100
AcDbVertex
100
AcDb2dVertex
 10
942.3102514817573
 20
-169.9075769324285
 30
0.0
  0
SEQEND
  5
1DF
330
1DA
100
AcDbEntity
  8
FISHER_PAYKEL
 62
   250
420
  1316376
370
     9
  0
LINE
  5
1E0
330
1F
100
AcDbEntity
  8
FISHER_PAYKEL
 62
   250
420
  1316376
370
     9
100
AcDbLine
 10
947.4545394638177
 20
-159.1152262296993
 30
0.0
 11
948.5023062520992
 21
-159.1152262296993
 31
0.0
  0
LINE
  5
1E1
330
1F
100
AcDbEntity
  8
FISHER_PAYKEL
 62
   250
420
  1316376
370
     9
100
AcDbLine
 10
948.5023062520992
 20
-159.1152262296993
 30
0.0
 11
948.5023062520992
 21
-161.0414237596711
 31
0.0
  0
SPLINE
  5
1E2
330
1F
100
AcDbEntity
  8
FISHER_PAYKEL
 62
   250
420
  1316376
370
     9
100
AcDbSpline
210
0.0
220
0.0
230
1.0
 70
     8
 71
     3
 72
     8
 73
     4
 74
     0
 42
0.000000001
 43
0.0000000001
 40
0.8430000000000177
 40
0.8430000000000177
 40
0.8430000000000177
 40
0.8430000000000177
 40
1.843000000000018
 40
1.843000000000018
 40
1.843000000000018
 40
1.843000000000018
 10
948.5023062520992
 20
-161.0414237596711
 30
0.0
 10
949.2078731128948
 20
-159.9231002853099
 30
0.0
 10
950.1886110494003
 20
-158.8612221598129
 30
0.0
 10
952.1359755851962
 20
-158.8612221598129
 30
0.0
  0
SPLINE
  5
1E3
330
1F
100
AcDbEntity
  8
FISHER_PAYKEL
 62
   250
420
  1316376
370
     9
100
AcDbSpline
210
0.0
220
0.0
230
1.0
 70
     8
 71
     3
 72
     8
 73
     4
 74
     0
 42
0.000000001
 43
0.0000000001
 40
1.843000000000018
 40
1.843000000000018
 40
1.843000000000018
 40
1.843000000000018
 40
2.843000000000018
 40
2.843000000000018
 40
2.843000000000018
 40
2.843000000000018
 10
952.1359755851962
 20
-158.8612221598129
 30
0.0
 10
954.0374782750404
 20
-158.8612221598129
 30
0.0
 10
955.212247098265
 20
-159.9407394568299
 30
0.0
 10
955.8119789299411
 20
-161.1895928004384
 30
0.0
  0
SPLINE
  5
1E4
330
1F
100
AcDbEntity
  8
FISHER_PAYKEL
 62
   250
420
  1316376
370
     9
100
AcDbSpline
210
0.0
220
0.0
230
1.0
 70
     8
 71
     3
 72
     8
 73
     4
 74
     0
 42
0.000000001
 43
0.0000000001
 40
2.843000000000018
 40
2.843000000000018
 40
2.843000000000018
 40
2.843000000000018
 40
3.843000000000018
 40
3.843000000000018
 40
3.843000000000018
 40
3.843000000000018
 10
955.8119789299411
 20
-161.1895928004384
 30
0.0
 10
956.5140179564327
 20
-159.9830734684775
 30
0.0
 10
957.6887867796573
 20
-158.8612221598129
 30
0.0
 10
959.7419863445724
 20
-158.8612221598129
 30
0.0
  0
SPLINE
  5
1E5
330
1F
100
AcDbEntity
  8
FISHER_PAYKEL
 62
   250
420
  1316376
370
     9
100
AcDbSpline
210
0.0
220
0.0
230
1.0
 70
     8
 71
     3
 72
     8
 73
     4
 74
     0
 42
0.000000001
 43
0.0000000001
 40
3.843000000000018
 40
3.843000000000018
 40
3.843000000000018
 40
3.843000000000018
 40
4.843000000000018
 40
4.843000000000018
 40
4.843000000000018
 40
4.843000000000018
 10
959.7419863445724
 20
-158.8612221598129
 30
0.0
 10
962.3314167236921
 20
-158.8612221598129
 30
0.0
 10
963.9330534976981
 20
-160.6568898205377
 30
0.0
 10
963.9330534976981
 20
-163.3662665659925
 30
0.0
  0
LINE
  5
1E6
330
1F
100
AcDbEntity
  8
FISHER_PAYKEL
 62
   250
420
  1316376
370
     9
100
AcDbLine
 10
963.9330534976981
 20
-163.3662665659925
 30
0.0
 11
963.9330534976981
 21
-169.9068713655676
 31
0.0
  0
LINE
  5
1E7
330
1F
100
AcDbEntity
  8
FISHER_PAYKEL
 62
   250
420
  1316376
370
     9
100
AcDbLine
 10
963.9330534976981
 20
-169.9068713655676
 30
0.0
 11
962.8852867094168
 21
-169.9068713655676
 31
0.0
  0
LINE
  5
1E8
330
1F
100
AcDbEntity
  8
FISHER_PAYKEL
 62
   250
420
  1316376
370
     9
100
AcDbLine
 10
962.8852867094168
 20
-169.9068713655676
 30
0.0
 11
962.8852867094168
 21
-163.4932686009357
 31
0.0
  0
SPLINE
  5
1E9
330
1F
100
AcDbEntity
  8
FISHER_PAYKEL
 62
   250
420
  1316376
370
     9
100
AcDbSpline
210
0.0
220
0.0
230
1.0
 70
     8
 71
     3
 72
     8
 73
     4
 74
     0
 42
0.000000001
 43
0.0000000001
 40
8.812000000000069
 40
8.812000000000069
 40
8.812000000000069
 40
8.812000000000069
 40
9.812000000000069
 40
9.812000000000069
 40
9.812000000000069
 40
9.812000000000069
 10
962.8852867094168
 20
-163.4932686009357
 30
0.0
 10
962.8852867094168
 20
-161.1684257946143
 30
0.0
 10
961.6646560402404
 20
-159.8137374218867
 30
0.0
 10
959.6573183212771
 20
-159.8137374218867
 30
0.0
  0
SPLINE
  5
1EA
330
1F
100
AcDbEntity
  8
FISHER_PAYKEL
 62
   250
420
  1316376
370
     9
100
AcDbSpline
210
0.0
220
0.0
230
1.0
 70
     8
 71
     3
 72
     8
 73
     4
 74
     0
 42
0.000000001
 43
0.0000000001
 40
9.812000000000069
 40
9.812000000000069
 40
9.812000000000069
 40
9.812000000000069
 40
10.81200000000007
 40
10.81200000000007
 40
10.81200000000007
 40
10.81200000000007
 10
959.6573183212771
 20
-159.8137374218867
 30
0.0
 10
957.8193166489046
 20
-159.8137374218867
 30
0.0
 10
956.2141520405947
 20
-161.210759806262
 30
0.0
 10
956.2141520405947
 20
-163.6202706358789
 30
0.0
  0
LINE
  5
1EB
330
1F
100
AcDbEntity
  8
FISHER_PAYKEL
 62
   250
420
  1316376
370
     9
100
AcDbLine
 10
956.2141520405947
 20
-163.6202706358789
 30
0.0
 11
956.2141520405947
 21
-169.9068713655676
 31
0.0
  0
LINE
  5
1EC
330
1F
100
AcDbEntity
  8
FISHER_PAYKEL
 62
   250
420
  1316376
370
     9
100
AcDbLine
 10
956.2141520405947
 20
-169.9068713655676
 30
0.0
 11
955.1699130866172
 21
-169.9068713655676
 31
0.0
  0
LINE
  5
1ED
330
1F
100
AcDbEntity
  8
FISHER_PAYKEL
 62
   250
420
  1316376
370
     9
100
AcDbLine
 10
955.1699130866172
 20
-169.9068713655676
 30
0.0
 11
955.1699130866172
 21
-163.4332954177681
 31
0.0
  0
SPLINE
  5
1EE
330
1F
100
AcDbEntity
  8
FISHER_PAYKEL
 62
   250
420
  1316376
370
     9
100
AcDbSpline
210
0.0
220
0.0
230
1.0
 70
     8
 71
     3
 72
     8
 73
     4
 74
     0
 42
0.000000001
 43
0.0000000001
 40
14.72500000000014
 40
14.72500000000014
 40
14.72500000000014
 40
14.72500000000014
 40
15.72500000000014
 40
15.72500000000014
 40
15.72500000000014
 40
15.72500000000014
 10
955.1699130866172
 20
-163.4332954177681
 30
0.0
 10
955.1699130866172
 20
-161.1895928004384
 30
0.0
 10
953.931643245921
 20
-159.8137374218867
 30
0.0
 10
951.9842787101251
 20
-159.8137374218867
 30
0.0
  0
SPLINE
  5
1EF
330
1F
100
AcDbEntity
  8
FISHER_PAYKEL
 62
   250
420
  1316376
370
     9
100
AcDbSpline
210
0.0
220
0.0
230
1.0
 70
     8
 71
     3
 72
     8
 73
     4
 74
     0
 42
0.000000001
 43
0.0000000001
 40
15.72500000000014
 40
15.72500000000014
 40
15.72500000000014
 40
15.72500000000014
 40
16.72500000000014
 40
16.72500000000014
 40
16.72500000000014
 40
16.72500000000014
 10
951.9842787101251
 20
-159.8137374218867
 30
0.0
 10
950.0404420086335
 20
-159.8137374218867
 30
0.0
 10
948.5023062520992
 20
-161.5070978877962
 30
0.0
 10
948.5023062520992
 20
-163.6837716533506
 30
0.0
  0
LINE
  5
1F0
330
1F
100
AcDbEntity
  8
FISHER_PAYKEL
 62
   250
420
  1316376
370
     9
100
AcDbLine
 10
948.5023062520992
 20
-163.6837716533506
 30
0.0
 11
948.5023062520992
 21
-169.9068713655676
 31
0.0
  0
LINE
  5
1F1
330
1F
100
AcDbEntity
  8
FISHER_PAYKEL
 62
   250
420
  1316376
370
     9
100
AcDbLine
 10
948.5023062520992
 20
-169.9068713655676
 30
0.0
 11
947.4545394638177
 21
-169.9068713655676
 31
0.0
  0
LINE
  5
1F2
330
1F
100
AcDbEntity
  8
FISHER_PAYKEL
 62
   250
420
  1316376
370
     9
100
AcDbLine
 10
947.4545394638177
 20
-169.9068713655676
 30
0.0
 11
947.4545394638177
 21
-159.1152262296993
 31
0.0
  0
LINE
  5
1F3
330
1F
100
AcDbEntity
  8
FISHER_PAYKEL
 62
   250
420
  1316376
370
     9
100
AcDbLine
 10
966.9902747055254
 20
-164.5297463194444
 30
0.0
 11
966.9902747055254
 21
-164.4909401421006
 31
0.0
  0
SPLINE
  5
1F4
330
1F
100
AcDbEntity
  8
FISHER_PAYKEL
 62
   250
420
  1316376
370
     9
100
AcDbSpline
210
0.0
220
0.0
230
1.0
 70
     8
 71
     3
 72
     8
 73
     4
 74
     0
 42
0.000000001
 43
0.0000000001
 40
2.010999999999967
 40
2.010999999999967
 40
2.010999999999967
 40
2.010999999999967
 40
3.010999999999967
 40
3.010999999999967
 40
3.010999999999967
 40
3.010999999999967
 10
966.9902747055254
 20
-164.4909401421006
 30
0.0
 10
966.9902747055254
 20
-161.3582232801681
 30
0.0
 10
969.2128103170313
 20
-158.8605165929522
 30
0.0
 10
972.162079795157
 20
-158.8605165929522
 30
0.0
  0
SPLINE
  5
1F5
330
1F
100
AcDbEntity
  8
FISHER_PAYKEL
 62
   250
420
  1316376
370
     9
100
AcDbSpline
210
0.0
220
0.0
230
1.0
 70
     8
 71
     3
 72
     8
 73
     4
 74
     0
 42
0.000000001
 43
0.0000000001
 40
3.010999999999967
 40
3.010999999999967
 40
3.010999999999967
 40
3.010999999999967
 40
4.010999999999967
 40
4.010999999999967
 40
4.010999999999967
 40
4.010999999999967
 10
972.162079795157
 20
-158.8605165929522
 30
0.0
 10
975.2207121367059
 20
-158.8605165929522
 30
0.0
 10
977.1610210038936
 20
-161.3158892685204
 30
0.0
 10
977.1610210038936
 20
-164.5121071479244
 30
0.0
  0
SPLINE
  5
1F6
330
1F
100
AcDbEntity
  8
FISHER_PAYKEL
 62
   250
420
  1316376
370
     9
100
AcDbSpline
210
0.0
220
0.0
230
1.0
 70
     8
 71
     3
 72
     8
 73
     4
 74
     0
 42
0.000000001
 43
0.0000000001
 40
4.010999999999967
 40
4.010999999999967
 40
4.010999999999967
 40
4.010999999999967
 40
5.010999999999967
 40
5.010999999999967
 40
5.010999999999967
 40
5.010999999999967
 10
977.1610210038936
 20
-164.5121071479244
 30
0.0
 10
977.1610210038936
 20
-164.6990823660352
 30
0.0
 10
977.1610210038936
 20
-164.7661112178108
 30
0.0
 10
977.1398539980695
 20
-164.9354472644017
 30
0.0
  0
LINE
  5
1F7
330
1F
100
AcDbEntity
  8
FISHER_PAYKEL
 62
   250
420
  1316376
370
     9
100
AcDbLine
 10
977.1398539980695
 20
-164.9354472644017
 30
0.0
 11
968.1015425112784
 21
-164.9354472644017
 31
0.0
  0
SPLINE
  5
1F8
330
1F
100
AcDbEntity
  8
FISHER_PAYKEL
 62
   250
420
  1316376
370
     9
100
AcDbSpline
210
0.0
220
0.0
230
1.0
 70
     8
 71
     3
 72
     8
 73
     4
 74
     0
 42
0.000000001
 43
0.0000000001
 40
7.572999999999979
 40
7.572999999999979
 40
7.572999999999979
 40
7.572999999999979
 40
8.572999999999979
 40
8.572999999999979
 40
8.572999999999979
 40
8.572999999999979
 10
968.1015425112784
 20
-164.9354472644017
 30
0.0
 10
968.2955733979971
 20
-167.6166013354251
 30
0.0
 10
970.2358822651851
 20
-169.1864876006952
 30
0.0
 10
972.3772776876993
 20
-169.1864876006952
 30
0.0
  0
SPLINE
  5
1F9
330
1F
100
AcDbEntity
  8
FISHER_PAYKEL
 62
   250
420
  1316376
370
     9
100
AcDbSpline
210
0.0
220
0.0
230
1.0
 70
     8
 71
     3
 72
     8
 73
     4
 74
     0
 42
0.000000001
 43
0.0000000001
 40
8.572999999999979
 40
8.572999999999979
 40
8.572999999999979
 40
8.572999999999979
 40
9.572999999999979
 40
9.572999999999979
 40
9.572999999999979
 40
9.572999999999979
 10
972.3772776876993
 20
-169.1864876006952
 30
0.0
 10
974.0635824850009
 20
-169.1864876006952
 30
0.0
 10
975.2207121367059
 20
-168.4456423968599
 30
0.0
 10
976.1132542156121
 20
-167.4931271347858
 30
0.0
  0
LINE
  5
1FA
330
1F
100
AcDbEntity
  8
FISHER_PAYKEL
 62
   250
420
  1316376
370
     9
100
AcDbLine
 10
976.1132542156121
 20
-167.4931271347858
 30
0.0
 11
976.8399880822316
 21
-168.128137309502
 31
0.0
  0
SPLINE
  5
1FB
330
1F
100
AcDbEntity
  8
FISHER_PAYKEL
 62
   250
420
  1316376
370
     9
100
AcDbSpline
210
0.0
220
0.0
230
1.0
 70
     8
 71
     3
 72
     8
 73
     4
 74
     0
 42
0.000000001
 43
0.0000000001
 40
9.84656169322476
 40
9.84656169322476
 40
9.84656169322476
 40
9.84656169322476
 40
10.84656169322476
 40
10.84656169322476
 40
10.84656169322476
 40
10.84656169322476
 10
976.8399880822316
 20
-168.128137309502
 30
0.0
 10
975.7322481107825
 20
-169.3134896356383
 30
0.0
 10
974.4269494183108
 20
-170.160169868593
 30
0.0
 10
972.3314158417478
 20
-170.160169868593
 30
0.0
  0
SPLINE
  5
1FC
330
1F
100
AcDbEntity
  8
FISHER_PAYKEL
 62
   250
420
  1316376
370
     9
100
AcDbSpline
210
0.0
220
0.0
230
1.0
 70
     8
 71
     3
 72
     8
 73
     4
 74
     0
 42
0.000000001
 43
0.0000000001
 40
10.84656169322476
 40
10.84656169322476
 40
10.84656169322476
 40
10.84656169322476
 40
11.84656169322476
 40
11.84656169322476
 40
11.84656169322476
 40
11.84656169322476
 10
972.3314158417478
 20
-170.160169868593
 30
0.0
 10
969.470342221222
 20
-170.160169868593
 30
0.0
 10
966.9902747055254
 20
-167.8953002454392
 30
0.0
 10
966.9902747055254
 20
-164.5297463194444
 30
0.0
  0
SPLINE
  5
1FD
330
1F
100
AcDbEntity
  8
FISHER_PAYKEL
 62
   250
420
  1316376
370
     9
100
AcDbSpline
210
0.0
220
0.0
230
1.0
 70
     8
 71
     3
 72
     8
 73
     4
 74
     0
 42
0.000000001
 43
0.0000000001
 40
0.0
 40
0.0
 40
0.0
 40
0.0
 40
1.0
 40
1.0
 40
1.0
 40
1.0
 10
976.0285861923165
 20
-164.0005711738476
 30
0.0
 10
975.8804171515498
 20
-161.8238974082932
 30
0.0
 10
974.6209803050295
 20
-159.813031855026
 30
0.0
 10
972.1197457835091
 20
-159.813031855026
 30
0.0
  0
SPLINE
  5
1FE
330
1F
100
AcDbEntity
  8
FISHER_PAYKEL
 62
   250
420
  1316376
370
     9
100
AcDbSpline
210
0.0
220
0.0
230
1.0
 70
     8
 71
     3
 72
     8
 73
     4
 74
     0
 42
0.000000001
 43
0.0000000001
 40
1.0
 40
1.0
 40
1.0
 40
1.0
 40
2.0
 40
2.0
 40
2.0
 40
2.0
 10
972.1197457835091
 20
-159.813031855026
 30
0.0
 10
969.9607111894746
 20
-159.813031855026
 30
0.0
 10
968.2955733979971
 20
-161.6086995157508
 30
0.0
 10
968.1015425112784
 20
-164.0005711738476
 30
0.0
  0
LINE
  5
1FF
330
1F
100
AcDbEntity
  8
FISHER_PAYKEL
 62
   250
420
  1316376
370
     9
100
AcDbLine
 10
968.1015425112784
 20
-164.0005711738476
 30
0.0
 11
976.0285861923165
 21
-164.0005711738476
 31
0.0
  0
LINE
  5
200
330
1F
100
AcDbEntity
  8
FISHER_PAYKEL
 62
   250
420
  1316376
370
     9
100
AcDbLine
 10
980.7622342613944
 20
-167.1322296854888
 30
0.0
 11
980.7622342613944
 21
-160.0659775746213
 31
0.0
  0
LINE
  5
201
330
1F
100
AcDbEntity
  8
FISHER_PAYKEL
 62
   250
420
  1316376
370
     9
100
AcDbLine
 10
980.7622342613944
 20
-160.0659775746213
 30
0.0
 11
979.1817644932122
 21
-160.0659775746213
 31
0.0
  0
LINE
  5
202
330
1F
100
AcDbEntity
  8
FISHER_PAYKEL
 62
   250
420
  1316376
370
     9
100
AcDbLine
 10
979.1817644932122
 20
-160.0659775746213
 30
0.0
 11
979.1817644932122
 21
-159.116990146851
 31
0.0
  0
LINE
  5
203
330
1F
100
AcDbEntity
  8
FISHER_PAYKEL
 62
   250
420
  1316376
370
     9
100
AcDbLine
 10
979.1817644932122
 20
-159.116990146851
 30
0.0
 11
980.7622342613944
 21
-159.116990146851
 31
0.0
  0
LINE
  5
204
330
1F
100
AcDbEntity
  8
FISHER_PAYKEL
 62
   250
420
  1316376
370
     9
100
AcDbLine
 10
980.7622342613944
 20
-159.116990146851
 30
0.0
 11
980.7622342613944
 21
-155.6667681975608
 31
0.0
  0
LINE
  5
205
330
1F
100
AcDbEntity
  8
FISHER_PAYKEL
 62
   250
420
  1316376
370
     9
100
AcDbLine
 10
980.7622342613944
 20
-155.6667681975608
 30
0.0
 11
981.8100010496759
 21
-155.6667681975608
 31
0.0
  0
LINE
  5
206
330
1F
100
AcDbEntity
  8
FISHER_PAYKEL
 62
   250
420
  1316376
370
     9
100
AcDbLine
 10
981.8100010496759
 20
-155.6667681975608
 30
0.0
 11
981.8100010496759
 21
-159.116990146851
 31
0.0
  0
LINE
  5
207
330
1F
100
AcDbEntity
  8
FISHER_PAYKEL
 62
   250
420
  1316376
370
     9
100
AcDbLine
 10
981.8100010496759
 20
-159.116990146851
 30
0.0
 11
985.6341734351876
 21
-159.116990146851
 31
0.0
  0
LINE
  5
208
330
1F
100
AcDbEntity
  8
FISHER_PAYKEL
 62
   250
420
  1316376
370
     9
100
AcDbLine
 10
985.6341734351876
 20
-159.116990146851
 30
0.0
 11
985.6341734351876
 21
-160.0659775746213
 31
0.0
  0
LINE
  5
209
330
1F
100
AcDbEntity
  8
FISHER_PAYKEL
 62
   250
420
  1316376
370
     9
100
AcDbLine
 10
985.6341734351876
 20
-160.0659775746213
 30
0.0
 11
981.8100010496759
 21
-160.0659775746213
 31
0.0
  0
LINE
  5
20A
330
1F
100
AcDbEntity
  8
FISHER_PAYKEL
 62
   250
420
  1316376
370
     9
100
AcDbLine
 10
981.8100010496759
 20
-160.0659775746213
 30
0.0
 11
981.8100010496759
 21
-167.0263946563695
 31
0.0
  0
SPLINE
  5
20B
330
1F
100
AcDbEntity
  8
FISHER_PAYKEL
 62
   250
420
  1316376
370
     9
100
AcDbSpline
210
0.0
220
0.0
230
1.0
 70
     8
 71
     3
 72
     8
 73
     4
 74
     0
 42
0.000000001
 43
0.0000000001
 40
9.830999999999904
 40
9.830999999999904
 40
9.830999999999904
 40
9.830999999999904
 40
10.8309999999999
 40
10.8309999999999
 40
10.8309999999999
 40
10.8309999999999
 10
981.8100010496759
 20
-167.0263946563695
 30
0.0
 10
981.8100010496759
 20
-168.5715860815118
 30
0.0
 10
982.7307658030139
 20
-169.1184003986283
 30
0.0
 10
983.9902026495339
 20
-169.1184003986283
 30
0.0
  0
SPLINE
  5
20C
330
1F
100
AcDbEntity
  8
FISHER_PAYKEL
 62
   250
420
  1316376
370
     9
100
AcDbSpline
210
0.0
220
0.0
230
1.0
 70
     8
 71
     3
 72
     8
 73
     4
 74
     0
 42
0.000000001
 43
0.0000000001
 40
10.8309999999999
 40
10.8309999999999
 40
10.8309999999999
 40
10.8309999999999
 40
11.8309999999999
 40
11.8309999999999
 40
11.8309999999999
 40
11.8309999999999
 10
983.9902026495339
 20
-169.1184003986283
 30
0.0
 10
984.5229056294344
 20
-169.1184003986283
 30
0.0
 10
984.9709405860398
 20
-169.0160932038128
 30
0.0
 10
985.5918394235399
 20
-168.7409221281026
 30
0.0
  0
LINE
  5
20D
330
1F
100
AcDbEntity
  8
FISHER_PAYKEL
 62
   250
420
  1316376
370
     9
100
AcDbLine
 10
985.5918394235399
 20
-168.7409221281026
 30
0.0
 11
985.5918394235399
 21
-169.7110765616966
 31
0.0
  0
SPLINE
  5
20E
330
1F
100
AcDbEntity
  8
FISHER_PAYKEL
 62
   250
420
  1316376
370
     9
100
AcDbSpline
210
0.0
220
0.0
230
1.0
 70
     8
 71
     3
 72
     8
 73
     4
 74
     0
 42
0.000000001
 43
0.0000000001
 40
12.10599999999988
 40
12.10599999999988
 40
12.10599999999988
 40
12.10599999999988
 40
13.10599999999988
 40
13.10599999999988
 40
13.10599999999988
 40
13.10599999999988
 10
985.5918394235399
 20
-169.7110765616966
 30
0.0
 10
985.0379694378154
 20
-169.9686084658869
 30
0.0
 10
984.5052664579144
 20
-170.09561050083
 30
0.0
 10
983.8173387686392
 20
-170.09561050083
 30
0.0
  0
SPLINE
  5
20F
330
1F
100
AcDbEntity
  8
FISHER_PAYKEL
 62
   250
420
  1316376
370
     9
100
AcDbSpline
210
0.0
220
0.0
230
1.0
 70
     8
 71
     3
 72
     8
 73
     4
 74
     0
 42
0.000000001
 43
0.0000000001
 40
13.10599999999988
 40
13.10599999999988
 40
13.10599999999988
 40
13.10599999999988
 40
14.10599999999988
 40
14.10599999999988
 40
14.10599999999988
 40
14.10599999999988
 10
983.8173387686392
 20
-170.09561050083
 30
0.0
 10
982.1310339713376
 20
-170.09561050083
 30
0.0
 10
980.7622342613944
 20
-169.1854292504037
 30
0.0
 10
980.7622342613944
 20
-167.1322296854888
 30
0.0
  0
LINE
  5
210
330
1F
100
AcDbEntity
  8
FISHER_PAYKEL
 62
   250
420
  1316376
370
     9
100
AcDbLine
 10
988.7030364962178
 20
-159.1152262296993
 30
0.0
 11
989.7508032844995
 21
-159.1152262296993
 31
0.0
  0
LINE
  5
211
330
1F
100
AcDbEntity
  8
FISHER_PAYKEL
 62
   250
420
  1316376
370
     9
100
AcDbLine
 10
989.7508032844995
 20
-159.1152262296993
 30
0.0
 11
989.7508032844995
 21
-162.1809142398562
 31
0.0
  0
SPLINE
  5
212
330
1F
100
AcDbEntity
  8
FISHER_PAYKEL
 62
   250
420
  1316376
370
     9
100
AcDbSpline
210
0.0
220
0.0
230
1.0
 70
     8
 71
     3
 72
     8
 73
     4
 74
     0
 42
0.000000001
 43
0.0000000001
 40
1.166000000000054
 40
1.166000000000054
 40
1.166000000000054
 40
1.166000000000054
 40
2.166000000000054
 40
2.166000000000054
 40
2.166000000000054
 40
2.166000000000054
 10
989.7508032844995
 20
-162.1809142398562
 30
0.0
 10
990.604539186062
 20
-160.258244544188
 30
0.0
 10
992.4213738526106
 20
-158.8612221598129
 30
0.0
 10
994.580408446645
 20
-158.9458901831082
 30
0.0
  0
LINE
  5
213
330
1F
100
AcDbEntity
  8
FISHER_PAYKEL
 62
   250
420
  1316376
370
     9
100
AcDbLine
 10
994.580408446645
 20
-158.9458901831082
 30
0.0
 11
994.580408446645
 21
-160.0853806632932
 31
0.0
  0
LINE
  5
214
330
1F
100
AcDbEntity
  8
FISHER_PAYKEL
 62
   250
420
  1316376
370
     9
100
AcDbLine
 10
994.580408446645
 20
-160.0853806632932
 30
0.0
 11
994.4745734175257
 21
-160.0853806632932
 31
0.0
  0
SPLINE
  5
215
330
1F
100
AcDbEntity
  8
FISHER_PAYKEL
 62
   250
420
  1316376
370
     9
100
AcDbSpline
210
0.0
220
0.0
230
1.0
 70
     8
 71
     3
 72
     8
 73
     4
 74
     0
 42
0.000000001
 43
0.0000000001
 40
2.519000000000005
 40
2.519000000000005
 40
2.519000000000005
 40
2.519000000000005
 40
3.519000000000005
 40
3.519000000000005
 40
3.519000000000005
 40
3.519000000000005
 10
994.4745734175257
 20
-160.0853806632932
 30
0.0
 10
991.9521718901816
 20
-160.0853806632932
 30
0.0
 10
989.7508032844995
 20
-161.9727720159211
 30
0.0
 10
989.7508032844995
 20
-165.4829671483793
 30
0.0
  0
LINE
  5
216
330
1F
100
AcDbEntity
  8
FISHER_PAYKEL
 62
   250
420
  1316376
370
     9
100
AcDbLine
 10
989.7508032844995
 20
-165.4829671483793
 30
0.0
 11
989.7508032844995
 21
-169.9068713655676
 31
0.0
  0
LINE
  5
217
330
1F
100
AcDbEntity
  8
FISHER_PAYKEL
 62
   250
420
  1316376
370
     9
100
AcDbLine
 10
989.7508032844995
 20
-169.9068713655676
 30
0.0
 11
988.7030364962178
 21
-169.9068713655676
 31
0.0
  0
LINE
  5
218
330
1F
100
AcDbEntity
  8
FISHER_PAYKEL
 62
   250
420
  1316376
370
     9
100
AcDbLine
 10
988.7030364962178
 20
-169.9068713655676
 30
0.0
 11
988.7030364962178
 21
-159.1152262296993
 31
0.0
  0
LINE
  5
219
330
1F
100
AcDbEntity
  8
FISHER_PAYKEL
 62
   250
420
  1316376
370
     9
100
AcDbLine
 10
996.4737971175899
 20
-164.5297463194444
 30
0.0
 11
996.4737971175899
 21
-164.4909401421006
 31
0.0
  0
SPLINE
  5
21A
330
1F
100
AcDbEntity
  8
FISHER_PAYKEL
 62
   250
420
  1316376
370
     9
100
AcDbSpline
210
0.0
220
0.0
230
1.0
 70
     8
 71
     3
 72
     8
 73
     4
 74
     0
 42
0.000000001
 43
0.0000000001
 40
2.010999999999967
 40
2.010999999999967
 40
2.010999999999967
 40
2.010999999999967
 40
3.010999999999967
 40
3.010999999999967
 40
3.010999999999967
 40
3.010999999999967
 10
996.4737971175899
 20
-164.4909401421006
 30
0.0
 10
996.4737971175899
 20
-161.3582232801681
 30
0.0
 10
998.6963327290961
 20
-158.8605165929522
 30
0.0
 10
1001.645602207221
 20
-158.8605165929522
 30
0.0
  0
SPLINE
  5
21B
330
1F
100
AcDbEntity
  8
FISHER_PAYKEL
 62
   250
420
  1316376
370
     9
100
AcDbSpline
210
0.0
220
0.0
230
1.0
 70
     8
 71
     3
 72
     8
 73
     4
 74
     0
 42
0.000000001
 43
0.0000000001
 40
3.010999999999967
 40
3.010999999999967
 40
3.010999999999967
 40
3.010999999999967
 40
4.010999999999967
 40
4.010999999999967
 40
4.010999999999967
 40
4.010999999999967
 10
1001.645602207221
 20
-158.8605165929522
 30
0.0
 10
1004.70423454877
 20
-158.8605165929522
 30
0.0
 10
1006.644543415958
 20
-161.3158892685204
 30
0.0
 10
1006.644543415958
 20
-164.5121071479244
 30
0.0
  0
SPLINE
  5
21C
330
1F
100
AcDbEntity
  8
FISHER_PAYKEL
 62
   250
420
  1316376
370
     9
100
AcDbSpline
210
0.0
220
0.0
230
1.0
 70
     8
 71
     3
 72
     8
 73
     4
 74
     0
 42
0.000000001
 43
0.0000000001
 40
4.010999999999967
 40
4.010999999999967
 40
4.010999999999967
 40
4.010999999999967
 40
5.010999999999967
 40
5.010999999999967
 40
5.010999999999967
 40
5.010999999999967
 10
1006.644543415958
 20
-164.5121071479244
 30
0.0
 10
1006.644543415958
 20
-164.6990823660352
 30
0.0
 10
1006.644543415958
 20
-164.7661112178108
 30
0.0
 10
1006.623376410134
 20
-164.9354472644017
 30
0.0
  0
LINE
  5
21D
330
1F
100
AcDbEntity
  8
FISHER_PAYKEL
 62
   250
420
  1316376
370
     9
100
AcDbLine
 10
1006.623376410134
 20
-164.9354472644017
 30
0.0
 11
997.5850649233431
 21
-164.9354472644017
 31
0.0
  0
SPLINE
  5
21E
330
1F
100
AcDbEntity
  8
FISHER_PAYKEL
 62
   250
420
  1316376
370
     9
100
AcDbSpline
210
0.0
220
0.0
230
1.0
 70
     8
 71
     3
 72
     8
 73
     4
 74
     0
 42
0.000000001
 43
0.0000000001
 40
7.572999999999979
 40
7.572999999999979
 40
7.572999999999979
 40
7.572999999999979
 40
8.572999999999979
 40
8.572999999999979
 40
8.572999999999979
 40
8.572999999999979
 10
997.5850649233431
 20
-164.9354472644017
 30
0.0
 10
997.7790958100617
 20
-167.6166013354251
 30
0.0
 10
999.7194046772498
 20
-169.1864876006952
 30
0.0
 10
1001.860800099764
 20
-169.1864876006952
 30
0.0
  0
SPLINE
  5
21F
330
1F
100
AcDbEntity
  8
FISHER_PAYKEL
 62
   250
420
  1316376
370
     9
100
AcDbSpline
210
0.0
220
0.0
230
1.0
 70
     8
 71
     3
 72
     8
 73
     4
 74
     0
 42
0.000000001
 43
0.0000000001
 40
8.572999999999979
 40
8.572999999999979
 40
8.572999999999979
 40
8.572999999999979
 40
9.572999999999979
 40
9.572999999999979
 40
9.572999999999979
 40
9.572999999999979
 10
1001.860800099764
 20
-169.1864876006952
 30
0.0
 10
1003.547104897065
 20
-169.1864876006952
 30
0.0
 10
1004.70423454877
 20
-168.4456423968599
 30
0.0
 10
1005.596776627677
 20
-167.4931271347858
 30
0.0
  0
LINE
  5
220
330
1F
100
AcDbEntity
  8
FISHER_PAYKEL
 62
   250
420
  1316376
370
     9
100
AcDbLine
 10
1005.596776627677
 20
-167.4931271347858
 30
0.0
 11
1006.323510494296
 21
-168.128137309502
 31
0.0
  0
SPLINE
  5
221
330
1F
100
AcDbEntity
  8
FISHER_PAYKEL
 62
   250
420
  1316376
370
     9
100
AcDbSpline
210
0.0
220
0.0
230
1.0
 70
     8
 71
     3
 72
     8
 73
     4
 74
     0
 42
0.000000001
 43
0.0000000001
 40
9.84656169322476
 40
9.84656169322476
 40
9.84656169322476
 40
9.84656169322476
 40
10.84656169322476
 40
10.84656169322476
 40
10.84656169322476
 40
10.84656169322476
 10
1006.323510494296
 20
-168.128137309502
 30
0.0
 10
1005.215770522847
 20
-169.3134896356383
 30
0.0
 10
1003.910471830375
 20
-170.160169868593
 30
0.0
 10
1001.814938253812
 20
-170.160169868593
 30
0.0
  0
SPLINE
  5
222
330
1F
100
AcDbEntity
  8
FISHER_PAYKEL
 62
   250
420
  1316376
370
     9
100
AcDbSpline
210
0.0
220
0.0
230
1.0
 70
     8
 71
     3
 72
     8
 73
     4
 74
     0
 42
0.000000001
 43
0.0000000001
 40
10.84656169322476
 40
10.84656169322476
 40
10.84656169322476
 40
10.84656169322476
 40
11.84656169322476
 40
11.84656169322476
 40
11.84656169322476
 40
11.84656169322476
 10
1001.814938253812
 20
-170.160169868593
 30
0.0
 10
998.9538646332866
 20
-170.160169868593
 30
0.0
 10
996.4737971175899
 20
-167.8953002454392
 30
0.0
 10
996.4737971175899
 20
-164.5297463194444
 30
0.0
  0
SPLINE
  5
223
330
1F
100
AcDbEntity
  8
FISHER_PAYKEL
 62
   250
420
  1316376
370
     9
100
AcDbSpline
210
0.0
220
0.0
230
1.0
 70
     8
 71
     3
 72
     8
 73
     4
 74
     0
 42
0.000000001
 43
0.0000000001
 40
0.0
 40
0.0
 40
0.0
 40
0.0
 40
1.0
 40
1.0
 40
1.0
 40
1.0
 10
1005.512108604381
 20
-164.0005711738476
 30
0.0
 10
1005.363939563614
 20
-161.8238974082932
 30
0.0
 10
1004.104502717094
 20
-159.813031855026
 30
0.0
 10
1001.603268195574
 20
-159.813031855026
 30
0.0
  0
SPLINE
  5
224
330
1F
100
AcDbEntity
  8
FISHER_PAYKEL
 62
   250
420
  1316376
370
     9
100
AcDbSpline
210
0.0
220
0.0
230
1.0
 70
     8
 71
     3
 72
     8
 73
     4
 74
     0
 42
0.000000001
 43
0.0000000001
 40
1.0
 40
1.0
 40
1.0
 40
1.0
 40
2.0
 40
2.0
 40
2.0
 40
2.0
 10
1001.603268195574
 20
-159.813031855026
 30
0.0
 10
999.4442336015392
 20
-159.813031855026
 30
0.0
 10
997.7790958100617
 20
-161.6086995157508
 30
0.0
 10
997.5850649233431
 20
-164.0005711738476
 30
0.0
  0
LINE
  5
225
330
1F
100
AcDbEntity
  8
FISHER_PAYKEL
 62
   250
420
  1316376
370
     9
100
AcDbLine
 10
997.5850649233431
 20
-164.0005711738476
 30
0.0
 11
1005.512108604381
 21
-164.0005711738476
 31
0.0
  0
LINE
  5
226
330
1F
100
AcDbEntity
  8
FISHER_PAYKEL
 62
   250
420
  1316376
370
     9
100
AcDbLine
 10
1008.729846273039
 20
-168.551477425979
 30
0.0
 11
1009.350745110539
 21
-167.7259641988488
 31
0.0
  0
SPLINE
  5
227
330
1F
100
AcDbEntity
  8
FISHER_PAYKEL
 62
   250
420
  1316376
370
     9
100
AcDbSpline
210
0.0
220
0.0
230
1.0
 70
     8
 71
     3
 72
     8
 73
     4
 74
     0
 42
0.000000001
 43
0.0000000001
 40
0.292800273223734
 40
0.292800273223734
 40
0.292800273223734
 40
0.292800273223734
 40
1.292800273223734
 40
1.292800273223734
 40
1.292800273223734
 40
1.292800273223734
 10
1009.350745110539
 20
-167.7259641988488
 30
0.0
 10
1010.546680939588
 20
-168.6326176149709
 30
0.0
 10
1011.873146637884
 20
-169.1441535890475
 30
0.0
 10
1013.259585519347
 20
-169.1441535890475
 30
0.0
  0
SPLINE
  5
228
330
1F
100
AcDbEntity
  8
FISHER_PAYKEL
 62
   250
420
  1316376
370
     9
100
AcDbSpline
210
0.0
220
0.0
230
1.0
 70
     8
 71
     3
 72
     8
 73
     4
 74
     0
 42
0.000000001
 43
0.0000000001
 40
1.292800273223734
 40
1.292800273223734
 40
1.292800273223734
 40
1.292800273223734
 40
2.292800273223734
 40
2.292800273223734
 40
2.292800273223734
 40
2.292800273223734
 10
1013.259585519347
 20
-169.1441535890475
 30
0.0
 10
1014.734220258409
 20
-169.1441535890475
 30
0.0
 10
1015.887822075811
 20
-168.3362795334366
 30
0.0
 10
1015.887822075811
 20
-167.0909540241324
 30
0.0
  0
LINE
  5
229
330
1F
100
AcDbEntity
  8
FISHER_PAYKEL
 62
   250
420
  1316376
370
     9
100
AcDbLine
 10
1015.887822075811
 20
-167.0909540241324
 30
0.0
 11
1015.887822075811
 21
-167.0486200124848
 31
0.0
  0
SPLINE
  5
22A
330
1F
100
AcDbEntity
  8
FISHER_PAYKEL
 62
   250
420
  1316376
370
     9
100
AcDbSpline
210
0.0
220
0.0
230
1.0
 70
     8
 71
     3
 72
     8
 73
     4
 74
     0
 42
0.000000001
 43
0.0000000001
 40
2.304800273223734
 40
2.304800273223734
 40
2.304800273223734
 40
2.304800273223734
 40
3.304800273223734
 40
3.304800273223734
 40
3.304800273223734
 40
3.304800273223734
 10
1015.887822075811
 20
-167.0486200124848
 30
0.0
 10
1015.887822075811
 20
-165.7785996630527
 30
0.0
 10
1014.522550200171
 20
-165.3129255349276
 30
0.0
 10
1013.002053615156
 20
-164.8895854184501
 30
0.0
  0
SPLINE
  5
22B
330
1F
100
AcDbEntity
  8
FISHER_PAYKEL
 62
   250
420
  1316376
370
     9
100
AcDbSpline
210
0.0
220
0.0
230
1.0
 70
     8
 71
     3
 72
     8
 73
     4
 74
     0
 42
0.000000001
 43
0.0000000001
 40
3.304800273223734
 40
3.304800273223734
 40
3.304800273223734
 40
3.304800273223734
 40
4.304800273223734
 40
4.304800273223734
 40
4.304800273223734
 40
4.304800273223734
 10
1013.002053615156
 20
-164.8895854184501
 30
0.0
 10
1011.227552960256
 20
-164.3815772786774
 30
0.0
 10
1009.26254925294
 20
-163.8559299673847
 30
0.0
 10
1009.26254925294
 20
-161.9297324374128
 30
0.0
  0
LINE
  5
22C
330
1F
100
AcDbEntity
  8
FISHER_PAYKEL
 62
   250
420
  1316376
370
     9
100
AcDbLine
 10
1009.26254925294
 20
-161.9297324374128
 30
0.0
 11
1009.26254925294
 21
-161.8838705914612
 31
0.0
  0
SPLINE
  5
22D
330
1F
100
AcDbEntity
  8
FISHER_PAYKEL
 62
   250
420
  1316376
370
     9
100
AcDbSpline
210
0.0
220
0.0
230
1.0
 70
     8
 71
     3
 72
     8
 73
     4
 74
     0
 42
0.000000001
 43
0.0000000001
 40
4.317800273223711
 40
4.317800273223711
 40
4.317800273223711
 40
4.317800273223711
 40
5.317800273223711
 40
5.317800273223711
 40
5.317800273223711
 40
5.317800273223711
 10
1009.26254925294
 20
-161.8838705914612
 30
0.0
 10
1009.26254925294
 20
-160.1517039482081
 30
0.0
 10
1010.737183992003
 20
-158.9028506045998
 30
0.0
 10
1012.853884574389
 20
-158.9028506045998
 30
0.0
  0
SPLINE
  5
22E
330
1F
100
AcDbEntity
  8
FISHER_PAYKEL
 62
   250
420
  1316376
370
     9
100
AcDbSpline
210
0.0
220
0.0
230
1.0
 70
     8
 71
     3
 72
     8
 73
     4
 74
     0
 42
0.000000001
 43
0.0000000001
 40
5.317800273223711
 40
5.317800273223711
 40
5.317800273223711
 40
5.317800273223711
 40
6.317800273223711
 40
6.317800273223711
 40
6.317800273223711
 40
6.317800273223711
 10
1012.853884574389
 20
-158.9028506045998
 30
0.0
 10
1014.155655432557
 20
-158.9028506045998
 30
0.0
 10
1015.63029017162
 20
-159.3685247327247
 30
0.0
 10
1016.723918805853
 20
-160.0882029307362
 30
0.0
  0
LINE
  5
22F
330
1F
100
AcDbEntity
  8
FISHER_PAYKEL
 62
   250
420
  1316376
370
     9
100
AcDbLine
 10
1016.723918805853
 20
-160.0882029307362
 30
0.0
 11
1016.162993151521
 21
-160.9560501695147
 31
0.0
  0
SPLINE
  5
230
330
1F
100
AcDbEntity
  8
FISHER_PAYKEL
 62
   250
420
  1316376
370
     9
100
AcDbSpline
210
0.0
220
0.0
230
1.0
 70
     8
 71
     3
 72
     8
 73
     4
 74
     0
 42
0.000000001
 43
0.0000000001
 40
6.610711522580898
 40
6.610711522580898
 40
6.610711522580898
 40
6.610711522580898
 40
7.610711522580898
 40
7.610711522580898
 40
7.610711522580898
 40
7.610711522580898
 10
1016.162993151521
 20
-160.9560501695147
 30
0.0
 10
1015.161088209191
 20
-160.2998729889752
 30
0.0
 10
1013.961624545839
 20
-159.8765328724977
 30
0.0
 10
1012.811550562741
 20
-159.8765328724977
 30
0.0
  0
SPLINE
  5
231
330
1F
100
AcDbEntity
  8
FISHER_PAYKEL
 62
   250
420
  1316376
370
     9
100
AcDbSpline
210
0.0
220
0.0
230
1.0
 70
     8
 71
     3
 72
     8
 73
     4
 74
     0
 42
0.000000001
 43
0.0000000001
 40
7.610711522580898
 40
7.610711522580898
 40
7.610711522580898
 40
7.610711522580898
 40
8.610711522580898
 40
8.610711522580898
 40
8.610711522580898
 40
8.610711522580898
 10
1012.811550562741
 20
-159.8765328724977
 30
0.0
 10
1011.312220983551
 20
-159.8765328724977
 30
0.0
 10
1010.331483047045
 20
-160.6808790938045
 30
0.0
 10
1010.331483047045
 20
-161.7603963908217
 30
0.0
  0
LINE
  5
232
330
1F
100
AcDbEntity
  8
FISHER_PAYKEL
 62
   250
420
  1316376
370
     9
100
AcDbLine
 10
1010.331483047045
 20
-161.7603963908217
 30
0.0
 11
1010.331483047045
 21
-161.8027304024694
 31
0.0
  0
SPLINE
  5
233
330
1F
100
AcDbEntity
  8
FISHER_PAYKEL
 62
   250
420
  1316376
370
     9
100
AcDbSpline
210
0.0
220
0.0
230
1.0
 70
     8
 71
     3
 72
     8
 73
     4
 74
     0
 42
0.000000001
 43
0.0000000001
 40
8.622711522580898
 40
8.622711522580898
 40
8.622711522580898
 40
8.622711522580898
 40
9.622711522580898
 40
9.622711522580898
 40
9.622711522580898
 40
9.622711522580898
 10
1010.331483047045
 20
-161.8027304024694
 30
0.0
 10
1010.331483047045
 20
-163.00924973443
 30
0.0
 10
1011.806117786108
 20
-163.4537568567313
 30
0.0
 10
1013.365420548467
 20
-163.8982639790323
 30
0.0
  0
SPLINE
  5
234
330
1F
100
AcDbEntity
  8
FISHER_PAYKEL
 62
   250
420
  1316376
370
     9
100
AcDbSpline
210
0.0
220
0.0
230
1.0
 70
     8
 71
     3
 72
     8
 73
     4
 74
     0
 42
0.000000001
 43
0.0000000001
 40
9.622711522580898
 40
9.622711522580898
 40
9.622711522580898
 40
9.622711522580898
 40
10.6227115225809
 40
10.6227115225809
 40
10.6227115225809
 40
10.6227115225809
 10
1013.365420548467
 20
-163.8982639790323
 30
0.0
 10
1015.118754197544
 20
-164.3815772786774
 30
0.0
 10
1016.956755869916
 20
-165.0165874533935
 30
0.0
 10
1016.956755869916
 20
-166.9216179775414
 30
0.0
  0
LINE
  5
235
330
1F
100
AcDbEntity
  8
FISHER_PAYKEL
 62
   250
420
  1316376
370
     9
100
AcDbLine
 10
1016.956755869916
 20
-166.9216179775414
 30
0.0
 11
1016.956755869916
 21
-166.963951989189
 31
0.0
  0
SPLINE
  5
236
330
1F
100
AcDbEntity
  8
FISHER_PAYKEL
 62
   250
420
  1316376
370
     9
100
AcDbSpline
210
0.0
220
0.0
230
1.0
 70
     8
 71
     3
 72
     8
 73
     4
 74
     0
 42
0.000000001
 43
0.0000000001
 40
10.6347115225809
 40
10.6347115225809
 40
10.6347115225809
 40
10.6347115225809
 40
11.6347115225809
 40
11.6347115225809
 40
11.6347115225809
 40
11.6347115225809
 10
1016.956755869916
 20
-166.963951989189
 30
0.0
 10
1016.956755869916
 20
-168.8901495191611
 30
0.0
 10
1015.288090244134
 20
-170.1143080226412
 30
0.0
 10
1013.196084501876
 20
-170.1143080226412
 30
0.0
  0
SPLINE
  5
237
330
1F
100
AcDbEntity
  8
FISHER_PAYKEL
 62
   250
420
  1316376
370
     9
100
AcDbSpline
210
0.0
220
0.0
230
1.0
 70
     8
 71
     3
 72
     8
 73
     4
 74
     0
 42
0.000000001
 43
0.0000000001
 40
11.6347115225809
 40
11.6347115225809
 40
11.6347115225809
 40
11.6347115225809
 40
12.6347115225809
 40
12.6347115225809
 40
12.6347115225809
 40
12.6347115225809
 10
1013.196084501876
 20
-170.1143080226412
 30
0.0
 10
1011.612087277044
 20
-170.1143080226412
 30
0.0
 10
1009.883448914719
 20
-169.4828259833436
 30
0.0
 10
1008.729846273039
 20
-168.551477425979
 30
0.0
  0
POLYLINE
  5
238
330
1F
100
AcDbEntity
  8
FISHER_PAYKEL
100
AcDb2dPolyline
 66
     1
 10
0.0
 20
0.0
 30
0.0
  0
VERTEX
  5
239
330
238
100
AcDbEntity
  8
FISHER_PAYKEL
100
AcDbVertex
100
AcDb2dVertex
 10
892.9953789522
 20
-170.2536574776485
 30
0.0
  0
VERTEX
  5
23A
330
238
100
AcDbEntity
  8
FISHER_PAYKEL
100
AcDbVertex
100
AcDb2dVertex
 10
892.9953789522
 20
-130.2536574776485
 30
0.0
  0
SEQEND
  5
23B
330
238
100
AcDbEntity
  8
FISHER_PAYKEL
  0
POLYLINE
  5
23C
330
1F
100
AcDbEntity
  8
FISHER_PAYKEL
100
AcDb2dPolyline
 66
     1
 10
0.0
 20
0.0
 30
0.0
  0
VERTEX
  5
23D
330
23C
100
AcDbEntity
  8
FISHER_PAYKEL
100
AcDbVertex
100
AcDb2dVertex
 10
692.9953789522
 20
-170.2536574776485
 30
0.0
  0
VERTEX
  5
23E
330
23C
100
AcDbEntity
  8
FISHER_PAYKEL
100
AcDbVertex
100
AcDb2dVertex
 10
692.9953789522
 20
-130.2536574776485
 30
0.0
  0
SEQEND
  5
23F
330
23C
100
AcDbEntity
  8
FISHER_PAYKEL
  0
POLYLINE
  5
240
330
1F
100
AcDbEntity
  8
FISHER_PAYKEL
100
AcDb2dPolyline
 66
     1
 10
0.0
 20
0.0
 30
0.0
  0
VERTEX
  5
241
330
240
100
AcDbEntity
  8
FISHER_PAYKEL
100
AcDbVertex
100
AcDb2dVertex
 10
592.9953789522
 20
-170.2536574776485
 30
0.0
  0
VERTEX
  5
242
330
240
100
AcDbEntity
  8
FISHER_PAYKEL
100
AcDbVertex
100
AcDb2dVertex
 10
592.9953789522
 20
-130.2536574776485
 30
0.0
  0
SEQEND
  5
243
330
240
100
AcDbEntity
  8
FISHER_PAYKEL
  0
POLYLINE
  5
244
330
1F
100
AcDbEntity
  8
FISHER_PAYKEL
100
AcDb2dPolyline
 66
     1
 10
0.0
 20
0.0
 30
0.0
  0
VERTEX
  5
245
330
244
100
AcDbEntity
  8
FISHER_PAYKEL
100
AcDbVertex
100
AcDb2dVertex
 10
492.9953789522
 20
-170.2536574776485
 30
0.0
  0
VERTEX
  5
246
330
244
100
AcDbEntity
  8
FISHER_PAYKEL
100
AcDbVertex
100
AcDb2dVertex
 10
492.9953789522
 20
-130.2536574776485
 30
0.0
  0
SEQEND
  5
247
330
244
100
AcDbEntity
  8
FISHER_PAYKEL
  0
POLYLINE
  5
248
330
1F
100
AcDbEntity
  8
FISHER_PAYKEL
100
AcDb2dPolyline
 66
     1
 10
0.0
 20
0.0
 30
0.0
 70
     1
  0
VERTEX
  5
249
330
248
100
AcDbEntity
  8
FISHER_PAYKEL
100
AcDbVertex
100
AcDb2dVertex
 10
492.9953789522
 20
-170.2536574776485
 30
0.0
  0
VERTEX
  5
24A
330
248
100
AcDbEntity
  8
FISHER_PAYKEL
100
AcDbVertex
100
AcDb2dVertex
 10
892.9953789522
 20
-170.2536574776485
 30
0.0
  0
VERTEX
  5
24B
330
248
100
AcDbEntity
  8
FISHER_PAYKEL
100
AcDbVertex
100
AcDb2dVertex
 10
892.9953789522
 20
-140.2536574776485
 30
0.0
  0
VERTEX
  5
24C
330
248
100
AcDbEntity
  8
FISHER_PAYKEL
100
AcDbVertex
100
AcDb2dVertex
 10
492.9953789522
 20
-140.2536574776485
 30
0.0
  0
SEQEND
  5
24D
330
248
100
AcDbEntity
  8
FISHER_PAYKEL
  0
POLYLINE
  5
24E
330
1F
100
AcDbEntity
  8
FISHER_PAYKEL
 62
     5
420
      255
100
AcDb2dPolyline
 66
     1
 10
0.0
 20
0.0
 30
0.0
  0
VERTEX
  5
24F
330
24E
100
AcDbEntity
  8
FISHER_PAYKEL
 62
     5
420
      255
100
AcDbVertex
100
AcDb2dVertex
 10
512.9953789522
 20
321.2862865891
 30
0.0
  0
VERTEX
  5
250
330
24E
100
AcDbEntity
  8
FISHER_PAYKEL
 62
     5
420
      255
100
AcDbVertex
100
AcDb2dVertex
 10
492.9953789522
 20
321.2862865891
 30
0.0
  0
SEQEND
  5
251
330
24E
100
AcDbEntity
  8
FISHER_PAYKEL
 62
     5
420
      255
  0
POLYLINE
  5
252
330
1F
100
AcDbEntity
  8
FISHER_PAYKEL
 62
     5
420
      255
100
AcDb2dPolyline
 66
     1
 10
0.0
 20
0.0
 30
0.0
  0
VERTEX
  5
253
330
252
100
AcDbEntity
  8
FISHER_PAYKEL
 62
     5
420
      255
100
AcDbVertex
100
AcDb2dVertex
 10
512.9953789522
 20
321.2862865891
 30
0.0
  0
VERTEX
  5
254
330
252
100
AcDbEntity
  8
FISHER_PAYKEL
 62
     5
420
      255
100
AcDbVertex
100
AcDb2dVertex
 10
1967.9953789522
 20
321.2862865891
 30
0.0
  0
VERTEX
  5
255
330
252
100
AcDbEntity
  8
FISHER_PAYKEL
 62
     5
420
      255
100
AcDbVertex
100
AcDb2dVertex
 10
1987.9953789522
 20
321.2862865891
 30
0.0
  0
SEQEND
  5
256
330
252
100
AcDbEntity
  8
FISHER_PAYKEL
 62
     5
420
      255
  0
LINE
  5
257
330
1F
100
AcDbEntity
  8
FISHER_PAYKEL
  6
Continuous
 62
     1
420
 16711680
100
AcDbLine
 10
1977.9953789522
 20
321.2862865891
 30
0.0
 11
1977.9953789522
 21
971.2862865891
 31
0.0
  0
SPLINE
  5
258
330
1F
100
AcDbEntity
  8
FISHER_PAYKEL
  6
Continuous
 62
    18
420
        0
100
AcDbSpline
210
0.0
220
0.0
230
1.0
 70
     8
 71
     3
 72
    11
 73
     7
 74
     0
 42
0.000000001
 43
0.0000000001
 40
0.0
 40
0.0
 40
0.0
 40
0.0
 40
0.2282924401
 40
0.469860701
 40
0.7290443704999999
 40
1.0
 40
1.0
 40
1.0
 40
1.0
 10
1946.7955016299
 20
260.5362701638
 30
0.0
 10
1946.4414668718
 20
260.5362701638
 30
0.0
 10
1945.7033813343
 20
260.3539160273
 30
0.0
 10
1944.8103757697
 20
259.6096631979
 30
0.0
 10
1944.2293991544
 20
258.5353439882
 30
0.0
 10
1944.0964127983
 20
257.706483205
 30
0.0
 10
1944.0964127983
 20
257.2862865891
 30
0.0
  0
SPLINE
  5
259
330
1F
100
AcDbEntity
  8
FISHER_PAYKEL
  6
Continuous
 62
    18
420
        0
100
AcDbSpline
210
0.0
220
0.0
230
1.0
 70
     8
 71
     3
 72
    11
 73
     7
 74
     0
 42
0.000000001
 43
0.0000000001
 40
0.0
 40
0.0
 40
0.0
 40
0.0
 40
0.2282936619
 40
0.4698614624
 40
0.72904023
 40
1.0
 40
1.0
 40
1.0
 40
1.0
 10
1952.3658538153
 20
260.5362865891
 30
0.0
 10
1952.011817094
 20
260.5362865891
 30
0.0
 10
1951.273731528
 20
260.3539158018
 30
0.0
 10
1950.3807452001
 20
259.6096574541
 30
0.0
 10
1949.7997504412
 20
258.5353520045
 30
0.0
 10
1949.6667649837
 20
257.7064897072
 30
0.0
 10
1949.6667649837
 20
257.2862865891
 30
0.0
  0
SPLINE
  5
25A
330
1F
100
AcDbEntity
  8
FISHER_PAYKEL
  6
Continuous
 62
    18
420
        0
100
AcDbSpline
210
0.0
220
0.0
230
1.0
 70
     8
 71
     3
 72
    11
 73
     7
 74
     0
 42
0.000000001
 43
0.0000000001
 40
0.0
 40
0.0
 40
0.0
 40
0.0
 40
0.2709505753
 40
0.5301375334
 40
0.7717067190000001
 40
1.0
 40
1.0
 40
1.0
 40
1.0
 10
1938.9058573528
 20
257.2862865891
 30
0.0
 10
1938.9058573528
 20
256.0580411264
 30
0.0
 10
1939.2946172797
 20
253.6352317186
 30
0.0
 10
1940.9928093256
 20
250.4948931267
 30
0.0
 10
1943.6031370897
 20
248.3193449201
 30
0.0
 10
1945.7606258553
 20
247.7862865891
 30
0.0
 10
1946.7955016299
 20
247.7862865891
 30
0.0
  0
SPLINE
  5
25B
330
1F
100
AcDbEntity
  8
FISHER_PAYKEL
  6
Continuous
 62
    18
420
        0
100
AcDbSpline
210
0.0
220
0.0
230
1.0
 70
     8
 71
     3
 72
    11
 73
     7
 74
     0
 42
0.000000001
 43
0.0000000001
 40
0.0
 40
0.0
 40
0.0
 40
0.0
 40
0.228293281
 40
0.4698624666
 40
0.7290494247
 40
1.0
 40
1.0
 40
1.0
 40
1.0
 10
1946.7955016299
 20
266.7862865891
 30
0.0
 10
1945.7606258553
 20
266.7862865891
 30
0.0
 10
1943.6031370897
 20
266.2532282581
 30
0.0
 10
1940.9928093256
 20
264.0776800515
 30
0.0
 10
1939.2946172797
 20
260.9373414596
 30
0.0
 10
1938.9058573528
 20
258.5145320518
 30
0.0
 10
1938.9058573528
 20
257.2862865891
 30
0.0
  0
SPLINE
  5
25C
330
1F
100
AcDbEntity
  8
FISHER_PAYKEL
  6
Continuous
 62
    18
420
        0
100
AcDbSpline
210
0.0
220
0.0
230
1.0
 70
     8
 71
     3
 72
    11
 73
     7
 74
     0
 42
0.000000001
 43
0.0000000001
 40
0.0
 40
0.0
 40
0.0
 40
0.0
 40
0.2709505789
 40
0.5301377695
 40
0.7717069121
 40
1.0
 40
1.0
 40
1.0
 40
1.0
 10
1935.5636460416
 20
257.2862865891
 30
0.0
 10
1935.5636460416
 20
256.0580407926
 30
0.0
 10
1935.952414938
 20
253.6352321803
 30
0.0
 10
1937.6505859801
 20
250.4948839489
 30
0.0
 10
1940.2609194672
 20
248.3193259064
 30
0.0
 10
1942.4184151517
 20
247.7863052035
 30
0.0
 10
1943.4532903187
 20
247.7863052035
 30
0.0
  0
SPLINE
  5
25D
330
1F
100
AcDbEntity
  8
FISHER_PAYKEL
  6
Continuous
 62
    18
420
        0
100
AcDbSpline
210
0.0
220
0.0
230
1.0
 70
     8
 71
     3
 72
    11
 73
     7
 74
     0
 42
0.000000001
 43
0.0000000001
 40
0.0
 40
0.0
 40
0.0
 40
0.0
 40
0.2282921756
 40
0.4698618842
 40
0.7290489789
 40
1.0
 40
1.0
 40
1.0
 40
1.0
 10
1943.4532903187
 20
266.7862865891
 30
0.0
 10
1942.4184191885
 20
266.7862865891
 30
0.0
 10
1940.2609440078
 20
266.2532095179
 30
0.0
 10
1937.6505714489
 20
264.0777151514
 30
0.0
 10
1935.9524177409
 20
260.9373398979
 30
0.0
 10
1935.5636460416
 20
258.5145345075
 30
0.0
 10
1935.5636460416
 20
257.2862865891
 30
0.0
  0
SPLINE
  5
25E
330
1F
100
AcDbEntity
  8
FISHER_PAYKEL
  6
Continuous
 62
    18
420
        0
100
AcDbSpline
210
0.0
220
0.0
230
1.0
 70
     8
 71
     3
 72
    11
 73
     7
 74
     0
 42
0.000000001
 43
0.0000000001
 40
0.0
 40
0.0
 40
0.0
 40
0.0
 40
0.2709556295
 40
0.530139299
 40
0.7717075599
 40
1.0
 40
1.0
 40
1.0
 40
1.0
 10
1944.0964127983
 20
257.2862865891
 30
0.0
 10
1944.0964127983
 20
256.8660899732
 30
0.0
 10
1944.2293991544
 20
256.0372291899
 30
0.0
 10
1944.8103757697
 20
254.9629099803
 30
0.0
 10
1945.7033813343
 20
254.2186571509
 30
0.0
 10
1946.4414668718
 20
254.0363030144
 30
0.0
 10
1946.7955016299
 20
254.0363030144
 30
0.0
  0
SPLINE
  5
25F
330
1F
100
AcDbEntity
  8
FISHER_PAYKEL
  6
Continuous
 62
    18
420
        0
100
AcDbSpline
210
0.0
220
0.0
230
1.0
 70
     8
 71
     3
 72
    11
 73
     7
 74
     0
 42
0.000000001
 43
0.0000000001
 40
0.0
 40
0.0
 40
0.0
 40
0.0
 40
0.27095977
 40
0.5301385376
 40
0.7717063381
 40
1.0
 40
1.0
 40
1.0
 40
1.0
 10
1949.6667649837
 20
257.2862865891
 30
0.0
 10
1949.6667649837
 20
256.866083471
 30
0.0
 10
1949.7997504412
 20
256.0372211737
 30
0.0
 10
1950.3807452001
 20
254.962915724
 30
0.0
 10
1951.273731528
 20
254.2186573764
 30
0.0
 10
1952.011817094
 20
254.0362865891
 30
0.0
 10
1952.3658538153
 20
254.0362865891
 30
0.0
  0
SPLINE
  5
260
330
1F
100
AcDbEntity
  8
FISHER_PAYKEL
  6
Continuous
 62
    18
420
        0
100
AcDbSpline
210
0.0
220
0.0
230
1.0
 70
     8
 71
     3
 72
    11
 73
     7
 74
     0
 42
0.000000001
 43
0.0000000001
 40
0.0
 40
0.0
 40
0.0
 40
0.0
 40
0.2704152316
 40
0.527473788
 40
0.76900753
 40
1.0
 40
1.0
 40
1.0
 40
1.0
 10
1954.5133880925
 20
259.257794101
 30
0.0
 10
1954.3312338326
 20
260.2916431249
 30
0.0
 10
1953.6891166532
 20
262.2723225456
 30
0.0
 10
1951.9259358464
 20
264.7445418731
 30
0.0
 10
1949.5457698821
 20
266.3937545512
 30
0.0
 10
1947.6922326527
 20
266.7862865891
 30
0.0
 10
1946.7955016299
 20
266.7862865891
 30
0.0
  0
SPLINE
  5
261
330
1F
100
AcDbEntity
  8
FISHER_PAYKEL
  6
Continuous
 62
    18
420
        0
100
AcDbSpline
210
0.0
220
0.0
230
1.0
 70
     8
 71
     3
 72
    11
 73
     7
 74
     0
 42
0.000000001
 43
0.0000000001
 40
0.0
 40
0.0
 40
0.0
 40
0.0
 40
0.27095977
 40
0.5301385376
 40
0.7717063381
 40
1.0
 40
1.0
 40
1.0
 40
1.0
 10
1955.064942647
 20
257.2862865891
 30
0.0
 10
1955.064942647
 20
257.7064897072
 30
0.0
 10
1954.9319571894
 20
258.5353520045
 30
0.0
 10
1954.3509624305
 20
259.6096574541
 30
0.0
 10
1953.4579761027
 20
260.3539158018
 30
0.0
 10
1952.7198905366
 20
260.5362865891
 30
0.0
 10
1952.3658538153
 20
260.5362865891
 30
0.0
  0
SPLINE
  5
262
330
1F
100
AcDbEntity
  8
FISHER_PAYKEL
  6
Continuous
 62
    18
420
        0
100
AcDbSpline
210
0.0
220
0.0
230
1.0
 70
     8
 71
     3
 72
    11
 73
     7
 74
     0
 42
0.000000001
 43
0.0000000001
 40
0.0
 40
0.0
 40
0.0
 40
0.0
 40
0.23099247
 40
0.4725262120000001
 40
0.7295847684000001
 40
1.0
 40
1.0
 40
1.0
 40
1.0
 10
1946.7955016299
 20
247.7862865891
 30
0.0
 10
1947.6922326527
 20
247.7862865891
 30
0.0
 10
1949.5457698821
 20
248.178818627
 30
0.0
 10
1951.9259358464
 20
249.8280313051
 30
0.0
 10
1953.6891166532
 20
252.3002506326
 30
0.0
 10
1954.3312338326
 20
254.2809300533
 30
0.0
 10
1954.5133880925
 20
255.3147790771
 30
0.0
  0
SPLINE
  5
263
330
1F
100
AcDbEntity
  8
FISHER_PAYKEL
  6
Continuous
 62
    18
420
        0
100
AcDbSpline
210
0.0
220
0.0
230
1.0
 70
     8
 71
     3
 72
    11
 73
     7
 74
     0
 42
0.000000001
 43
0.0000000001
 40
0.0
 40
0.0
 40
0.0
 40
0.0
 40
0.2282936619
 40
0.4698614624
 40
0.72904023
 40
1.0
 40
1.0
 40
1.0
 40
1.0
 10
1952.3658538153
 20
254.0362865891
 30
0.0
 10
1952.7198905366
 20
254.0362865891
 30
0.0
 10
1953.4579761027
 20
254.2186573764
 30
0.0
 10
1954.3509624305
 20
254.962915724
 30
0.0
 10
1954.9319571894
 20
256.0372211737
 30
0.0
 10
1955.064942647
 20
256.866083471
 30
0.0
 10
1955.064942647
 20
257.2862865891
 30
0.0
  0
LINE
  5
264
330
1F
100
AcDbEntity
  8
FISHER_PAYKEL
  6
Continuous
 62
     1
420
 16711680
100
AcDbLine
 10
1977.9953789522
 20
971.2862865891001
 30
0.0
 11
1437.9953789522
 21
971.2862865891001
 31
0.0
  0
LINE
  5
265
330
1F
100
AcDbEntity
  8
FISHER_PAYKEL
  6
Continuous
 62
    18
420
        0
100
AcDbLine
 10
1967.9953789522
 20
321.2862865891
 30
0.0
 11
1967.9953789522
 21
317.2862865891
 31
0.0
  0
LINE
  5
266
330
1F
100
AcDbEntity
  8
FISHER_PAYKEL
  6
Continuous
 62
     9
420
 12632256
100
AcDbLine
 10
1965.9953789522
 20
321.2862865891
 30
0.0
 11
1965.9953789522
 21
317.2862865891
 31
0.0
  0
LINE
  5
267
330
1F
100
AcDbEntity
  8
FISHER_PAYKEL
  6
Continuous
 62
    18
420
        0
100
AcDbLine
 10
1963.9953789522
 20
317.2862865891
 30
0.0
 11
1963.9953789522
 21
315.2862865891
 31
0.0
  0
LINE
  5
268
330
1F
100
AcDbEntity
  8
FISHER_PAYKEL
  6
Continuous
 62
    18
420
        0
100
AcDbLine
 10
1955.4953789522
 20
247.2862865891
 30
0.0
 11
1955.4953789522
 21
315.2862865891
 31
0.0
  0
LINE
  5
269
330
1F
100
AcDbEntity
  8
FISHER_PAYKEL
  6
Continuous
 62
    18
420
        0
100
AcDbLine
 10
1914.4953789522
 20
247.2862865891
 30
0.0
 11
1914.4953789522
 21
266.7862865891
 31
0.0
  0
LINE
  5
26A
330
1F
100
AcDbEntity
  8
FISHER_PAYKEL
  6
Continuous
 62
     1
420
 16711680
100
AcDbLine
 10
1977.9953789522
 20
771.2862865891001
 30
0.0
 11
1437.9953789522
 21
771.2862865891001
 31
0.0
  0
LINE
  5
26B
330
1F
100
AcDbEntity
  8
FISHER_PAYKEL
  6
Continuous
 62
    18
420
        0
100
AcDbLine
 10
1496.9953789522
 20
267.2862865891
 30
0.0
 11
1496.9953789522
 21
247.2862865891
 31
0.0
  0
LINE
  5
26C
330
1F
100
AcDbEntity
  8
FISHER_PAYKEL
  6
Continuous
 62
    18
420
        0
100
AcDbLine
 10
1475.9953789522
 20
247.2862865891
 30
0.0
 11
1475.9953789522
 21
267.2862865891
 31
0.0
  0
LINE
  5
26D
330
1F
100
AcDbEntity
  8
FISHER_PAYKEL
  6
Continuous
 62
    18
420
        0
100
AcDbLine
 10
1451.4953789522
 20
315.2862865891
 30
0.0
 11
1451.4953789522
 21
267.2862865891
 31
0.0
  0
LINE
  5
26E
330
1F
100
AcDbEntity
  8
FISHER_PAYKEL
  6
Continuous
 62
    18
420
        0
100
AcDbLine
 10
1441.9953789522
 20
317.2862865891
 30
0.0
 11
1441.9953789522
 21
315.2862865891
 31
0.0
  0
LINE
  5
26F
330
1F
100
AcDbEntity
  8
FISHER_PAYKEL
  6
Continuous
 62
     9
420
 12632256
100
AcDbLine
 10
1439.9953789522
 20
321.2862865891
 30
0.0
 11
1439.9953789522
 21
317.2862865891
 31
0.0
  0
LINE
  5
270
330
1F
100
AcDbEntity
  8
FISHER_PAYKEL
  6
Continuous
 62
    18
420
        0
100
AcDbLine
 10
1437.9953789522
 20
321.2862865891
 30
0.0
 11
1437.9953789522
 21
317.2862865891
 31
0.0
  0
LINE
  5
271
330
1F
100
AcDbEntity
  8
FISHER_PAYKEL
  6
Continuous
 62
    18
420
        0
100
AcDbLine
 10
1437.9953789522
 20
321.2862865891
 30
0.0
 11
1967.9953789522
 21
321.2862865891
 31
0.0
  0
LINE
  5
272
330
1F
100
AcDbEntity
  8
FISHER_PAYKEL
  6
Continuous
 62
    18
420
        0
100
AcDbLine
 10
1437.9953789522
 20
317.2862865891
 30
0.0
 11
1967.9953789522
 21
317.2862865891
 31
0.0
  0
LINE
  5
273
330
1F
100
AcDbEntity
  8
FISHER_PAYKEL
  6
Continuous
 62
    18
420
        0
100
AcDbLine
 10
1441.9953789522
 20
315.2862865891
 30
0.0
 11
1963.9953789522
 21
315.2862865891
 31
0.0
  0
LINE
  5
274
330
1F
100
AcDbEntity
  8
FISHER_PAYKEL
  6
Continuous
 62
    18
420
        0
100
AcDbLine
 10
1451.4953789522
 20
267.2862865891
 30
0.0
 11
1496.9953789522
 21
267.2862865891
 31
0.0
  0
LINE
  5
275
330
1F
100
AcDbEntity
  8
FISHER_PAYKEL
  6
Continuous
 62
    18
420
        0
100
AcDbLine
 10
1955.4953789522
 20
266.7862865891
 30
0.0
 11
1914.4953789522
 21
266.7862865891
 31
0.0
  0
LINE
  5
276
330
1F
100
AcDbEntity
  8
FISHER_PAYKEL
  6
Continuous
 62
    18
420
        0
100
AcDbLine
 10
1946.7955016299
 20
260.5362865891
 30
0.0
 11
1952.3658538153
 21
260.5362865891
 31
0.0
  0
LINE
  5
277
330
1F
100
AcDbEntity
  8
FISHER_PAYKEL
  6
Continuous
 62
    18
420
        0
100
AcDbLine
 10
1496.9953789522
 20
257.2862865891
 30
0.0
 11
1475.9953789522
 21
257.2862865891
 31
0.0
  0
LINE
  5
278
330
1F
100
AcDbEntity
  8
FISHER_PAYKEL
  6
Continuous
 62
    18
420
        0
100
AcDbLine
 10
1946.7955016299
 20
254.0362865891
 30
0.0
 11
1952.3658538153
 21
254.0362865891
 31
0.0
  0
LINE
  5
279
330
1F
100
AcDbEntity
  8
FISHER_PAYKEL
  6
Continuous
 62
    18
420
        0
100
AcDbLine
 10
1943.4532903187
 20
247.7862865891
 30
0.0
 11
1946.7955016299
 21
247.7862865891
 31
0.0
  0
LINE
  5
27A
330
1F
100
AcDbEntity
  8
FISHER_PAYKEL
  6
Continuous
 62
    18
420
        0
100
AcDbLine
 10
1475.9953789522
 20
247.2862865891
 30
0.0
 11
1955.4953789522
 21
247.2862865891
 31
0.0
  0
LINE
  5
27B
330
1F
100
AcDbEntity
  8
FISHER_PAYKEL
  6
Continuous
 62
     1
420
 16711680
100
AcDbLine
 10
1448.4953789522
 20
235.2862865891
 30
0.0
 11
1957.4953789522
 21
235.2862865891
 31
0.0
  0
LINE
  5
27C
330
1F
100
AcDbEntity
  8
FISHER_PAYKEL
  6
Continuous
 62
     1
420
 16711680
100
AcDbLine
 10
907.4953789522
 20
1463.273102827594
 30
0.0
 11
907.4953789522
 21
923.2731028275945
 31
0.0
  0
SPLINE
  5
27D
330
1F
100
AcDbEntity
  8
FISHER_PAYKEL
  6
Continuous
 62
    18
420
        0
100
AcDbSpline
210
0.0
220
0.0
230
1.0
 70
    12
 71
     2
 72
     8
 73
     5
 74
     0
 42
0.000000001
 43
0.0000000001
 40
2.719759665907218
 40
2.719759665907218
 40
2.719759665907218
 40
3.141592653589793
 40
3.141592653589793
 40
3.563425641292448
 40
3.563425641292448
 40
3.563425641292448
 10
555.2915684762858
 20
1421.601578469714
 30
0.0
 41
0.8849341979829434
 10
550.2048948835973
 20
1421.601578469292
 30
0.0
 41
0.9213443401563433
 10
547.435899097
 20
1418.832582682694
 30
0.0
 41
1.0
 10
544.6669033102596
 20
1416.063586895954
 30
0.0
 41
0.9213443401525991
 10
544.6669033099797
 20
1410.976913302904
 30
0.0
 41
0.8849341979794769
  0
SPLINE
  5
27E
330
1F
100
AcDbEntity
  8
FISHER_PAYKEL
  6
Continuous
 62
    18
420
        0
100
AcDbSpline
210
0.0
220
0.0
230
1.0
 70
    12
 71
     2
 72
     8
 73
     5
 74
     0
 42
0.000000001
 43
0.0000000001
 40
2.719759665907207
 40
2.719759665907207
 40
2.719759665907207
 40
3.141592653589793
 40
3.141592653589793
 40
3.563425641292448
 40
3.563425641292448
 40
3.563425641292448
 10
866.3238545943202
 20
1410.976913303409
 30
0.0
 41
0.8849341979829414
 10
866.3238545938973
 20
1416.063586896097
 30
0.0
 41
0.9213443401563413
 10
863.5548588073
 20
1418.832582682694
 30
0.0
 41
1.0
 10
860.7858630205596
 20
1421.601578469434
 30
0.0
 41
0.9213443401525991
 10
855.69918942751
 20
1421.601578469714
 30
0.0
 41
0.8849341979794769
  0
SPLINE
  5
27F
330
1F
100
AcDbEntity
  8
FISHER_PAYKEL
  6
Continuous
 62
    18
420
        0
100
AcDbSpline
210
0.0
220
0.0
230
1.0
 70
    12
 71
     2
 72
     8
 73
     5
 74
     0
 42
0.000000001
 43
0.0000000001
 40
2.719759665907209
 40
2.719759665907209
 40
2.719759665907209
 40
3.141592653589793
 40
3.141592653589793
 40
3.563425641292429
 40
3.563425641292429
 40
3.563425641292429
 10
855.6991894280136
 20
954.9446271854737
 30
0.0
 41
0.8849341979829417
 10
860.7858630207025
 20
954.9446271858967
 30
0.0
 41
0.9213443401563416
 10
863.5548588073
 20
957.7136229724941
 30
0.0
 41
1.0
 10
866.3238545940402
 20
960.4826187592342
 30
0.0
 41
0.9213443401526028
 10
866.3238545943202
 20
965.5692923522837
 30
0.0
 41
0.8849341979794803
  0
SPLINE
  5
280
330
1F
100
AcDbEntity
  8
FISHER_PAYKEL
  6
Continuous
 62
    18
420
        0
100
AcDbSpline
210
0.0
220
0.0
230
1.0
 70
    12
 71
     2
 72
     8
 73
     5
 74
     0
 42
0.000000001
 43
0.0000000001
 40
2.71975966590721
 40
2.71975966590721
 40
2.71975966590721
 40
3.141592653589793
 40
3.141592653589793
 40
3.563425641292435
 40
3.563425641292435
 40
3.563425641292435
 10
544.6669033099797
 20
965.5692923517807
 30
0.0
 41
0.8849341979829418
 10
544.6669033104026
 20
960.4826187590919
 30
0.0
 41
0.9213443401563417
 10
547.435899097
 20
957.7136229724941
 30
0.0
 41
1.0
 10
550.2048948837402
 20
954.9446271857539
 30
0.0
 41
0.9213443401526016
 10
555.2915684767896
 20
954.9446271854738
 30
0.0
 41
0.8849341979794791
  0
SPLINE
  5
281
330
1F
100
AcDbEntity
  8
FISHER_PAYKEL
  6
Continuous
 62
    18
420
        0
100
AcDbSpline
210
0.0
220
0.0
230
1.0
 70
    12
 71
     2
 72
     8
 73
     5
 74
     0
 42
0.000000001
 43
0.0000000001
 40
2.719759665907219
 40
2.719759665907219
 40
2.719759665907219
 40
3.141592653589793
 40
3.141592653589793
 40
3.563425641292449
 40
3.563425641292449
 40
3.563425641292449
 10
548.6200441179859
 20
1428.273102828114
 30
0.0
 41
0.8849341979829433
 10
543.5333705252974
 20
1428.273102827692
 30
0.0
 41
0.9213443401563434
 10
540.7643747387001
 20
1425.504107041094
 30
0.0
 41
1.0
 10
537.9953789519598
 20
1422.735111254354
 30
0.0
 41
0.9213443401525988
 10
537.99537895168
 20
1417.648437661304
 30
0.0
 41
0.8849341979794765
  0
SPLINE
  5
282
330
1F
100
AcDbEntity
  8
FISHER_PAYKEL
  6
Continuous
 62
    18
420
        0
100
AcDbSpline
210
0.0
220
0.0
230
1.0
 70
    12
 71
     2
 72
     8
 73
     5
 74
     0
 42
0.000000001
 43
0.0000000001
 40
5.861352319486962
 40
5.861352319486962
 40
5.861352319486962
 40
6.283185307179586
 40
6.283185307179586
 40
6.705018294872198
 40
6.705018294872198
 40
6.705018294872198
 10
872.9953789526204
 20
1417.648437661556
 30
0.0
 41
0.8849341979812084
 10
872.995378952269
 20
1422.735111254425
 30
0.0
 41
0.9213443401544695
 10
870.2263831656
 20
1425.504107041094
 30
0.0
 41
1.0
 10
867.4573873789312
 20
1428.273102827763
 30
0.0
 41
0.9213443401544719
 10
862.3707137860621
 20
1428.273102828114
 30
0.0
 41
0.8849341979812106
  0
SPLINE
  5
283
330
1F
100
AcDbEntity
  8
FISHER_PAYKEL
  6
Continuous
 62
    18
420
        0
100
AcDbSpline
210
0.0
220
0.0
230
1.0
 70
    12
 71
     2
 72
     8
 73
     5
 74
     0
 42
0.000000001
 43
0.0000000001
 40
2.719759665887167
 40
2.719759665887167
 40
2.719759665887167
 40
3.141592653589793
 40
3.141592653589793
 40
3.563425641272365
 40
3.563425641272365
 40
3.563425641272365
 10
537.9953789516799
 20
958.8977679939835
 30
0.0
 41
0.8849341979794819
 10
537.9953789519599
 20
953.8110944009344
 30
0.0
 41
0.9213443401526046
 10
540.7643747387001
 20
951.0420986141943
 30
0.0
 41
1.0
 10
543.5333705252973
 20
948.2731028275969
 30
0.0
 41
0.9213443401563438
 10
548.6200441179859
 20
948.2731028271742
 30
0.0
 41
0.8849341979829437
  0
SPLINE
  5
284
330
1F
100
AcDbEntity
  8
FISHER_PAYKEL
  6
Continuous
 62
    18
420
        0
100
AcDbSpline
210
0.0
220
0.0
230
1.0
 70
    12
 71
     2
 72
     8
 73
     5
 74
     0
 42
0.000000001
 43
0.0000000001
 40
5.861352319486981
 40
5.861352319486981
 40
5.861352319486981
 40
6.283185307179586
 40
6.283185307179586
 40
6.705018294872188
 40
6.705018294872188
 40
6.705018294872188
 10
862.3707137860624
 20
948.2731028271741
 30
0.0
 41
0.8849341979812118
 10
867.4573873789313
 20
948.2731028275256
 30
0.0
 41
0.921344340154473
 10
870.2263831656
 20
951.0420986141943
 30
0.0
 41
1.0
 10
872.9953789522688
 20
953.8110944008632
 30
0.0
 41
0.9213443401544738
 10
872.9953789526203
 20
958.897767993732
 30
0.0
 41
0.8849341979812124
  0
ARC
  5
285
330
1F
100
AcDbEntity
  8
FISHER_PAYKEL
  6
Continuous
 62
    18
420
        0
100
AcDbCircle
 10
514.9953789522
 20
925.2731028275942
 30
0.0
 40
2.0
100
AcDbArc
 50
180.0
 51
270.0
  0
ARC
  5
286
330
1F
100
AcDbEntity
  8
FISHER_PAYKEL
  6
Continuous
 62
    18
420
        0
100
AcDbCircle
 10
895.9953789522
 20
925.2731028275942
 30
0.0
 40
2.0
100
AcDbArc
 50
270.0
 51
0.0
  0
ARC
  5
287
330
1F
100
AcDbEntity
  8
FISHER_PAYKEL
  6
Continuous
 62
    18
420
        0
100
AcDbCircle
 10
895.9953789522
 20
1451.273102827594
 30
0.0
 40
2.0
100
AcDbArc
 50
0.0
 51
90.0
  0
ARC
  5
288
330
1F
100
AcDbEntity
  8
FISHER_PAYKEL
  6
Continuous
 62
    18
420
        0
100
AcDbCircle
 10
514.9953789522
 20
1451.273102827594
 30
0.0
 40
2.0
100
AcDbArc
 50
90.0
 51
180.0
  0
ARC
  5
289
330
1F
100
AcDbEntity
  8
FISHER_PAYKEL
  6
Continuous
 62
     3
420
    65280
100
AcDbCircle
 10
895.9953789522
 20
1451.273102827594
 30
0.0
 40
4.0
100
AcDbArc
 50
0.0
 51
90.0
  0
ARC
  5
28A
330
1F
100
AcDbEntity
  8
FISHER_PAYKEL
  6
Continuous
 62
     3
420
    65280
100
AcDbCircle
 10
895.9953789522
 20
925.2731028275942
 30
0.0
 40
4.0
100
AcDbArc
 50
270.0
 51
0.0
  0
ARC
  5
28B
330
1F
100
AcDbEntity
  8
FISHER_PAYKEL
  6
Continuous
 62
     3
420
    65280
100
AcDbCircle
 10
514.9953789522
 20
925.2731028275942
 30
0.0
 40
4.0
100
AcDbArc
 50
180.0
 51
270.0
  0
ARC
  5
28C
330
1F
100
AcDbEntity
  8
FISHER_PAYKEL
  6
Continuous
 62
     3
420
    65280
100
AcDbCircle
 10
514.9953789522
 20
1451.273102827594
 30
0.0
 40
4.0
100
AcDbArc
 50
90.0
 51
180.0
  0
LINE
  5
28D
330
1F
100
AcDbEntity
  8
FISHER_PAYKEL
  6
Continuous
 62
     1
420
 16711680
100
AcDbLine
 10
503.4953789522
 20
1463.273102827594
 30
0.0
 11
907.4953789522
 21
1463.273102827594
 31
0.0
  0
LINE
  5
28E
330
1F
100
AcDbEntity
  8
FISHER_PAYKEL
  6
Continuous
 62
     3
420
    65280
100
AcDbLine
 10
514.9953789522
 20
1455.273102827594
 30
0.0
 11
895.9953789522
 21
1455.273102827594
 31
0.0
  0
LINE
  5
28F
330
1F
100
AcDbEntity
  8
FISHER_PAYKEL
  6
Continuous
 62
    18
420
        0
100
AcDbLine
 10
895.9953789522
 20
1453.273102827594
 30
0.0
 11
514.9953789522
 21
1453.273102827594
 31
0.0
  0
LINE
  5
290
330
1F
100
AcDbEntity
  8
FISHER_PAYKEL
  6
Continuous
 62
     3
420
    65280
100
AcDbLine
 10
878.4953789522
 20
1442.773102827594
 30
0.0
 11
532.4953789522
 21
1442.773102827594
 31
0.0
  0
LINE
  5
291
330
1F
100
AcDbEntity
  8
FISHER_PAYKEL
  6
Continuous
 62
    18
420
        0
100
AcDbLine
 10
862.3707137862
 20
1428.273102827594
 30
0.0
 11
548.6200441180999
 21
1428.273102827594
 31
0.0
  0
LINE
  5
292
330
1F
100
AcDbEntity
  8
FISHER_PAYKEL
  6
Continuous
 62
    18
420
        0
100
AcDbLine
 10
855.6991894278999
 20
1421.601578469295
 30
0.0
 11
555.2915684764
 21
1421.601578469295
 31
0.0
  0
LINE
  5
293
330
1F
100
AcDbEntity
  8
FISHER_PAYKEL
  6
Continuous
 62
     3
420
    65280
100
AcDbLine
 10
899.9953789522
 20
1451.273102827594
 30
0.0
 11
899.9953789522
 21
925.2731028275942
 31
0.0
  0
LINE
  5
294
330
1F
100
AcDbEntity
  8
FISHER_PAYKEL
  6
Continuous
 62
    18
420
        0
100
AcDbLine
 10
897.9953789522
 20
925.2731028275942
 30
0.0
 11
897.9953789522
 21
1451.273102827594
 31
0.0
  0
LINE
  5
295
330
1F
100
AcDbEntity
  8
FISHER_PAYKEL
  6
Continuous
 62
     3
420
    65280
100
AcDbLine
 10
878.4953789522
 20
933.7731028275942
 30
0.0
 11
878.4953789522
 21
1442.773102827594
 31
0.0
  0
LINE
  5
296
330
1F
100
AcDbEntity
  8
FISHER_PAYKEL
  6
Continuous
 62
    18
420
        0
100
AcDbLine
 10
872.9953789522
 20
958.8977679935944
 30
0.0
 11
872.9953789522
 21
1417.648437661694
 31
0.0
  0
LINE
  5
297
330
1F
100
AcDbEntity
  8
FISHER_PAYKEL
  6
Continuous
 62
    18
420
        0
100
AcDbLine
 10
866.3238545938001
 20
965.5692923518942
 30
0.0
 11
866.3238545938001
 21
1410.976913303394
 31
0.0
  0
LINE
  5
298
330
1F
100
AcDbEntity
  8
FISHER_PAYKEL
  6
Continuous
 62
    18
420
        0
100
AcDbLine
 10
544.6669033105001
 20
1410.976913303394
 30
0.0
 11
544.6669033105001
 21
965.5692923518942
 31
0.0
  0
LINE
  5
299
330
1F
100
AcDbEntity
  8
FISHER_PAYKEL
  6
Continuous
 62
    18
420
        0
100
AcDbLine
 10
537.9953789522
 20
1417.648437661694
 30
0.0
 11
537.9953789522
 21
958.8977679935944
 31
0.0
  0
LINE
  5
29A
330
1F
100
AcDbEntity
  8
FISHER_PAYKEL
  6
Continuous
 62
     3
420
    65280
100
AcDbLine
 10
532.4953789522
 20
1442.773102827594
 30
0.0
 11
532.4953789522
 21
933.7731028275942
 31
0.0
  0
LINE
  5
29B
330
1F
100
AcDbEntity
  8
FISHER_PAYKEL
  6
Continuous
 62
    18
420
        0
100
AcDbLine
 10
512.9953789522
 20
1451.273102827594
 30
0.0
 11
512.9953789522
 21
925.2731028275942
 31
0.0
  0
LINE
  5
29C
330
1F
100
AcDbEntity
  8
FISHER_PAYKEL
  6
Continuous
 62
     3
420
    65280
100
AcDbLine
 10
510.9953789522
 20
925.2731028275942
 30
0.0
 11
510.9953789522
 21
1451.273102827594
 31
0.0
  0
LINE
  5
29D
330
1F
100
AcDbEntity
  8
FISHER_PAYKEL
  6
Continuous
 62
     1
420
 16711680
100
AcDbLine
 10
503.4953789522
 20
923.2731028275942
 30
0.0
 11
503.4953789522
 21
1463.273102827594
 31
0.0
  0
LINE
  5
29E
330
1F
100
AcDbEntity
  8
FISHER_PAYKEL
  6
Continuous
 62
    18
420
        0
100
AcDbLine
 10
555.2915684764
 20
954.9446271858943
 30
0.0
 11
855.6991894278999
 21
954.9446271858943
 31
0.0
  0
LINE
  5
29F
330
1F
100
AcDbEntity
  8
FISHER_PAYKEL
  6
Continuous
 62
    18
420
        0
100
AcDbLine
 10
548.6200441180999
 20
948.2731028275942
 30
0.0
 11
862.3707137862
 21
948.2731028275942
 31
0.0
  0
LINE
  5
2A0
330
1F
100
AcDbEntity
  8
FISHER_PAYKEL
  6
Continuous
 62
     3
420
    65280
100
AcDbLine
 10
532.4953789522
 20
933.7731028275942
 30
0.0
 11
878.4953789522
 21
933.7731028275942
 31
0.0
  0
LINE
  5
2A1
330
1F
100
AcDbEntity
  8
FISHER_PAYKEL
  6
Continuous
 62
    18
420
        0
100
AcDbLine
 10
514.9953789522
 20
923.2731028275942
 30
0.0
 11
895.9953789522
 21
923.2731028275942
 31
0.0
  0
LINE
  5
2A2
330
1F
100
AcDbEntity
  8
FISHER_PAYKEL
  6
Continuous
 62
     3
420
    65280
100
AcDbLine
 10
895.9953789522
 20
921.2731028275942
 30
0.0
 11
514.9953789522
 21
921.2731028275942
 31
0.0
  0
LINE
  5
2A3
330
1F
100
AcDbEntity
  8
FISHER_PAYKEL
  6
Continuous
 62
    18
420
        0
100
AcDbLine
 10
897.9953789522
 20
321.2862865891
 30
0.0
 11
897.9953789522
 21
317.2862865891
 31
0.0
  0
LINE
  5
2A4
330
1F
100
AcDbEntity
  8
FISHER_PAYKEL
  6
Continuous
 62
    18
420
        0
100
AcDbLine
 10
890.9953789522
 20
317.2862865891
 30
0.0
 11
890.9953789522
 21
315.2862865891
 31
0.0
  0
LINE
  5
2A5
330
1F
100
AcDbEntity
  8
FISHER_PAYKEL
  6
Continuous
 62
    18
420
        0
100
AcDbLine
 10
873.4953789522
 20
315.2862865891
 30
0.0
 11
873.4953789522
 21
247.2862865891
 31
0.0
  0
LINE
  5
2A6
330
1F
100
AcDbEntity
  8
FISHER_PAYKEL
  6
Continuous
 62
    18
420
        0
100
AcDbLine
 10
859.9953789522
 20
257.2862865891
 30
0.0
 11
859.9953789522
 21
267.2862865891
 31
0.0
  0
LINE
  5
2A7
330
1F
100
AcDbEntity
  8
FISHER_PAYKEL
  6
Continuous
 62
    18
420
        0
100
AcDbLine
 10
840.9953789522
 20
267.2862865891
 30
0.0
 11
840.9953789522
 21
257.2862865891
 31
0.0
  0
LINE
  5
2A8
330
1F
100
AcDbEntity
  8
FISHER_PAYKEL
  6
Continuous
 62
    18
420
        0
100
AcDbLine
 10
833.4953789522
 20
247.2862865891
 30
0.0
 11
833.4953789522
 21
267.2862865891
 31
0.0
  0
LINE
  5
2A9
330
1F
100
AcDbEntity
  8
FISHER_PAYKEL
  6
Continuous
 62
    18
420
        0
100
AcDbLine
 10
577.4953789522
 20
247.2862865891
 30
0.0
 11
577.4953789522
 21
267.2862865891
 31
0.0
  0
LINE
  5
2AA
330
1F
100
AcDbEntity
  8
FISHER_PAYKEL
  6
Continuous
 62
    18
420
        0
100
AcDbLine
 10
567.4953789522
 20
257.2862865891
 30
0.0
 11
567.4953789522
 21
267.2862865891
 31
0.0
  0
LINE
  5
2AB
330
1F
100
AcDbEntity
  8
FISHER_PAYKEL
  6
Continuous
 62
    18
420
        0
100
AcDbLine
 10
553.4953789522
 20
267.2862865891
 30
0.0
 11
553.4953789522
 21
257.2862865891
 31
0.0
  0
LINE
  5
2AC
330
1F
100
AcDbEntity
  8
FISHER_PAYKEL
  6
Continuous
 62
    18
420
        0
100
AcDbLine
 10
537.4953789522
 20
315.2862865891
 30
0.0
 11
537.4953789522
 21
247.2862865891
 31
0.0
  0
LINE
  5
2AD
330
1F
100
AcDbEntity
  8
FISHER_PAYKEL
  6
Continuous
 62
    18
420
        0
100
AcDbLine
 10
519.9953789522
 20
317.2862865891
 30
0.0
 11
519.9953789522
 21
315.2862865891
 31
0.0
  0
LINE
  5
2AE
330
1F
100
AcDbEntity
  8
FISHER_PAYKEL
  6
Continuous
 62
    18
420
        0
100
AcDbLine
 10
512.9953789522
 20
321.2862865891
 30
0.0
 11
512.9953789522
 21
317.2862865891
 31
0.0
  0
LINE
  5
2AF
330
1F
100
AcDbEntity
  8
FISHER_PAYKEL
  6
Continuous
 62
    18
420
        0
100
AcDbLine
 10
512.9953789522
 20
321.2862865891
 30
0.0
 11
897.9953789522
 21
321.2862865891
 31
0.0
  0
LINE
  5
2B0
330
1F
100
AcDbEntity
  8
FISHER_PAYKEL
  6
Continuous
 62
    18
420
        0
100
AcDbLine
 10
512.9953789522
 20
317.2862865891
 30
0.0
 11
897.9953789522
 21
317.2862865891
 31
0.0
  0
LINE
  5
2B1
330
1F
100
AcDbEntity
  8
FISHER_PAYKEL
  6
Continuous
 62
    18
420
        0
100
AcDbLine
 10
519.9953789522
 20
315.2862865891
 30
0.0
 11
890.9953789522
 21
315.2862865891
 31
0.0
  0
LINE
  5
2B2
330
1F
100
AcDbEntity
  8
FISHER_PAYKEL
  6
Continuous
 62
    18
420
        0
100
AcDbLine
 10
537.4953789522
 20
267.2862865891
 30
0.0
 11
873.4953789522
 21
267.2862865891
 31
0.0
  0
LINE
  5
2B3
330
1F
100
AcDbEntity
  8
FISHER_PAYKEL
  6
Continuous
 62
    18
420
        0
100
AcDbLine
 10
840.9953789522
 20
257.2862865891
 30
0.0
 11
859.9953789522
 21
257.2862865891
 31
0.0
  0
LINE
  5
2B4
330
1F
100
AcDbEntity
  8
FISHER_PAYKEL
  6
Continuous
 62
    18
420
        0
100
AcDbLine
 10
553.4953789522
 20
257.2862865891
 30
0.0
 11
567.4953789522
 21
257.2862865891
 31
0.0
  0
LINE
  5
2B5
330
1F
100
AcDbEntity
  8
FISHER_PAYKEL
  6
Continuous
 62
    18
420
        0
100
AcDbLine
 10
537.4953789522
 20
247.2862865891
 30
0.0
 11
873.4953789522
 21
247.2862865891
 31
0.0
  0
LINE
  5
2B6
330
1F
100
AcDbEntity
  8
FISHER_PAYKEL
  6
Continuous
 62
     1
420
 16711680
100
AcDbLine
 10
878.4953789522
 20
235.2862865891
 30
0.0
 11
532.4953789522
 21
235.2862865891
 31
0.0
  0
ENDSEC
  0
SECTION
  2
OBJECTS
  0
DICTIONARY
  5
C
330
0
100
AcDbDictionary
281
     1
  3
ACAD_DETAILVIEWSTYLE
350
2FA
  3
ACAD_GROUP
350
D
  3
ACAD_LAYOUT
350
1A
  3
ACAD_MATERIAL
350
43
  3
ACAD_MLEADERSTYLE
350
6B
  3
ACAD_MLINESTYLE
350
17
  3
ACAD_PLOTSETTINGS
350
19
  3
ACAD_PLOTSTYLENAME
350
E
  3
ACAD_SCALELIST
350
47
  3
ACAD_SECTIONVIEWSTYLE
350
2FB
  3
ACAD_TABLESTYLE
350
69
  3
ACAD_VISUALSTYLE
350
2A
  3
ACDB_RECOMPOSE_DATA
350
2F7
  3
AcDbVariableDictionary
350
2BF
  0
SUN
  5
6D
330
29
100
AcDbSun
 90
        1
290
     0
 63
     7
421
 16777215
 40
1.0
291
     1
 91
  2455826
 92
 54000000
292
     0
 70
     2
 71
   256
280
     1
  0
DICTIONARY
  5
2FA
102
{ACAD_REACTORS
330
C
102
}
330
C
100
AcDbDictionary
281
     1
  0
DICTIONARY
  5
D
102
{ACAD_REACTORS
330
C
102
}
330
C
100
AcDbDictionary
281
     1
  0
DICTIONARY
  5
1A
102
{ACAD_REACTORS
330
C
102
}
330
C
100
AcDbDictionary
281
     1
  3
Layout1
350
1E
  3
Layout2
350
26
  3
Model
350
22
  0
DICTIONARY
  5
43
102
{ACAD_REACTORS
330
C
102
}
330
C
100
AcDbDictionary
281
     1
  3
ByBlock
350
45
  3
ByLayer
350
44
  3
Global
350
46
  0
DICTIONARY
  5
6B
102
{ACAD_REACTORS
330
C
102
}
330
C
100
AcDbDictionary
281
     1
  3
Standard
350
6C
  0
DICTIONARY
  5
17
102
{ACAD_REACTORS
330
C
102
}
330
C
100
AcDbDictionary
281
     1
  3
Standard
350
18
  0
DICTIONARY
  5
19
102
{ACAD_REACTORS
330
C
102
}
330
C
100
AcDbDictionary
281
     1
  0
ACDBDICTIONARYWDFLT
  5
E
102
{ACAD_REACTORS
330
C
102
}
330
C
100
AcDbDictionary
281
     1
  3
Normal
350
F
100
AcDbDictionaryWithDefault
340
F
  0
DICTIONARY
  5
47
102
{ACAD_REACTORS
330
C
102
}
330
C
100
AcDbDictionary
281
     1
  3
A0
350
48
  3
A1
350
49
  3
A2
350
4A
  3
A3
350
4B
  3
A4
350
4C
  3
A5
350
4D
  3
A6
350
4E
  3
A7
350
4F
  3
A8
350
50
  3
A9
350
51
  3
B0
350
52
  3
B1
350
53
  3
B2
350
54
  3
B3
350
55
  3
B4
350
56
  3
B5
350
57
  3
B6
350
58
  3
B7
350
59
  3
B8
350
5A
  3
B9
350
5B
  3
C0
350
5C
  3
C1
350
5D
  3
C2
350
5E
  3
C3
350
5F
  3
C4
350
60
  3
C5
350
61
  3
C6
350
62
  3
C7
350
63
  3
C8
350
64
  3
C9
350
65
  3
D0
350
66
  3
D1
350
67
  3
D2
350
68
  0
DICTIONARY
  5
2FB
102
{ACAD_REACTORS
330
C
102
}
330
C
100
AcDbDictionary
281
     1
  0
DICTIONARY
  5
69
102
{ACAD_REACTORS
330
C
102
}
330
C
100
AcDbDictionary
281
     1
  3
Standard
350
6A
  0
DICTIONARY
  5
2A
102
{ACAD_REACTORS
330
C
102
}
330
C
100
AcDbDictionary
281
     1
  3
2dWireframe
350
2F
  3
Basic
350
32
  3
Brighten
350
36
  3
ColorChange
350
3A
  3
Conceptual
350
34
  3
Dim
350
35
  3
EdgeColorOff
350
3D
  3
Facepattern
350
39
  3
Flat
350
2B
  3
FlatWithEdges
350
2C
  3
Gouraud
350
2D
  3
GouraudWithEdges
350
2E
  3
Hidden
350
31
  3
JitterOff
350
3B
  3
Linepattern
350
38
  3
OverhangOff
350
3C
  3
Realistic
350
33
  3
Shaded
350
42
  3
Shaded with edges
350
41
  3
Shades of Gray
350
3E
  3
Sketchy
350
3F
  3
Thicken
350
37
  3
Wireframe
350
30
  3
X-Ray
350
40
  0
XRECORD
  5
2F7
102
{ACAD_REACTORS
330
C
102
}
330
C
100
AcDbXrecord
280
     1
 90
        1
330
6A
  0
DICTIONARY
  5
2BF
102
{ACAD_REACTORS
330
C
102
}
330
C
100
AcDbDictionary
281
     1
  3
CANNOSCALE
350
2C0
  3
CMLEADERSTYLE
350
2F9
  3
CTABLESTYLE
350
2F8
  3
XCLIPFRAME
350
2C1
  0
LAYOUT
  5
1E
102
{ACAD_REACTORS
330
1A
102
}
330
1A
100
AcDbPlotSettings
  1

  2
none_device
  4

  6

 40
0.0
 41
0.0
 42
0.0
 43
0.0
 44
0.0
 45
0.0
 46
0.0
 47
0.0
 48
0.0
 49
0.0
140
0.0
141
0.0
142
1.0
143
1.0
 70
   688
 72
     0
 73
     0
 74
     5
  7

 75
    16
 76
     0
 77
     2
 78
   300
147
1.0
148
0.0
149
0.0
100
AcDbLayout
  1
Layout1
 70
     1
 71
     1
 10
0.0
 20
0.0
 11
12.0
 21
9.0
 12
0.0
 22
0.0
 32
0.0
 14
1.000000000000000E+20
 24
1.000000000000000E+20
 34
1.000000000000000E+20
 15
-1.000000000000000E+20
 25
-1.000000000000000E+20
 35
-1.000000000000000E+20
146
0.0
 13
0.0
 23
0.0
 33
0.0
 16
1.0
 26
0.0
 36
0.0
 17
0.0
 27
1.0
 37
0.0
 76
     0
330
1B
  0
LAYOUT
  5
26
102
{ACAD_REACTORS
330
1A
102
}
330
1A
100
AcDbPlotSettings
  1

  2
none_device
  4

  6

 40
0.0
 41
0.0
 42
0.0
 43
0.0
 44
0.0
 45
0.0
 46
0.0
 47
0.0
 48
0.0
 49
0.0
140
0.0
141
0.0
142
1.0
143
1.0
 70
   688
 72
     0
 73
     0
 74
     5
  7

 75
    16
 76
     0
 77
     2
 78
   300
147
1.0
148
0.0
149
0.0
100
AcDbLayout
  1
Layout2
 70
     1
 71
     2
 10
0.0
 20
0.0
 11
0.0
 21
0.0
 12
0.0
 22
0.0
 32
0.0
 14
0.0
 24
0.0
 34
0.0
 15
0.0
 25
0.0
 35
0.0
146
0.0
 13
0.0
 23
0.0
 33
0.0
 16
1.0
 26
0.0
 36
0.0
 17
0.0
 27
1.0
 37
0.0
 76
     0
330
23
  0
LAYOUT
  5
22
102
{ACAD_REACTORS
330
1A
102
}
330
1A
100
AcDbPlotSettings
  1

  2
none_device
  4
Letter_(8.50_x_11.00_Inches)
  6

 40
6.35
 41
6.35
 42
6.35000508
 43
6.35000508
 44
215.9
 45
279.4
 46
0.0
 47
0.0
 48
0.0
 49
0.0
140
0.0
141
0.0
142
1.0
143
1.0
 70
  1712
 72
     0
 73
     0
 74
     0
  7

 75
     0
 76
     0
 77
     2
 78
   300
147
1.0
148
0.0
149
0.0
100
AcDbLayout
  1
Model
 70
     1
 71
     0
 10
0.0
 20
0.0
 11
12.0
 21
9.0
 12
0.0
 22
0.0
 32
0.0
 14
1.000000000000000E+20
 24
1.000000000000000E+20
 34
1.000000000000000E+20
 15
-1.000000000000000E+20
 25
-1.000000000000000E+20
 35
-1.000000000000000E+20
146
0.0
 13
0.0
 23
0.0
 33
0.0
 16
1.0
 26
0.0
 36
0.0
 17
0.0
 27
1.0
 37
0.0
 76
     0
330
1F
331
29
  0
MATERIAL
  5
45
102
{ACAD_REACTORS
330
43
102
}
330
43
100
AcDbMaterial
  1
ByBlock
 72
     1
 94
      127
  0
MATERIAL
  5
44
102
{ACAD_REACTORS
330
43
102
}
330
43
100
AcDbMaterial
  1
ByLayer
 72
     1
 94
      127
  0
MATERIAL
  5
46
102
{ACAD_REACTORS
330
43
102
}
330
43
100
AcDbMaterial
  1
Global
 72
     1
 94
      127
  0
MLEADERSTYLE
  5
6C
102
{ACAD_REACTORS
330
6B
102
}
102
{ACAD_XDICTIONARY
360
2F5
102
}
330
6B
100
AcDbMLeaderStyle
170
     2
171
     1
172
     0
 90
        2
 40
0.0
 41
0.0
173
     1
 91
-1056964608
340
14
 92
       -2
290
     1
 42
0.09
291
     1
 43
0.36
  3
Standard
341
0
 44
0.18
300

342
11
174
     1
178
     6
175
     1
176
     0
 93
-1056964608
 45
0.18
292
     0
297
     0
 46
0.18
343
0
 94
-1056964608
 47
1.0
 49
1.0
140
1.0
293
     1
141
0.0
294
     1
177
     0
142
1.0
295
     0
296
     0
143
0.125
1001
ACAD_MLEADERVER
1070
     2
  0
MLINESTYLE
  5
18
102
{ACAD_REACTORS
330
17
102
}
330
17
100
AcDbMlineStyle
  2
Standard
 70
     0
  3

 62
   256
 51
90.0
 52
90.0
 71
     2
 49
0.5
 62
   256
  6
BYLAYER
 49
-0.5
 62
   256
  6
BYLAYER
  0
ACDBPLACEHOLDER
  5
F
102
{ACAD_REACTORS
330
E
102
}
330
E
  0
SCALE
  5
48
102
{ACAD_REACTORS
330
47
102
}
330
47
100
AcDbScale
 70
     0
300
1:1
140
1.0
141
1.0
290
     1
  0
SCALE
  5
49
102
{ACAD_REACTORS
330
47
102
}
330
47
100
AcDbScale
 70
     0
300
1:2
140
1.0
141
2.0
290
     0
  0
SCALE
  5
4A
102
{ACAD_REACTORS
330
47
102
}
330
47
100
AcDbScale
 70
     0
300
1:4
140
1.0
141
4.0
290
     0
  0
SCALE
  5
4B
102
{ACAD_REACTORS
330
47
102
}
330
47
100
AcDbScale
 70
     0
300
1:5
140
1.0
141
5.0
290
     0
  0
SCALE
  5
4C
102
{ACAD_REACTORS
330
47
102
}
330
47
100
AcDbScale
 70
     0
300
1:8
140
1.0
141
8.0
290
     0
  0
SCALE
  5
4D
102
{ACAD_REACTORS
330
47
102
}
330
47
100
AcDbScale
 70
     0
300
1:10
140
1.0
141
10.0
290
     0
  0
SCALE
  5
4E
102
{ACAD_REACTORS
330
47
102
}
330
47
100
AcDbScale
 70
     0
300
1:16
140
1.0
141
16.0
290
     0
  0
SCALE
  5
4F
102
{ACAD_REACTORS
330
47
102
}
330
47
100
AcDbScale
 70
     0
300
1:20
140
1.0
141
20.0
290
     0
  0
SCALE
  5
50
102
{ACAD_REACTORS
330
47
102
}
330
47
100
AcDbScale
 70
     0
300
1:30
140
1.0
141
30.0
290
     0
  0
SCALE
  5
51
102
{ACAD_REACTORS
330
47
102
}
330
47
100
AcDbScale
 70
     0
300
1:40
140
1.0
141
40.0
290
     0
  0
SCALE
  5
52
102
{ACAD_REACTORS
330
47
102
}
330
47
100
AcDbScale
 70
     0
300
1:50
140
1.0
141
50.0
290
     0
  0
SCALE
  5
53
102
{ACAD_REACTORS
330
47
102
}
330
47
100
AcDbScale
 70
     0
300
1:100
140
1.0
141
100.0
290
     0
  0
SCALE
  5
54
102
{ACAD_REACTORS
330
47
102
}
330
47
100
AcDbScale
 70
     0
300
2:1
140
2.0
141
1.0
290
     0
  0
SCALE
  5
55
102
{ACAD_REACTORS
330
47
102
}
330
47
100
AcDbScale
 70
     0
300
4:1
140
4.0
141
1.0
290
     0
  0
SCALE
  5
56
102
{ACAD_REACTORS
330
47
102
}
330
47
100
AcDbScale
 70
     0
300
8:1
140
8.0
141
1.0
290
     0
  0
SCALE
  5
57
102
{ACAD_REACTORS
330
47
102
}
330
47
100
AcDbScale
 70
     0
300
10:1
140
10.0
141
1.0
290
     0
  0
SCALE
  5
58
102
{ACAD_REACTORS
330
47
102
}
330
47
100
AcDbScale
 70
     0
300
100:1
140
100.0
141
1.0
290
     0
  0
SCALE
  5
59
102
{ACAD_REACTORS
330
47
102
}
330
47
100
AcDbScale
 70
     0
300
1/128" = 1'-0"
140
0.0078125
141
12.0
290
     0
  0
SCALE
  5
5A
102
{ACAD_REACTORS
330
47
102
}
330
47
100
AcDbScale
 70
     0
300
1/64" = 1'-0"
140
0.015625
141
12.0
290
     0
  0
SCALE
  5
5B
102
{ACAD_REACTORS
330
47
102
}
330
47
100
AcDbScale
 70
     0
300
1/32" = 1'-0"
140
0.03125
141
12.0
290
     0
  0
SCALE
  5
5C
102
{ACAD_REACTORS
330
47
102
}
330
47
100
AcDbScale
 70
     0
300
1/16" = 1'-0"
140
0.0625
141
12.0
290
     0
  0
SCALE
  5
5D
102
{ACAD_REACTORS
330
47
102
}
330
47
100
AcDbScale
 70
     0
300
3/32" = 1'-0"
140
0.09375
141
12.0
290
     0
  0
SCALE
  5
5E
102
{ACAD_REACTORS
330
47
102
}
330
47
100
AcDbScale
 70
     0
300
1/8" = 1'-0"
140
0.125
141
12.0
290
     0
  0
SCALE
  5
5F
102
{ACAD_REACTORS
330
47
102
}
330
47
100
AcDbScale
 70
     0
300
3/16" = 1'-0"
140
0.1875
141
12.0
290
     0
  0
SCALE
  5
60
102
{ACAD_REACTORS
330
47
102
}
330
47
100
AcDbScale
 70
     0
300
1/4" = 1'-0"
140
0.25
141
12.0
290
     0
  0
SCALE
  5
61
102
{ACAD_REACTORS
330
47
102
}
330
47
100
AcDbScale
 70
     0
300
3/8" = 1'-0"
140
0.375
141
12.0
290
     0
  0
SCALE
  5
62
102
{ACAD_REACTORS
330
47
102
}
330
47
100
AcDbScale
 70
     0
300
1/2" = 1'-0"
140
0.5
141
12.0
290
     0
  0
SCALE
  5
63
102
{ACAD_REACTORS
330
47
102
}
330
47
100
AcDbScale
 70
     0
300
3/4" = 1'-0"
140
0.75
141
12.0
290
     0
  0
SCALE
  5
64
102
{ACAD_REACTORS
330
47
102
}
330
47
100
AcDbScale
 70
     0
300
1" = 1'-0"
140
1.0
141
12.0
290
     0
  0
SCALE
  5
65
102
{ACAD_REACTORS
330
47
102
}
330
47
100
AcDbScale
 70
     0
300
1-1/2" = 1'-0"
140
1.5
141
12.0
290
     0
  0
SCALE
  5
66
102
{ACAD_REACTORS
330
47
102
}
330
47
100
AcDbScale
 70
     0
300
3" = 1'-0"
140
3.0
141
12.0
290
     0
  0
SCALE
  5
67
102
{ACAD_REACTORS
330
47
102
}
330
47
100
AcDbScale
 70
     0
300
6" = 1'-0"
140
6.0
141
12.0
290
     0
  0
SCALE
  5
68
102
{ACAD_REACTORS
330
47
102
}
330
47
100
AcDbScale
 70
     0
300
1'-0" = 1'-0"
140
12.0
141
12.0
290
     0
  0
TABLESTYLE
  5
6A
102
{ACAD_REACTORS
330
69
102
}
102
{ACAD_XDICTIONARY
360
2F2
102
}
330
69
100
AcDbTableStyle
  3
Standard
 70
     0
 71
     0
 40
0.06
 41
0.06
280
     0
281
     0
  7
Standard
140
0.18
170
     2
 62
     0
 63
   257
283
     0
 90
        4
 91
        0
  1

274
    -2
284
     1
 64
     0
275
    -2
285
     1
 65
     0
276
    -2
286
     1
 66
     0
277
    -2
287
     1
 67
     0
278
    -2
288
     1
 68
     0
279
    -2
289
     1
 69
     0
  7
Standard
140
0.25
170
     5
 62
     0
 63
   257
283
     0
 90
        4
 91
        0
  1

274
    -2
284
     1
 64
     0
275
    -2
285
     1
 65
     0
276
    -2
286
     1
 66
     0
277
    -2
287
     1
 67
     0
278
    -2
288
     1
 68
     0
279
    -2
289
     1
 69
     0
  7
Standard
140
0.18
170
     5
 62
     0
 63
   257
283
     0
 90
        4
 91
        0
  1

274
    -2
284
     1
 64
     0
275
    -2
285
     1
 65
     0
276
    -2
286
     1
 66
     0
277
    -2
287
     1
 67
     0
278
    -2
288
     1
 68
     0
279
    -2
289
     1
 69
     0
  0
VISUALSTYLE
  5
2F
102
{ACAD_REACTORS
330
2A
102
}
102
{ACAD_XDICTIONARY
360
2CA
102
}
330
2A
100
AcDbVisualStyle
  2
2dWireframe
 70
     4
 71
     0
 72
     2
 73
     0
 90
        0
 40
0.6
 41
30.0
 62
     5
 63
     7
421
 16777215
 74
     1
 91
        4
 64
     7
 65
   257
 75
     1
175
     1
 42
1.0
 92
        0
 66
   257
 43
1.0
 76
     1
 77
     6
 78
     2
 67
     7
 79
     5
170
     0
171
     0
290
     0
174
     0
 93
        1
 44
0.0
173
     0
291
     0
 45
0.0
  0
VISUALSTYLE
  5
32
102
{ACAD_REACTORS
330
2A
102
}
102
{ACAD_XDICTIONARY
360
2D0
102
}
330
2A
100
AcDbVisualStyle
  2
Basic
 70
     7
 71
     1
 72
     0
 73
     1
 90
        0
 40
0.6
 41
30.0
 62
     5
 63
     7
421
 16777215
 74
     0
 91
        4
 64
     7
 65
   257
 75
     1
175
     1
 42
1.0
 92
        8
 66
     7
 43
1.0
 76
     1
 77
     6
 78
     2
 67
     7
 79
     5
170
     0
171
     0
290
     0
174
     0
 93
        1
 44
0.0
173
     0
291
     1
 45
0.0
  0
VISUALSTYLE
  5
36
102
{ACAD_REACTORS
330
2A
102
}
102
{ACAD_XDICTIONARY
360
2D8
102
}
330
2A
100
AcDbVisualStyle
  2
Brighten
 70
    12
 71
     2
 72
     2
 73
     0
 90
        0
 40
0.6
 41
30.0
 62
     5
 63
     7
421
 16777215
 74
     1
 91
        4
 64
     7
 65
   257
 75
     1
175
     1
 42
1.0
 92
        8
 66
     7
 43
1.0
 76
     1
 77
     6
 78
     2
 67
     7
 79
     5
170
     0
171
     0
290
     0
174
     0
 93
        1
 44
50.0
173
     0
291
     1
 45
0.0
  0
VISUALSTYLE
  5
3A
102
{ACAD_REACTORS
330
2A
102
}
102
{ACAD_XDICTIONARY
360
2E0
102
}
330
2A
100
AcDbVisualStyle
  2
ColorChange
 70
    16
 71
     2
 72
     2
 73
     3
 90
        0
 40
0.6
 41
30.0
 62
     5
 63
     8
421
  8421504
 74
     1
 91
        4
 64
     7
 65
   257
 75
     1
175
     1
 42
1.0
 92
        8
 66
     8
424
  8421504
 43
1.0
 76
     1
 77
     6
 78
     2
 67
     7
 79
     5
170
     0
171
     0
290
     0
174
     0
 93
        1
 44
0.0
173
     0
291
     1
 45
0.0
  0
VISUALSTYLE
  5
34
102
{ACAD_REACTORS
330
2A
102
}
102
{ACAD_XDICTIONARY
360
2D4
102
}
330
2A
100
AcDbVisualStyle
  2
Conceptual
 70
     9
 71
     3
 72
     2
 73
     0
 90
        0
 40
0.6
 41
30.0
 62
     5
 63
     7
421
 16777215
 74
     2
 91
        2
 64
     7
 65
   257
 75
     1
175
     1
 42
179.0
 92
        8
 66
     7
 43
1.0
 76
     1
 77
     6
 78
     2
 67
     7
 79
     3
170
     0
171
     0
290
     0
174
     0
 93
        1
 44
0.0
173
     0
291
     0
 45
0.0
  0
VISUALSTYLE
  5
35
102
{ACAD_REACTORS
330
2A
102
}
102
{ACAD_XDICTIONARY
360
2D6
102
}
330
2A
100
AcDbVisualStyle
  2
Dim
 70
    11
 71
     2
 72
     2
 73
     0
 90
        0
 40
0.6
 41
30.0
 62
     5
 63
     7
421
 16777215
 74
     1
 91
        4
 64
     7
 65
   257
 75
     1
175
     1
 42
1.0
 92
        8
 66
     7
 43
1.0
 76
     1
 77
     6
 78
     2
 67
     7
 79
     5
170
     0
171
     0
290
     0
174
     0
 93
        1
 44
-50.0
173
     0
291
     1
 45
0.0
  0
VISUALSTYLE
  5
3D
102
{ACAD_REACTORS
330
2A
102
}
102
{ACAD_XDICTIONARY
360
2E6
102
}
330
2A
100
AcDbVisualStyle
  2
EdgeColorOff
 70
    22
 71
     2
 72
     2
 73
     0
 90
        0
 40
0.6
 41
30.0
 62
     5
 63
     7
421
 16777215
 74
     1
 91
        4
 64
     7
 65
   257
 75
     1
175
     1
 42
1.0
 92
        8
 66
     7
 43
1.0
 76
     1
 77
     6
 78
     2
 67
     7
 79
     5
170
     0
171
     0
290
     0
174
     0
 93
        1
 44
0.0
173
     0
291
     1
 45
0.0
  0
VISUALSTYLE
  5
39
102
{ACAD_REACTORS
330
2A
102
}
102
{ACAD_XDICTIONARY
360
2DE
102
}
330
2A
100
AcDbVisualStyle
  2
Facepattern
 70
    15
 71
     2
 72
     2
 73
     0
 90
        0
 40
0.6
 41
30.0
 62
     5
 63
     7
421
 16777215
 74
     1
 91
        4
 64
     7
 65
   257
 75
     1
175
     1
 42
1.0
 92
        8
 66
     7
 43
1.0
 76
     1
 77
     6
 78
     2
 67
     7
 79
     5
170
     0
171
     0
290
     0
174
     0
 93
        1
 44
0.0
173
     0
291
     1
 45
0.0
  0
VISUALSTYLE
  5
2B
102
{ACAD_REACTORS
330
2A
102
}
102
{ACAD_XDICTIONARY
360
2C2
102
}
330
2A
100
AcDbVisualStyle
  2
Flat
 70
     0
 71
     2
 72
     1
 73
     1
 90
        2
 40
0.6
 41
30.0
 62
     5
 63
     7
421
 16777215
 74
     0
 91
        0
 64
     7
 65
   257
 75
     1
175
     1
 42
1.0
 92
        8
 66
     7
 43
1.0
 76
     1
 77
     6
 78
     2
 67
     7
 79
     5
170
     0
171
     0
290
     0
174
     0
 93
       13
 44
0.0
173
     0
291
     1
 45
0.0
  0
VISUALSTYLE
  5
2C
102
{ACAD_REACTORS
330
2A
102
}
102
{ACAD_XDICTIONARY
360
2C4
102
}
330
2A
100
AcDbVisualStyle
  2
FlatWithEdges
 70
     1
 71
     2
 72
     1
 73
     1
 90
        2
 40
0.6
 41
30.0
 62
     5
 63
     7
421
 16777215
 74
     1
 91
        0
 64
     7
 65
   257
 75
     1
175
     1
 42
1.0
 92
        0
 66
   257
 43
1.0
 76
     1
 77
     6
 78
     2
 67
     7
 79
     5
170
     0
171
     0
290
     0
174
     0
 93
       13
 44
0.0
173
     0
291
     1
 45
0.0
  0
VISUALSTYLE
  5
2D
102
{ACAD_REACTORS
330
2A
102
}
102
{ACAD_XDICTIONARY
360
2C6
102
}
330
2A
100
AcDbVisualStyle
  2
Gouraud
 70
     2
 71
     2
 72
     2
 73
     1
 90
        2
 40
0.6
 41
30.0
 62
     5
 63
     7
421
 16777215
 74
     0
 91
        0
 64
     7
 65
   257
 75
     1
175
     1
 42
1.0
 92
        0
 66
     7
 43
1.0
 76
     1
 77
     6
 78
     2
 67
     7
 79
     5
170
     0
171
     0
290
     0
174
     0
 93
       13
 44
0.0
173
     0
291
     1
 45
0.0
  0
VISUALSTYLE
  5
2E
102
{ACAD_REACTORS
330
2A
102
}
102
{ACAD_XDICTIONARY
360
2C8
102
}
330
2A
100
AcDbVisualStyle
  2
GouraudWithEdges
 70
     3
 71
     2
 72
     2
 73
     1
 90
        2
 40
0.6
 41
30.0
 62
     5
 63
     7
421
 16777215
 74
     1
 91
        0
 64
     7
 65
   257
 75
     1
175
     1
 42
1.0
 92
        0
 66
   257
 43
1.0
 76
     1
 77
     6
 78
     2
 67
     7
 79
     5
170
     0
171
     0
290
     0
174
     0
 93
       13
 44
0.0
173
     0
291
     1
 45
0.0
  0
VISUALSTYLE
  5
31
102
{ACAD_REACTORS
330
2A
102
}
102
{ACAD_XDICTIONARY
360
2CE
102
}
330
2A
100
AcDbVisualStyle
  2
Hidden
 70
     6
 71
     1
 72
     2
 73
     2
 90
        0
 40
0.6
 41
30.0
 62
     5
 63
     7
421
 16777215
 74
     2
 91
        2
 64
     7
 65
   257
 75
     2
175
     1
 42
40.0
 92
        0
 66
   257
 43
1.0
 76
     1
 77
     6
 78
     2
 67
     7
 79
     3
170
     0
171
     0
290
     0
174
     0
 93
        1
 44
0.0
173
     0
291
     0
 45
0.0
  0
VISUALSTYLE
  5
3B
102
{ACAD_REACTORS
330
2A
102
}
102
{ACAD_XDICTIONARY
360
2E2
102
}
330
2A
100
AcDbVisualStyle
  2
JitterOff
 70
    20
 71
     2
 72
     2
 73
     0
 90
        0
 40
0.6
 41
30.0
 62
     5
 63
     7
421
 16777215
 74
     1
 91
        4
 64
     7
 65
   257
 75
     1
175
     1
 42
1.0
 92
       10
 66
     7
 43
1.0
 76
     1
 77
     6
 78
     2
 67
     7
 79
     5
170
     0
171
     0
290
     0
174
     0
 93
        1
 44
0.0
173
     0
291
     1
 45
0.0
  0
VISUALSTYLE
  5
38
102
{ACAD_REACTORS
330
2A
102
}
102
{ACAD_XDICTIONARY
360
2DC
102
}
330
2A
100
AcDbVisualStyle
  2
Linepattern
 70
    14
 71
     2
 72
     2
 73
     0
 90
        0
 40
0.6
 41
30.0
 62
     5
 63
     7
421
 16777215
 74
     1
 91
        4
 64
     7
 65
   257
 75
     7
175
     7
 42
1.0
 92
        8
 66
     7
 43
1.0
 76
     1
 77
     6
 78
     2
 67
     7
 79
     5
170
     0
171
     0
290
     0
174
     0
 93
        1
 44
0.0
173
     0
291
     1
 45
0.0
  0
VISUALSTYLE
  5
3C
102
{ACAD_REACTORS
330
2A
102
}
102
{ACAD_XDICTIONARY
360
2E4
102
}
330
2A
100
AcDbVisualStyle
  2
OverhangOff
 70
    21
 71
     2
 72
     2
 73
     0
 90
        0
 40
0.6
 41
30.0
 62
     5
 63
     7
421
 16777215
 74
     1
 91
        4
 64
     7
 65
   257
 75
     1
175
     1
 42
1.0
 92
        9
 66
     7
 43
1.0
 76
     1
 77
     6
 78
     2
 67
     7
 79
     5
170
     0
171
     0
290
     0
174
     0
 93
        1
 44
0.0
173
     0
291
     1
 45
0.0
  0
VISUALSTYLE
  5
33
102
{ACAD_REACTORS
330
2A
102
}
102
{ACAD_XDICTIONARY
360
2D2
102
}
330
2A
100
AcDbVisualStyle
  2
Realistic
 70
     8
 71
     2
 72
     3
 73
     0
 90
        2
 40
0.6
 41
30.0
 62
     5
 63
     7
421
 16777215
 74
     0
 91
        0
 64
     7
 65
   257
 75
     1
175
     1
 42
1.0
 92
        8
 66
   257
 43
1.0
 76
     1
 77
     6
 78
     2
 67
     7
 79
     3
170
     0
171
     0
290
     0
174
     0
 93
       13
 44
0.0
173
     0
291
     0
 45
0.0
  0
VISUALSTYLE
  5
42
102
{ACAD_REACTORS
330
2A
102
}
102
{ACAD_XDICTIONARY
360
2F0
102
}
330
2A
100
AcDbVisualStyle
  2
Shaded
 70
    27
 71
     2
 72
     2
 73
     1
 90
        2
 40
0.6
 41
30.0
 62
     5
 63
     7
421
 16777215
 74
     0
 91
        4
 64
     7
 65
   257
 75
     1
175
     1
 42
1.0
 92
        8
 66
   257
 43
1.0
 76
     1
 77
     6
 78
     2
 67
     8
425
  7895160
 79
     3
170
     0
171
     0
290
     0
174
     0
 93
        5
 44
0.0
173
     0
291
     0
 45
0.0
  0
VISUALSTYLE
  5
41
102
{ACAD_REACTORS
330
2A
102
}
102
{ACAD_XDICTIONARY
360
2EE
102
}
330
2A
100
AcDbVisualStyle
  2
Shaded with edges
 70
    26
 71
     2
 72
     2
 73
     1
 90
        2
 40
0.6
 41
30.0
 62
     5
 63
     7
421
 16777215
 74
     1
 91
       10
 64
     7
 65
   257
 75
     2
175
     1
 42
1.0
 92
        8
 66
   257
 43
1.0
 76
     1
 77
     6
 78
     2
 67
     7
 79
     3
170
     0
171
     0
290
     0
174
     0
 93
        5
 44
0.0
173
     0
291
     0
 45
0.0
  0
VISUALSTYLE
  5
3E
102
{ACAD_REACTORS
330
2A
102
}
102
{ACAD_XDICTIONARY
360
2E8
102
}
330
2A
100
AcDbVisualStyle
  2
Shades of Gray
 70
    23
 71
     2
 72
     2
 73
     3
 90
        0
 40
0.6
 41
30.0
 62
     5
 63
     7
421
 16777215
 74
     2
 91
        2
 64
     7
 65
     7
 75
     1
175
     1
 42
40.0
 92
        8
 66
     7
 43
1.0
 76
     1
 77
     6
 78
     2
 67
     7
 79
     3
170
     0
171
     0
290
     0
174
     0
 93
        1
 44
0.0
173
     0
291
     0
 45
0.0
  0
VISUALSTYLE
  5
3F
102
{ACAD_REACTORS
330
2A
102
}
102
{ACAD_XDICTIONARY
360
2EA
102
}
330
2A
100
AcDbVisualStyle
  2
Sketchy
 70
    24
 71
     1
 72
     2
 73
     2
 90
        0
 40
0.6
 41
30.0
 62
     5
 63
     7
421
 16777215
 74
     2
 91
        2
 64
     7
 65
     7
 75
     1
175
     1
 42
40.0
 92
       11
 66
     7
 43
1.0
 76
     1
 77
     6
 78
     2
 67
     7
 79
     6
170
     0
171
     0
290
     0
174
     0
 93
        1
 44
0.0
173
     0
291
     0
 45
0.0
  0
VISUALSTYLE
  5
37
102
{ACAD_REACTORS
330
2A
102
}
102
{ACAD_XDICTIONARY
360
2DA
102
}
330
2A
100
AcDbVisualStyle
  2
Thicken
 70
    13
 71
     2
 72
     2
 73
     0
 90
        0
 40
0.6
 41
30.0
 62
     5
 63
     7
421
 16777215
 74
     1
 91
        4
 64
     7
 65
   257
 75
     1
175
     1
 42
1.0
 92
       12
 66
     7
 43
1.0
 76
     1
 77
     6
 78
     2
 67
     7
 79
     5
170
     0
171
     0
290
     0
174
     0
 93
        1
 44
0.0
173
     0
291
     1
 45
0.0
  0
VISUALSTYLE
  5
30
102
{ACAD_REACTORS
330
2A
102
}
102
{ACAD_XDICTIONARY
360
2CC
102
}
330
2A
100
AcDbVisualStyle
  2
Wireframe
 70
     5
 71
     0
 72
     2
 73
     0
 90
        0
 40
0.6
 41
30.0
 62
     5
 63
     7
421
 16777215
 74
     1
 91
        4
 64
     7
 65
   257
 75
     1
175
     1
 42
1.0
 92
        0
 66
   257
 43
1.0
 76
     1
 77
     6
 78
     2
 67
     7
 79
     3
170
     0
171
     0
290
     0
174
     0
 93
        1
 44
0.0
173
     0
291
     0
 45
0.0
  0
VISUALSTYLE
  5
40
102
{ACAD_REACTORS
330
2A
102
}
102
{ACAD_XDICTIONARY
360
2EC
102
}
330
2A
100
AcDbVisualStyle
  2
X-Ray
 70
    25
 71
     2
 72
     2
 73
     1
 90
        1
 40
0.5
 41
30.0
 62
     5
 63
     7
421
 16777215
 74
     1
 91
        0
 64
     7
 65
   257
 75
     1
175
     1
 42
1.0
 92
        8
 66
     7
 43
1.0
 76
     1
 77
     6
 78
     2
 67
     7
 79
     3
170
     0
171
     0
290
     0
174
     0
 93
       13
 44
0.0
173
     0
291
     0
 45
0.0
  0
DICTIONARYVAR
  5
2C0
102
{ACAD_REACTORS
330
2BF
102
}
330
2BF
100
DictionaryVariables
280
     0
  1
1:1
  0
DICTIONARYVAR
  5
2F9
102
{ACAD_REACTORS
330
2BF
102
}
330
2BF
100
DictionaryVariables
280
     0
  1
Standard
  0
DICTIONARYVAR
  5
2F8
102
{ACAD_REACTORS
330
2BF
102
}
330
2BF
100
DictionaryVariables
280
     0
  1
Standard
  0
DICTIONARYVAR
  5
2C1
102
{ACAD_REACTORS
330
2BF
102
}
330
2BF
100
DictionaryVariables
280
     0
  1
2
  0
DICTIONARY
  5
2F5
330
6C
100
AcDbDictionary
280
     1
281
     1
  3
ACAD_XREC_ROUNDTRIP
360
2F6
  0
DICTIONARY
  5
2F2
330
6A
100
AcDbDictionary
280
     1
281
     1
  3
ACAD_ROUNDTRIP_2008_TABLESTYLE_CELLSTYLEMAP
360
2F3
  0
DICTIONARY
  5
2CA
330
2F
100
AcDbDictionary
280
     1
281
     1
  3
ACAD_XREC_ROUNDTRIP
360
2CB
  0
DICTIONARY
  5
2D0
330
32
100
AcDbDictionary
280
     1
281
     1
  3
ACAD_XREC_ROUNDTRIP
360
2D1
  0
DICTIONARY
  5
2D8
330
36
100
AcDbDictionary
280
     1
281
     1
  3
ACAD_XREC_ROUNDTRIP
360
2D9
  0
DICTIONARY
  5
2E0
330
3A
100
AcDbDictionary
280
     1
281
     1
  3
ACAD_XREC_ROUNDTRIP
360
2E1
  0
DICTIONARY
  5
2D4
330
34
100
AcDbDictionary
280
     1
281
     1
  3
ACAD_XREC_ROUNDTRIP
360
2D5
  0
DICTIONARY
  5
2D6
330
35
100
AcDbDictionary
280
     1
281
     1
  3
ACAD_XREC_ROUNDTRIP
360
2D7
  0
DICTIONARY
  5
2E6
330
3D
100
AcDbDictionary
280
     1
281
     1
  3
ACAD_XREC_ROUNDTRIP
360
2E7
  0
DICTIONARY
  5
2DE
330
39
100
AcDbDictionary
280
     1
281
     1
  3
ACAD_XREC_ROUNDTRIP
360
2DF
  0
DICTIONARY
  5
2C2
330
2B
100
AcDbDictionary
280
     1
281
     1
  3
ACAD_XREC_ROUNDTRIP
360
2C3
  0
DICTIONARY
  5
2C4
330
2C
100
AcDbDictionary
280
     1
281
     1
  3
ACAD_XREC_ROUNDTRIP
360
2C5
  0
DICTIONARY
  5
2C6
330
2D
100
AcDbDictionary
280
     1
281
     1
  3
ACAD_XREC_ROUNDTRIP
360
2C7
  0
DICTIONARY
  5
2C8
330
2E
100
AcDbDictionary
280
     1
281
     1
  3
ACAD_XREC_ROUNDTRIP
360
2C9
  0
DICTIONARY
  5
2CE
330
31
100
AcDbDictionary
280
     1
281
     1
  3
ACAD_XREC_ROUNDTRIP
360
2CF
  0
DICTIONARY
  5
2E2
330
3B
100
AcDbDictionary
280
     1
281
     1
  3
ACAD_XREC_ROUNDTRIP
360
2E3
  0
DICTIONARY
  5
2DC
330
38
100
AcDbDictionary
280
     1
281
     1
  3
ACAD_XREC_ROUNDTRIP
360
2DD
  0
DICTIONARY
  5
2E4
330
3C
100
AcDbDictionary
280
     1
281
     1
  3
ACAD_XREC_ROUNDTRIP
360
2E5
  0
DICTIONARY
  5
2D2
330
33
100
AcDbDictionary
280
     1
281
     1
  3
ACAD_XREC_ROUNDTRIP
360
2D3
  0
DICTIONARY
  5
2F0
330
42
100
AcDbDictionary
280
     1
281
     1
  3
ACAD_XREC_ROUNDTRIP
360
2F1
  0
DICTIONARY
  5
2EE
330
41
100
AcDbDictionary
280
     1
281
     1
  3
ACAD_XREC_ROUNDTRIP
360
2EF
  0
DICTIONARY
  5
2E8
330
3E
100
AcDbDictionary
280
     1
281
     1
  3
ACAD_XREC_ROUNDTRIP
360
2E9
  0
DICTIONARY
  5
2EA
330
3F
100
AcDbDictionary
280
     1
281
     1
  3
ACAD_XREC_ROUNDTRIP
360
2EB
  0
DICTIONARY
  5
2DA
330
37
100
AcDbDictionary
280
     1
281
     1
  3
ACAD_XREC_ROUNDTRIP
360
2DB
  0
DICTIONARY
  5
2CC
330
30
100
AcDbDictionary
280
     1
281
     1
  3
ACAD_XREC_ROUNDTRIP
360
2CD
  0
DICTIONARY
  5
2EC
330
40
100
AcDbDictionary
280
     1
281
     1
  3
ACAD_XREC_ROUNDTRIP
360
2ED
  0
XRECORD
  5
2F6
102
{ACAD_REACTORS
330
2F5
102
}
330
2F5
100
AcDbXrecord
280
     1
102
ACAD_ROUNDTRIP_2010_MLEADER_STYLE
  0
CELLSTYLEMAP
  5
2F3
102
{ACAD_REACTORS
330
2F2
102
}
330
2F2
100
AcDbCellStyleMap
 90
        3
300
CELLSTYLE
  1
TABLEFORMAT_BEGIN
 90
        5
170
     1
 91
        0
 92
    32768
 62
   257
 93
        1
300
CONTENTFORMAT
  1
CONTENTFORMAT_BEGIN
 90
        0
 91
        0
 92
        4
 93
        0
300

 40
0.0
140
1.0
 94
        5
 62
     0
340
11
144
0.25
309
CONTENTFORMAT_END
171
     1
301
MARGIN
  1
CELLMARGIN_BEGIN
 40
0.06
 40
0.06
 40
0.06
 40
0.06
 40
0.06
 40
0.06
309
CELLMARGIN_END
 94
        6
 95
        1
302
GRIDFORMAT
  1
GRIDFORMAT_BEGIN
 90
        0
 91
        1
 62
     0
 92
       -2
340
14
 93
        0
 40
0.045
309
GRIDFORMAT_END
 95
        2
302
GRIDFORMAT
  1
GRIDFORMAT_BEGIN
 90
        0
 91
        1
 62
     0
 92
       -2
340
14
 93
        0
 40
0.045
309
GRIDFORMAT_END
 95
        4
302
GRIDFORMAT
  1
GRIDFORMAT_BEGIN
 90
        0
 91
        1
 62
     0
 92
       -2
340
14
 93
        0
 40
0.045
309
GRIDFORMAT_END
 95
        8
302
GRIDFORMAT
  1
GRIDFORMAT_BEGIN
 90
        0
 91
        1
 62
     0
 92
       -2
340
14
 93
        0
 40
0.045
309
GRIDFORMAT_END
 95
       16
302
GRIDFORMAT
  1
GRIDFORMAT_BEGIN
 90
        0
 91
        1
 62
     0
 92
       -2
340
14
 93
        0
 40
0.045
309
GRIDFORMAT_END
 95
       32
302
GRIDFORMAT
  1
GRIDFORMAT_BEGIN
 90
        0
 91
        1
 62
     0
 92
       -2
340
14
 93
        0
 40
0.045
309
GRIDFORMAT_END
309
TABLEFORMAT_END
  1
CELLSTYLE_BEGIN
 90
        1
 91
        1
300
_TITLE
309
CELLSTYLE_END
300
CELLSTYLE
  1
TABLEFORMAT_BEGIN
 90
        5
170
     1
 91
        0
 92
        0
 62
   257
 93
        1
300
CONTENTFORMAT
  1
CONTENTFORMAT_BEGIN
 90
        0
 91
        0
 92
        4
 93
        0
300

 40
0.0
140
1.0
 94
        5
 62
     0
340
11
144
0.18
309
CONTENTFORMAT_END
171
     1
301
MARGIN
  1
CELLMARGIN_BEGIN
 40
0.06
 40
0.06
 40
0.06
 40
0.06
 40
0.06
 40
0.06
309
CELLMARGIN_END
 94
        6
 95
        1
302
GRIDFORMAT
  1
GRIDFORMAT_BEGIN
 90
        0
 91
        1
 62
     0
 92
       -2
340
14
 93
        0
 40
0.045
309
GRIDFORMAT_END
 95
        2
302
GRIDFORMAT
  1
GRIDFORMAT_BEGIN
 90
        0
 91
        1
 62
     0
 92
       -2
340
14
 93
        0
 40
0.045
309
GRIDFORMAT_END
 95
        4
302
GRIDFORMAT
  1
GRIDFORMAT_BEGIN
 90
        0
 91
        1
 62
     0
 92
       -2
340
14
 93
        0
 40
0.045
309
GRIDFORMAT_END
 95
        8
302
GRIDFORMAT
  1
GRIDFORMAT_BEGIN
 90
        0
 91
        1
 62
     0
 92
       -2
340
14
 93
        0
 40
0.045
309
GRIDFORMAT_END
 95
       16
302
GRIDFORMAT
  1
GRIDFORMAT_BEGIN
 90
        0
 91
        1
 62
     0
 92
       -2
340
14
 93
        0
 40
0.045
309
GRIDFORMAT_END
 95
       32
302
GRIDFORMAT
  1
GRIDFORMAT_BEGIN
 90
        0
 91
        1
 62
     0
 92
       -2
340
14
 93
        0
 40
0.045
309
GRIDFORMAT_END
309
TABLEFORMAT_END
  1
CELLSTYLE_BEGIN
 90
        2
 91
        1
300
_HEADER
309
CELLSTYLE_END
300
CELLSTYLE
  1
TABLEFORMAT_BEGIN
 90
        5
170
     1
 91
        0
 92
        0
 62
   257
 93
        1
300
CONTENTFORMAT
  1
CONTENTFORMAT_BEGIN
 90
        0
 91
        0
 92
        4
 93
        0
300

 40
0.0
140
1.0
 94
        2
 62
     0
340
11
144
0.18
309
CONTENTFORMAT_END
171
     1
301
MARGIN
  1
CELLMARGIN_BEGIN
 40
0.06
 40
0.06
 40
0.06
 40
0.06
 40
0.06
 40
0.06
309
CELLMARGIN_END
 94
        6
 95
        1
302
GRIDFORMAT
  1
GRIDFORMAT_BEGIN
 90
        0
 91
        1
 62
     0
 92
       -2
340
14
 93
        0
 40
0.045
309
GRIDFORMAT_END
 95
        2
302
GRIDFORMAT
  1
GRIDFORMAT_BEGIN
 90
        0
 91
        1
 62
     0
 92
       -2
340
14
 93
        0
 40
0.045
309
GRIDFORMAT_END
 95
        4
302
GRIDFORMAT
  1
GRIDFORMAT_BEGIN
 90
        0
 91
        1
 62
     0
 92
       -2
340
14
 93
        0
 40
0.045
309
GRIDFORMAT_END
 95
        8
302
GRIDFORMAT
  1
GRIDFORMAT_BEGIN
 90
        0
 91
        1
 62
     0
 92
       -2
340
14
 93
        0
 40
0.045
309
GRIDFORMAT_END
 95
       16
302
GRIDFORMAT
  1
GRIDFORMAT_BEGIN
 90
        0
 91
        1
 62
     0
 92
       -2
340
14
 93
        0
 40
0.045
309
GRIDFORMAT_END
 95
       32
302
GRIDFORMAT
  1
GRIDFORMAT_BEGIN
 90
        0
 91
        1
 62
     0
 92
       -2
340
14
 93
        0
 40
0.045
309
GRIDFORMAT_END
309
TABLEFORMAT_END
  1
CELLSTYLE_BEGIN
 90
        3
 91
        2
300
_DATA
309
CELLSTYLE_END
  0
XRECORD
  5
2CB
102
{ACAD_REACTORS
330
2CA
102
}
330
2CA
100
AcDbXrecord
280
     1
102
RTVSPropertyOp0
 70
     1
102
RTVSPropertyOp1
 70
     1
102
RTVSPropertyOp2
 70
     1
102
RTVSPropertyOp3
 70
     1
102
RTVSPropertyOp4
 70
     1
102
RTVSPropertyOp5
 70
     1
102
RTVSPropertyOp6
 70
     1
102
RTVSPropertyOp7
 70
     1
102
RTVSPropertyOp8
 70
     1
102
RTVSPropertyOp9
 70
     1
102
RTVSPropertyOp10
 70
     1
102
RTVSPropertyOp11
 70
     1
102
RTVSPropertyOp12
 70
     1
102
RTVSPropertyOp13
 70
     1
102
RTVSPropertyOp14
 70
     1
102
RTVSPropertyOp15
 70
     1
102
RTVSPropertyOp16
 70
     1
102
RTVSPropertyOp17
 70
     1
102
RTVSPropertyOp18
 70
     1
102
RTVSPropertyOp19
 70
     1
102
RTVSPropertyOp20
 70
     1
102
RTVSPropertyOp21
 70
     1
102
RTVSPropertyOp22
 70
     1
102
RTVSPropertyOp23
 70
     1
102
RTVSPropertyOp24
 70
     1
102
RTVSPropertyOp25
 70
     1
102
RTVSPropertyOp26
 70
     1
102
RTVSPropertyOp27
 70
     1
102
RTVSPropertyOp28
 70
     1
102
RTVSPropertyOp29
 70
     1
102
RTVSPropertyOp30
 70
     1
102
RTVSPropertyOp31
 70
     1
102
RTVSPropertyOp32
 70
     1
102
RTVSPropertyOp33
 70
     1
102
RTVSPropertyOp34
 70
     1
102
RTVSPropertyOp35
 70
     1
102
RTVSPropertyOp36
 70
     1
102
RTVSPropertyOp37
 70
     1
102
RTVSPropertyOp38
 70
     1
102
RTVSPropertyOp39
 70
     1
102
RTVSPropertyOp40
 70
     1
102
RTVSPropertyOp41
 70
     1
102
RTVSPropertyOp42
 70
     1
102
RTVSPropertyOp43
 70
     1
102
RTVSPropertyOp44
 70
     1
102
RTVSPropertyOp45
 70
     1
102
RTVSPropertyOp46
 70
     1
102
RTVSPropertyOp47
 70
     1
102
RTVSPropertyOp48
 70
     1
102
RTVSPropertyOp49
 70
     1
102
RTVSPropertyOp50
 70
     1
102
RTVSPropertyOp51
 70
     0
102
RTVSPropertyOp52
 70
     0
102
RTVSPropertyOp53
 70
     1
102
RTVSPropertyOp54
 70
     1
102
RTVSPropertyOp55
 70
     1
102
RTVSPropertyOp56
 70
     1
102
RTVSPropertyOp57
 70
     1
102
RTVSPost2010Prop28
280
     1
102
RTVSPost2010PropOp28
 70
     1
102
RTVSPost2010Prop29
280
     1
102
RTVSPost2010PropOp29
 70
     1
102
RTVSPost2010Prop30
280
     0
102
RTVSPost2010PropOp30
 70
     1
102
RTVSPost2010Prop31
280
     0
102
RTVSPost2010PropOp31
 70
     1
102
RTVSPost2010Prop32
280
     0
102
RTVSPost2010PropOp32
 70
     1
102
RTVSPost2010Prop33
280
     0
102
RTVSPost2010PropOp33
 70
     1
102
RTVSPost2010Prop34
280
     0
102
RTVSPost2010PropOp34
 70
     1
102
RTVSPost2010Prop35
280
     0
102
RTVSPost2010PropOp35
 70
     1
102
RTVSPost2010Prop36
280
     0
102
RTVSPost2010PropOp36
 70
     1
102
RTVSPost2010Prop37
 90
       50
102
RTVSPost2010PropOp37
 70
     1
102
RTVSPost2010Prop38
140
0.0
102
RTVSPost2010PropOp38
 70
     1
102
RTVSPost2010Prop39
140
1.0
102
RTVSPost2010PropOp39
 70
     1
102
RTVSPost2010Prop40
 90
        0
102
RTVSPost2010PropOp40
 70
     1
102
RTVSPost2010Prop41ColorIndex
 90
       18
102
RTVSPost2010Prop41ColorRGB
 90
        0
102
RTVSPost2010PropOp41
 70
     1
102
RTVSPost2010Prop42
 90
       50
102
RTVSPost2010PropOp42
 70
     1
102
RTVSPost2010Prop43
 90
        3
102
RTVSPost2010PropOp43
 70
     1
102
RTVSPost2010Prop44ColorIndex
 90
        5
102
RTVSPost2010Prop44ColorRGB
 90
      255
102
RTVSPost2010PropOp44
 70
     1
102
RTVSPost2010Prop45
280
     0
102
RTVSPost2010PropOp45
 70
     1
102
RTVSPost2010Prop46
 90
       50
102
RTVSPost2010PropOp46
 70
     1
102
RTVSPost2010Prop47
 90
       50
102
RTVSPost2010PropOp47
 70
     1
102
RTVSPost2010Prop48
 90
       50
102
RTVSPost2010PropOp48
 70
     1
102
RTVSPost2010Prop49
280
     0
102
RTVSPost2010PropOp49
 70
     1
102
RTVSPost2010Prop50
 90
       50
102
RTVSPost2010PropOp50
 70
     1
102
RTVSPost2010Prop51ColorIndex
 90
      256
102
RTVSPost2010Prop51ColorRGB
 90
-16777216
102
RTVSPost2010PropOp51
 70
     0
102
RTVSPost2010Prop52
140
1.0
102
RTVSPost2010PropOp52
 70
     0
102
RTVSPost2010Prop53
 90
        2
102
RTVSPost2010PropOp53
 70
     1
102
RTVSPost2010Prop54
  1
strokes_ogs.tif
102
RTVSPost2010PropOp54
 70
     1
102
RTVSPost2010Prop55
280
     0
102
RTVSPost2010PropOp55
 70
     1
102
RTVSPost2010Prop56
140
1.0
102
RTVSPost2010PropOp56
 70
     1
102
RTVSPost2010Prop57
140
1.0
102
RTVSPost2010PropOp57
 70
     1
  0
XRECORD
  5
2D1
102
{ACAD_REACTORS
330
2D0
102
}
330
2D0
100
AcDbXrecord
280
     1
102
RTVSPropertyOp0
 70
     1
102
RTVSPropertyOp1
 70
     1
102
RTVSPropertyOp2
 70
     1
102
RTVSPropertyOp3
 70
     1
102
RTVSPropertyOp4
 70
     1
102
RTVSPropertyOp5
 70
     1
102
RTVSPropertyOp6
 70
     1
102
RTVSPropertyOp7
 70
     1
102
RTVSPropertyOp8
 70
     1
102
RTVSPropertyOp9
 70
     1
102
RTVSPropertyOp10
 70
     1
102
RTVSPropertyOp11
 70
     1
102
RTVSPropertyOp12
 70
     1
102
RTVSPropertyOp13
 70
     1
102
RTVSPropertyOp14
 70
     1
102
RTVSPropertyOp15
 70
     1
102
RTVSPropertyOp16
 70
     1
102
RTVSPropertyOp17
 70
     1
102
RTVSPropertyOp18
 70
     1
102
RTVSPropertyOp19
 70
     1
102
RTVSPropertyOp20
 70
     1
102
RTVSPropertyOp21
 70
     1
102
RTVSPropertyOp22
 70
     1
102
RTVSPropertyOp23
 70
     1
102
RTVSPropertyOp24
 70
     1
102
RTVSPropertyOp25
 70
     1
102
RTVSPropertyOp26
 70
     1
102
RTVSPropertyOp27
 70
     1
102
RTVSPropertyOp28
 70
     1
102
RTVSPropertyOp29
 70
     1
102
RTVSPropertyOp30
 70
     1
102
RTVSPropertyOp31
 70
     1
102
RTVSPropertyOp32
 70
     1
102
RTVSPropertyOp33
 70
     1
102
RTVSPropertyOp34
 70
     1
102
RTVSPropertyOp35
 70
     1
102
RTVSPropertyOp36
 70
     1
102
RTVSPropertyOp37
 70
     1
102
RTVSPropertyOp38
 70
     1
102
RTVSPropertyOp39
 70
     1
102
RTVSPropertyOp40
 70
     1
102
RTVSPropertyOp41
 70
     1
102
RTVSPropertyOp42
 70
     1
102
RTVSPropertyOp43
 70
     1
102
RTVSPropertyOp44
 70
     1
102
RTVSPropertyOp45
 70
     1
102
RTVSPropertyOp46
 70
     1
102
RTVSPropertyOp47
 70
     1
102
RTVSPropertyOp48
 70
     1
102
RTVSPropertyOp49
 70
     1
102
RTVSPropertyOp50
 70
     1
102
RTVSPropertyOp51
 70
     0
102
RTVSPropertyOp52
 70
     0
102
RTVSPropertyOp53
 70
     1
102
RTVSPropertyOp54
 70
     1
102
RTVSPropertyOp55
 70
     1
102
RTVSPropertyOp56
 70
     1
102
RTVSPropertyOp57
 70
     1
102
RTVSPost2010Prop28
280
     0
102
RTVSPost2010PropOp28
 70
     1
102
RTVSPost2010Prop29
280
     1
102
RTVSPost2010PropOp29
 70
     1
102
RTVSPost2010Prop30
280
     1
102
RTVSPost2010PropOp30
 70
     1
102
RTVSPost2010Prop31
280
     0
102
RTVSPost2010PropOp31
 70
     1
102
RTVSPost2010Prop32
280
     0
102
RTVSPost2010PropOp32
 70
     1
102
RTVSPost2010Prop33
280
     0
102
RTVSPost2010PropOp33
 70
     1
102
RTVSPost2010Prop34
280
     0
102
RTVSPost2010PropOp34
 70
     1
102
RTVSPost2010Prop35
280
     0
102
RTVSPost2010PropOp35
 70
     1
102
RTVSPost2010Prop36
280
     0
102
RTVSPost2010PropOp36
 70
     1
102
RTVSPost2010Prop37
 90
       50
102
RTVSPost2010PropOp37
 70
     1
102
RTVSPost2010Prop38
140
0.0
102
RTVSPost2010PropOp38
 70
     1
102
RTVSPost2010Prop39
140
1.0
102
RTVSPost2010PropOp39
 70
     1
102
RTVSPost2010Prop40
 90
        0
102
RTVSPost2010PropOp40
 70
     1
102
RTVSPost2010Prop41ColorIndex
 90
       18
102
RTVSPost2010Prop41ColorRGB
 90
        0
102
RTVSPost2010PropOp41
 70
     1
102
RTVSPost2010Prop42
 90
       50
102
RTVSPost2010PropOp42
 70
     1
102
RTVSPost2010Prop43
 90
        3
102
RTVSPost2010PropOp43
 70
     1
102
RTVSPost2010Prop44ColorIndex
 90
        5
102
RTVSPost2010Prop44ColorRGB
 90
      255
102
RTVSPost2010PropOp44
 70
     1
102
RTVSPost2010Prop45
280
     0
102
RTVSPost2010PropOp45
 70
     1
102
RTVSPost2010Prop46
 90
       50
102
RTVSPost2010PropOp46
 70
     1
102
RTVSPost2010Prop47
 90
       50
102
RTVSPost2010PropOp47
 70
     1
102
RTVSPost2010Prop48
 90
       50
102
RTVSPost2010PropOp48
 70
     1
102
RTVSPost2010Prop49
280
     0
102
RTVSPost2010PropOp49
 70
     1
102
RTVSPost2010Prop50
 90
       50
102
RTVSPost2010PropOp50
 70
     1
102
RTVSPost2010Prop51ColorIndex
 90
      256
102
RTVSPost2010Prop51ColorRGB
 90
-16777216
102
RTVSPost2010PropOp51
 70
     0
102
RTVSPost2010Prop52
140
1.0
102
RTVSPost2010PropOp52
 70
     0
102
RTVSPost2010Prop53
 90
        2
102
RTVSPost2010PropOp53
 70
     1
102
RTVSPost2010Prop54
  1
strokes_ogs.tif
102
RTVSPost2010PropOp54
 70
     1
102
RTVSPost2010Prop55
280
     0
102
RTVSPost2010PropOp55
 70
     1
102
RTVSPost2010Prop56
140
1.0
102
RTVSPost2010PropOp56
 70
     1
102
RTVSPost2010Prop57
140
1.0
102
RTVSPost2010PropOp57
 70
     1
  0
XRECORD
  5
2D9
102
{ACAD_REACTORS
330
2D8
102
}
330
2D8
100
AcDbXrecord
280
     1
102
RTVSPropertyOp0
 70
     1
102
RTVSPropertyOp1
 70
     1
102
RTVSPropertyOp2
 70
     1
102
RTVSPropertyOp3
 70
     1
102
RTVSPropertyOp4
 70
     1
102
RTVSPropertyOp5
 70
     1
102
RTVSPropertyOp6
 70
     1
102
RTVSPropertyOp7
 70
     1
102
RTVSPropertyOp8
 70
     1
102
RTVSPropertyOp9
 70
     1
102
RTVSPropertyOp10
 70
     1
102
RTVSPropertyOp11
 70
     1
102
RTVSPropertyOp12
 70
     1
102
RTVSPropertyOp13
 70
     1
102
RTVSPropertyOp14
 70
     1
102
RTVSPropertyOp15
 70
     1
102
RTVSPropertyOp16
 70
     1
102
RTVSPropertyOp17
 70
     1
102
RTVSPropertyOp18
 70
     1
102
RTVSPropertyOp19
 70
     1
102
RTVSPropertyOp20
 70
     1
102
RTVSPropertyOp21
 70
     1
102
RTVSPropertyOp22
 70
     1
102
RTVSPropertyOp23
 70
     1
102
RTVSPropertyOp24
 70
     1
102
RTVSPropertyOp25
 70
     1
102
RTVSPropertyOp26
 70
     1
102
RTVSPropertyOp27
 70
     1
102
RTVSPropertyOp28
 70
     1
102
RTVSPropertyOp29
 70
     1
102
RTVSPropertyOp30
 70
     1
102
RTVSPropertyOp31
 70
     1
102
RTVSPropertyOp32
 70
     1
102
RTVSPropertyOp33
 70
     1
102
RTVSPropertyOp34
 70
     1
102
RTVSPropertyOp35
 70
     1
102
RTVSPropertyOp36
 70
     1
102
RTVSPropertyOp37
 70
     1
102
RTVSPropertyOp38
 70
     1
102
RTVSPropertyOp39
 70
     1
102
RTVSPropertyOp40
 70
     1
102
RTVSPropertyOp41
 70
     1
102
RTVSPropertyOp42
 70
     1
102
RTVSPropertyOp43
 70
     1
102
RTVSPropertyOp44
 70
     1
102
RTVSPropertyOp45
 70
     1
102
RTVSPropertyOp46
 70
     1
102
RTVSPropertyOp47
 70
     1
102
RTVSPropertyOp48
 70
     1
102
RTVSPropertyOp49
 70
     1
102
RTVSPropertyOp50
 70
     1
102
RTVSPropertyOp51
 70
     0
102
RTVSPropertyOp52
 70
     0
102
RTVSPropertyOp53
 70
     1
102
RTVSPropertyOp54
 70
     1
102
RTVSPropertyOp55
 70
     1
102
RTVSPropertyOp56
 70
     1
102
RTVSPropertyOp57
 70
     1
102
RTVSPost2010Prop28
280
     0
102
RTVSPost2010PropOp28
 70
     1
102
RTVSPost2010Prop29
280
     1
102
RTVSPost2010PropOp29
 70
     1
102
RTVSPost2010Prop30
280
     1
102
RTVSPost2010PropOp30
 70
     1
102
RTVSPost2010Prop31
280
     0
102
RTVSPost2010PropOp31
 70
     1
102
RTVSPost2010Prop32
280
     0
102
RTVSPost2010PropOp32
 70
     1
102
RTVSPost2010Prop33
280
     0
102
RTVSPost2010PropOp33
 70
     1
102
RTVSPost2010Prop34
280
     0
102
RTVSPost2010PropOp34
 70
     1
102
RTVSPost2010Prop35
280
     0
102
RTVSPost2010PropOp35
 70
     1
102
RTVSPost2010Prop36
280
     0
102
RTVSPost2010PropOp36
 70
     1
102
RTVSPost2010Prop37
 90
       50
102
RTVSPost2010PropOp37
 70
     1
102
RTVSPost2010Prop38
140
0.0
102
RTVSPost2010PropOp38
 70
     1
102
RTVSPost2010Prop39
140
1.0
102
RTVSPost2010PropOp39
 70
     1
102
RTVSPost2010Prop40
 90
        0
102
RTVSPost2010PropOp40
 70
     1
102
RTVSPost2010Prop41ColorIndex
 90
       18
102
RTVSPost2010Prop41ColorRGB
 90
        0
102
RTVSPost2010PropOp41
 70
     1
102
RTVSPost2010Prop42
 90
       50
102
RTVSPost2010PropOp42
 70
     1
102
RTVSPost2010Prop43
 90
        3
102
RTVSPost2010PropOp43
 70
     1
102
RTVSPost2010Prop44ColorIndex
 90
        5
102
RTVSPost2010Prop44ColorRGB
 90
      255
102
RTVSPost2010PropOp44
 70
     1
102
RTVSPost2010Prop45
280
     0
102
RTVSPost2010PropOp45
 70
     1
102
RTVSPost2010Prop46
 90
       50
102
RTVSPost2010PropOp46
 70
     1
102
RTVSPost2010Prop47
 90
       50
102
RTVSPost2010PropOp47
 70
     1
102
RTVSPost2010Prop48
 90
       50
102
RTVSPost2010PropOp48
 70
     1
102
RTVSPost2010Prop49
280
     0
102
RTVSPost2010PropOp49
 70
     1
102
RTVSPost2010Prop50
 90
       50
102
RTVSPost2010PropOp50
 70
     1
102
RTVSPost2010Prop51ColorIndex
 90
      256
102
RTVSPost2010Prop51ColorRGB
 90
-16777216
102
RTVSPost2010PropOp51
 70
     0
102
RTVSPost2010Prop52
140
1.0
102
RTVSPost2010PropOp52
 70
     0
102
RTVSPost2010Prop53
 90
        2
102
RTVSPost2010PropOp53
 70
     1
102
RTVSPost2010Prop54
  1
strokes_ogs.tif
102
RTVSPost2010PropOp54
 70
     1
102
RTVSPost2010Prop55
280
     0
102
RTVSPost2010PropOp55
 70
     1
102
RTVSPost2010Prop56
140
1.0
102
RTVSPost2010PropOp56
 70
     1
102
RTVSPost2010Prop57
140
1.0
102
RTVSPost2010PropOp57
 70
     1
  0
XRECORD
  5
2E1
102
{ACAD_REACTORS
330
2E0
102
}
330
2E0
100
AcDbXrecord
280
     1
102
RTVSPropertyOp0
 70
     1
102
RTVSPropertyOp1
 70
     1
102
RTVSPropertyOp2
 70
     1
102
RTVSPropertyOp3
 70
     1
102
RTVSPropertyOp4
 70
     1
102
RTVSPropertyOp5
 70
     1
102
RTVSPropertyOp6
 70
     1
102
RTVSPropertyOp7
 70
     1
102
RTVSPropertyOp8
 70
     1
102
RTVSPropertyOp9
 70
     1
102
RTVSPropertyOp10
 70
     1
102
RTVSPropertyOp11
 70
     1
102
RTVSPropertyOp12
 70
     1
102
RTVSPropertyOp13
 70
     1
102
RTVSPropertyOp14
 70
     1
102
RTVSPropertyOp15
 70
     1
102
RTVSPropertyOp16
 70
     1
102
RTVSPropertyOp17
 70
     1
102
RTVSPropertyOp18
 70
     1
102
RTVSPropertyOp19
 70
     1
102
RTVSPropertyOp20
 70
     1
102
RTVSPropertyOp21
 70
     1
102
RTVSPropertyOp22
 70
     1
102
RTVSPropertyOp23
 70
     1
102
RTVSPropertyOp24
 70
     1
102
RTVSPropertyOp25
 70
     1
102
RTVSPropertyOp26
 70
     1
102
RTVSPropertyOp27
 70
     1
102
RTVSPropertyOp28
 70
     1
102
RTVSPropertyOp29
 70
     1
102
RTVSPropertyOp30
 70
     1
102
RTVSPropertyOp31
 70
     1
102
RTVSPropertyOp32
 70
     1
102
RTVSPropertyOp33
 70
     1
102
RTVSPropertyOp34
 70
     1
102
RTVSPropertyOp35
 70
     1
102
RTVSPropertyOp36
 70
     1
102
RTVSPropertyOp37
 70
     1
102
RTVSPropertyOp38
 70
     1
102
RTVSPropertyOp39
 70
     1
102
RTVSPropertyOp40
 70
     1
102
RTVSPropertyOp41
 70
     1
102
RTVSPropertyOp42
 70
     1
102
RTVSPropertyOp43
 70
     1
102
RTVSPropertyOp44
 70
     1
102
RTVSPropertyOp45
 70
     1
102
RTVSPropertyOp46
 70
     1
102
RTVSPropertyOp47
 70
     1
102
RTVSPropertyOp48
 70
     1
102
RTVSPropertyOp49
 70
     1
102
RTVSPropertyOp50
 70
     1
102
RTVSPropertyOp51
 70
     0
102
RTVSPropertyOp52
 70
     0
102
RTVSPropertyOp53
 70
     1
102
RTVSPropertyOp54
 70
     1
102
RTVSPropertyOp55
 70
     1
102
RTVSPropertyOp56
 70
     1
102
RTVSPropertyOp57
 70
     1
102
RTVSPost2010Prop28
280
     0
102
RTVSPost2010PropOp28
 70
     1
102
RTVSPost2010Prop29
280
     1
102
RTVSPost2010PropOp29
 70
     1
102
RTVSPost2010Prop30
280
     1
102
RTVSPost2010PropOp30
 70
     1
102
RTVSPost2010Prop31
280
     0
102
RTVSPost2010PropOp31
 70
     1
102
RTVSPost2010Prop32
280
     0
102
RTVSPost2010PropOp32
 70
     1
102
RTVSPost2010Prop33
280
     0
102
RTVSPost2010PropOp33
 70
     1
102
RTVSPost2010Prop34
280
     0
102
RTVSPost2010PropOp34
 70
     1
102
RTVSPost2010Prop35
280
     0
102
RTVSPost2010PropOp35
 70
     1
102
RTVSPost2010Prop36
280
     0
102
RTVSPost2010PropOp36
 70
     1
102
RTVSPost2010Prop37
 90
       50
102
RTVSPost2010PropOp37
 70
     1
102
RTVSPost2010Prop38
140
0.0
102
RTVSPost2010PropOp38
 70
     1
102
RTVSPost2010Prop39
140
1.0
102
RTVSPost2010PropOp39
 70
     1
102
RTVSPost2010Prop40
 90
        0
102
RTVSPost2010PropOp40
 70
     1
102
RTVSPost2010Prop41ColorIndex
 90
       18
102
RTVSPost2010Prop41ColorRGB
 90
        0
102
RTVSPost2010PropOp41
 70
     1
102
RTVSPost2010Prop42
 90
       50
102
RTVSPost2010PropOp42
 70
     1
102
RTVSPost2010Prop43
 90
        3
102
RTVSPost2010PropOp43
 70
     1
102
RTVSPost2010Prop44ColorIndex
 90
        5
102
RTVSPost2010Prop44ColorRGB
 90
      255
102
RTVSPost2010PropOp44
 70
     1
102
RTVSPost2010Prop45
280
     0
102
RTVSPost2010PropOp45
 70
     1
102
RTVSPost2010Prop46
 90
       50
102
RTVSPost2010PropOp46
 70
     1
102
RTVSPost2010Prop47
 90
       50
102
RTVSPost2010PropOp47
 70
     1
102
RTVSPost2010Prop48
 90
       50
102
RTVSPost2010PropOp48
 70
     1
102
RTVSPost2010Prop49
280
     0
102
RTVSPost2010PropOp49
 70
     1
102
RTVSPost2010Prop50
 90
       50
102
RTVSPost2010PropOp50
 70
     1
102
RTVSPost2010Prop51ColorIndex
 90
      256
102
RTVSPost2010Prop51ColorRGB
 90
-16777216
102
RTVSPost2010PropOp51
 70
     0
102
RTVSPost2010Prop52
140
1.0
102
RTVSPost2010PropOp52
 70
     0
102
RTVSPost2010Prop53
 90
        2
102
RTVSPost2010PropOp53
 70
     1
102
RTVSPost2010Prop54
  1
strokes_ogs.tif
102
RTVSPost2010PropOp54
 70
     1
102
RTVSPost2010Prop55
280
     0
102
RTVSPost2010PropOp55
 70
     1
102
RTVSPost2010Prop56
140
1.0
102
RTVSPost2010PropOp56
 70
     1
102
RTVSPost2010Prop57
140
1.0
102
RTVSPost2010PropOp57
 70
     1
  0
XRECORD
  5
2D5
102
{ACAD_REACTORS
330
2D4
102
}
330
2D4
100
AcDbXrecord
280
     1
102
RTVSPropertyOp0
 70
     1
102
RTVSPropertyOp1
 70
     1
102
RTVSPropertyOp2
 70
     1
102
RTVSPropertyOp3
 70
     1
102
RTVSPropertyOp4
 70
     1
102
RTVSPropertyOp5
 70
     1
102
RTVSPropertyOp6
 70
     1
102
RTVSPropertyOp7
 70
     1
102
RTVSPropertyOp8
 70
     1
102
RTVSPropertyOp9
 70
     1
102
RTVSPropertyOp10
 70
     1
102
RTVSPropertyOp11
 70
     1
102
RTVSPropertyOp12
 70
     1
102
RTVSPropertyOp13
 70
     1
102
RTVSPropertyOp14
 70
     1
102
RTVSPropertyOp15
 70
     1
102
RTVSPropertyOp16
 70
     1
102
RTVSPropertyOp17
 70
     1
102
RTVSPropertyOp18
 70
     1
102
RTVSPropertyOp19
 70
     1
102
RTVSPropertyOp20
 70
     1
102
RTVSPropertyOp21
 70
     1
102
RTVSPropertyOp22
 70
     1
102
RTVSPropertyOp23
 70
     1
102
RTVSPropertyOp24
 70
     1
102
RTVSPropertyOp25
 70
     1
102
RTVSPropertyOp26
 70
     1
102
RTVSPropertyOp27
 70
     1
102
RTVSPropertyOp28
 70
     1
102
RTVSPropertyOp29
 70
     1
102
RTVSPropertyOp30
 70
     1
102
RTVSPropertyOp31
 70
     1
102
RTVSPropertyOp32
 70
     1
102
RTVSPropertyOp33
 70
     1
102
RTVSPropertyOp34
 70
     1
102
RTVSPropertyOp35
 70
     1
102
RTVSPropertyOp36
 70
     1
102
RTVSPropertyOp37
 70
     1
102
RTVSPropertyOp38
 70
     1
102
RTVSPropertyOp39
 70
     1
102
RTVSPropertyOp40
 70
     1
102
RTVSPropertyOp41
 70
     1
102
RTVSPropertyOp42
 70
     1
102
RTVSPropertyOp43
 70
     1
102
RTVSPropertyOp44
 70
     1
102
RTVSPropertyOp45
 70
     1
102
RTVSPropertyOp46
 70
     1
102
RTVSPropertyOp47
 70
     1
102
RTVSPropertyOp48
 70
     1
102
RTVSPropertyOp49
 70
     1
102
RTVSPropertyOp50
 70
     1
102
RTVSPropertyOp51
 70
     0
102
RTVSPropertyOp52
 70
     0
102
RTVSPropertyOp53
 70
     1
102
RTVSPropertyOp54
 70
     1
102
RTVSPropertyOp55
 70
     1
102
RTVSPropertyOp56
 70
     1
102
RTVSPropertyOp57
 70
     1
102
RTVSPost2010Prop28
280
     0
102
RTVSPost2010PropOp28
 70
     1
102
RTVSPost2010Prop29
280
     1
102
RTVSPost2010PropOp29
 70
     1
102
RTVSPost2010Prop30
280
     1
102
RTVSPost2010PropOp30
 70
     1
102
RTVSPost2010Prop31
280
     0
102
RTVSPost2010PropOp31
 70
     1
102
RTVSPost2010Prop32
280
     0
102
RTVSPost2010PropOp32
 70
     1
102
RTVSPost2010Prop33
280
     0
102
RTVSPost2010PropOp33
 70
     1
102
RTVSPost2010Prop34
280
     0
102
RTVSPost2010PropOp34
 70
     1
102
RTVSPost2010Prop35
280
     0
102
RTVSPost2010PropOp35
 70
     1
102
RTVSPost2010Prop36
280
     0
102
RTVSPost2010PropOp36
 70
     1
102
RTVSPost2010Prop37
 90
       50
102
RTVSPost2010PropOp37
 70
     1
102
RTVSPost2010Prop38
140
0.0
102
RTVSPost2010PropOp38
 70
     1
102
RTVSPost2010Prop39
140
1.0
102
RTVSPost2010PropOp39
 70
     1
102
RTVSPost2010Prop40
 90
        0
102
RTVSPost2010PropOp40
 70
     1
102
RTVSPost2010Prop41ColorIndex
 90
       18
102
RTVSPost2010Prop41ColorRGB
 90
        0
102
RTVSPost2010PropOp41
 70
     1
102
RTVSPost2010Prop42
 90
       50
102
RTVSPost2010PropOp42
 70
     1
102
RTVSPost2010Prop43
 90
        3
102
RTVSPost2010PropOp43
 70
     1
102
RTVSPost2010Prop44ColorIndex
 90
        5
102
RTVSPost2010Prop44ColorRGB
 90
      255
102
RTVSPost2010PropOp44
 70
     1
102
RTVSPost2010Prop45
280
     0
102
RTVSPost2010PropOp45
 70
     1
102
RTVSPost2010Prop46
 90
       50
102
RTVSPost2010PropOp46
 70
     1
102
RTVSPost2010Prop47
 90
       50
102
RTVSPost2010PropOp47
 70
     1
102
RTVSPost2010Prop48
 90
       50
102
RTVSPost2010PropOp48
 70
     1
102
RTVSPost2010Prop49
280
     0
102
RTVSPost2010PropOp49
 70
     1
102
RTVSPost2010Prop50
 90
       50
102
RTVSPost2010PropOp50
 70
     1
102
RTVSPost2010Prop51ColorIndex
 90
      256
102
RTVSPost2010Prop51ColorRGB
 90
-16777216
102
RTVSPost2010PropOp51
 70
     0
102
RTVSPost2010Prop52
140
1.0
102
RTVSPost2010PropOp52
 70
     0
102
RTVSPost2010Prop53
 90
        2
102
RTVSPost2010PropOp53
 70
     1
102
RTVSPost2010Prop54
  1
strokes_ogs.tif
102
RTVSPost2010PropOp54
 70
     1
102
RTVSPost2010Prop55
280
     0
102
RTVSPost2010PropOp55
 70
     1
102
RTVSPost2010Prop56
140
1.0
102
RTVSPost2010PropOp56
 70
     1
102
RTVSPost2010Prop57
140
1.0
102
RTVSPost2010PropOp57
 70
     1
  0
XRECORD
  5
2D7
102
{ACAD_REACTORS
330
2D6
102
}
330
2D6
100
AcDbXrecord
280
     1
102
RTVSPropertyOp0
 70
     1
102
RTVSPropertyOp1
 70
     1
102
RTVSPropertyOp2
 70
     1
102
RTVSPropertyOp3
 70
     1
102
RTVSPropertyOp4
 70
     1
102
RTVSPropertyOp5
 70
     1
102
RTVSPropertyOp6
 70
     1
102
RTVSPropertyOp7
 70
     1
102
RTVSPropertyOp8
 70
     1
102
RTVSPropertyOp9
 70
     1
102
RTVSPropertyOp10
 70
     1
102
RTVSPropertyOp11
 70
     1
102
RTVSPropertyOp12
 70
     1
102
RTVSPropertyOp13
 70
     1
102
RTVSPropertyOp14
 70
     1
102
RTVSPropertyOp15
 70
     1
102
RTVSPropertyOp16
 70
     1
102
RTVSPropertyOp17
 70
     1
102
RTVSPropertyOp18
 70
     1
102
RTVSPropertyOp19
 70
     1
102
RTVSPropertyOp20
 70
     1
102
RTVSPropertyOp21
 70
     1
102
RTVSPropertyOp22
 70
     1
102
RTVSPropertyOp23
 70
     1
102
RTVSPropertyOp24
 70
     1
102
RTVSPropertyOp25
 70
     1
102
RTVSPropertyOp26
 70
     1
102
RTVSPropertyOp27
 70
     1
102
RTVSPropertyOp28
 70
     1
102
RTVSPropertyOp29
 70
     1
102
RTVSPropertyOp30
 70
     1
102
RTVSPropertyOp31
 70
     1
102
RTVSPropertyOp32
 70
     1
102
RTVSPropertyOp33
 70
     1
102
RTVSPropertyOp34
 70
     1
102
RTVSPropertyOp35
 70
     1
102
RTVSPropertyOp36
 70
     1
102
RTVSPropertyOp37
 70
     1
102
RTVSPropertyOp38
 70
     1
102
RTVSPropertyOp39
 70
     1
102
RTVSPropertyOp40
 70
     1
102
RTVSPropertyOp41
 70
     1
102
RTVSPropertyOp42
 70
     1
102
RTVSPropertyOp43
 70
     1
102
RTVSPropertyOp44
 70
     1
102
RTVSPropertyOp45
 70
     1
102
RTVSPropertyOp46
 70
     1
102
RTVSPropertyOp47
 70
     1
102
RTVSPropertyOp48
 70
     1
102
RTVSPropertyOp49
 70
     1
102
RTVSPropertyOp50
 70
     1
102
RTVSPropertyOp51
 70
     0
102
RTVSPropertyOp52
 70
     0
102
RTVSPropertyOp53
 70
     1
102
RTVSPropertyOp54
 70
     1
102
RTVSPropertyOp55
 70
     1
102
RTVSPropertyOp56
 70
     1
102
RTVSPropertyOp57
 70
     1
102
RTVSPost2010Prop28
280
     0
102
RTVSPost2010PropOp28
 70
     1
102
RTVSPost2010Prop29
280
     1
102
RTVSPost2010PropOp29
 70
     1
102
RTVSPost2010Prop30
280
     1
102
RTVSPost2010PropOp30
 70
     1
102
RTVSPost2010Prop31
280
     0
102
RTVSPost2010PropOp31
 70
     1
102
RTVSPost2010Prop32
280
     0
102
RTVSPost2010PropOp32
 70
     1
102
RTVSPost2010Prop33
280
     0
102
RTVSPost2010PropOp33
 70
     1
102
RTVSPost2010Prop34
280
     0
102
RTVSPost2010PropOp34
 70
     1
102
RTVSPost2010Prop35
280
     0
102
RTVSPost2010PropOp35
 70
     1
102
RTVSPost2010Prop36
280
     0
102
RTVSPost2010PropOp36
 70
     1
102
RTVSPost2010Prop37
 90
       50
102
RTVSPost2010PropOp37
 70
     1
102
RTVSPost2010Prop38
140
0.0
102
RTVSPost2010PropOp38
 70
     1
102
RTVSPost2010Prop39
140
1.0
102
RTVSPost2010PropOp39
 70
     1
102
RTVSPost2010Prop40
 90
        0
102
RTVSPost2010PropOp40
 70
     1
102
RTVSPost2010Prop41ColorIndex
 90
       18
102
RTVSPost2010Prop41ColorRGB
 90
        0
102
RTVSPost2010PropOp41
 70
     1
102
RTVSPost2010Prop42
 90
       50
102
RTVSPost2010PropOp42
 70
     1
102
RTVSPost2010Prop43
 90
        3
102
RTVSPost2010PropOp43
 70
     1
102
RTVSPost2010Prop44ColorIndex
 90
        5
102
RTVSPost2010Prop44ColorRGB
 90
      255
102
RTVSPost2010PropOp44
 70
     1
102
RTVSPost2010Prop45
280
     0
102
RTVSPost2010PropOp45
 70
     1
102
RTVSPost2010Prop46
 90
       50
102
RTVSPost2010PropOp46
 70
     1
102
RTVSPost2010Prop47
 90
       50
102
RTVSPost2010PropOp47
 70
     1
102
RTVSPost2010Prop48
 90
       50
102
RTVSPost2010PropOp48
 70
     1
102
RTVSPost2010Prop49
280
     0
102
RTVSPost2010PropOp49
 70
     1
102
RTVSPost2010Prop50
 90
       50
102
RTVSPost2010PropOp50
 70
     1
102
RTVSPost2010Prop51ColorIndex
 90
      256
102
RTVSPost2010Prop51ColorRGB
 90
-16777216
102
RTVSPost2010PropOp51
 70
     0
102
RTVSPost2010Prop52
140
1.0
102
RTVSPost2010PropOp52
 70
     0
102
RTVSPost2010Prop53
 90
        2
102
RTVSPost2010PropOp53
 70
     1
102
RTVSPost2010Prop54
  1
strokes_ogs.tif
102
RTVSPost2010PropOp54
 70
     1
102
RTVSPost2010Prop55
280
     0
102
RTVSPost2010PropOp55
 70
     1
102
RTVSPost2010Prop56
140
1.0
102
RTVSPost2010PropOp56
 70
     1
102
RTVSPost2010Prop57
140
1.0
102
RTVSPost2010PropOp57
 70
     1
  0
XRECORD
  5
2E7
102
{ACAD_REACTORS
330
2E6
102
}
330
2E6
100
AcDbXrecord
280
     1
102
RTVSPropertyOp0
 70
     0
102
RTVSPropertyOp1
 70
     0
102
RTVSPropertyOp2
 70
     0
102
RTVSPropertyOp3
 70
     0
102
RTVSPropertyOp4
 70
     0
102
RTVSPropertyOp5
 70
     0
102
RTVSPropertyOp6
 70
     0
102
RTVSPropertyOp7
 70
     0
102
RTVSPropertyOp8
 70
     0
102
RTVSPropertyOp9
 70
     0
102
RTVSPropertyOp10
 70
     0
102
RTVSPropertyOp11
 70
     0
102
RTVSPropertyOp12
 70
     0
102
RTVSPropertyOp13
 70
     0
102
RTVSPropertyOp14
 70
     2
102
RTVSPropertyOp15
 70
     0
102
RTVSPropertyOp16
 70
     0
102
RTVSPropertyOp17
 70
     0
102
RTVSPropertyOp18
 70
     0
102
RTVSPropertyOp19
 70
     0
102
RTVSPropertyOp20
 70
     0
102
RTVSPropertyOp21
 70
     0
102
RTVSPropertyOp22
 70
     0
102
RTVSPropertyOp23
 70
     0
102
RTVSPropertyOp24
 70
     0
102
RTVSPropertyOp25
 70
     0
102
RTVSPropertyOp26
 70
     0
102
RTVSPropertyOp27
 70
     0
102
RTVSPropertyOp28
 70
     0
102
RTVSPropertyOp29
 70
     0
102
RTVSPropertyOp30
 70
     0
102
RTVSPropertyOp31
 70
     0
102
RTVSPropertyOp32
 70
     0
102
RTVSPropertyOp33
 70
     0
102
RTVSPropertyOp34
 70
     0
102
RTVSPropertyOp35
 70
     0
102
RTVSPropertyOp36
 70
     0
102
RTVSPropertyOp37
 70
     0
102
RTVSPropertyOp38
 70
     0
102
RTVSPropertyOp39
 70
     0
102
RTVSPropertyOp40
 70
     0
102
RTVSPropertyOp41
 70
     0
102
RTVSPropertyOp42
 70
     0
102
RTVSPropertyOp43
 70
     0
102
RTVSPropertyOp44
 70
     0
102
RTVSPropertyOp45
 70
     0
102
RTVSPropertyOp46
 70
     0
102
RTVSPropertyOp47
 70
     0
102
RTVSPropertyOp48
 70
     0
102
RTVSPropertyOp49
 70
     0
102
RTVSPropertyOp50
 70
     0
102
RTVSPropertyOp51
 70
     0
102
RTVSPropertyOp52
 70
     0
102
RTVSPropertyOp53
 70
     0
102
RTVSPropertyOp54
 70
     0
102
RTVSPropertyOp55
 70
     0
102
RTVSPropertyOp56
 70
     0
102
RTVSPropertyOp57
 70
     0
102
RTVSPost2010Prop28
280
     0
102
RTVSPost2010PropOp28
 70
     0
102
RTVSPost2010Prop29
280
     1
102
RTVSPost2010PropOp29
 70
     0
102
RTVSPost2010Prop30
280
     1
102
RTVSPost2010PropOp30
 70
     0
102
RTVSPost2010Prop31
280
     0
102
RTVSPost2010PropOp31
 70
     0
102
RTVSPost2010Prop32
280
     0
102
RTVSPost2010PropOp32
 70
     0
102
RTVSPost2010Prop33
280
     0
102
RTVSPost2010PropOp33
 70
     0
102
RTVSPost2010Prop34
280
     0
102
RTVSPost2010PropOp34
 70
     0
102
RTVSPost2010Prop35
280
     0
102
RTVSPost2010PropOp35
 70
     0
102
RTVSPost2010Prop36
280
     0
102
RTVSPost2010PropOp36
 70
     0
102
RTVSPost2010Prop37
 90
       50
102
RTVSPost2010PropOp37
 70
     0
102
RTVSPost2010Prop38
140
0.0
102
RTVSPost2010PropOp38
 70
     0
102
RTVSPost2010Prop39
140
1.0
102
RTVSPost2010PropOp39
 70
     0
102
RTVSPost2010Prop40
 90
        0
102
RTVSPost2010PropOp40
 70
     0
102
RTVSPost2010Prop41ColorIndex
 90
       18
102
RTVSPost2010Prop41ColorRGB
 90
        0
102
RTVSPost2010PropOp41
 70
     0
102
RTVSPost2010Prop42
 90
       50
102
RTVSPost2010PropOp42
 70
     0
102
RTVSPost2010Prop43
 90
        3
102
RTVSPost2010PropOp43
 70
     0
102
RTVSPost2010Prop44ColorIndex
 90
        5
102
RTVSPost2010Prop44ColorRGB
 90
      255
102
RTVSPost2010PropOp44
 70
     0
102
RTVSPost2010Prop45
280
     0
102
RTVSPost2010PropOp45
 70
     0
102
RTVSPost2010Prop46
 90
       50
102
RTVSPost2010PropOp46
 70
     0
102
RTVSPost2010Prop47
 90
       50
102
RTVSPost2010PropOp47
 70
     0
102
RTVSPost2010Prop48
 90
       50
102
RTVSPost2010PropOp48
 70
     0
102
RTVSPost2010Prop49
280
     0
102
RTVSPost2010PropOp49
 70
     0
102
RTVSPost2010Prop50
 90
       50
102
RTVSPost2010PropOp50
 70
     0
102
RTVSPost2010Prop51ColorIndex
 90
      256
102
RTVSPost2010Prop51ColorRGB
 90
-16777216
102
RTVSPost2010PropOp51
 70
     0
102
RTVSPost2010Prop52
140
1.0
102
RTVSPost2010PropOp52
 70
     0
102
RTVSPost2010Prop53
 90
        2
102
RTVSPost2010PropOp53
 70
     0
102
RTVSPost2010Prop54
  1
strokes_ogs.tif
102
RTVSPost2010PropOp54
 70
     0
102
RTVSPost2010Prop55
280
     0
102
RTVSPost2010PropOp55
 70
     0
102
RTVSPost2010Prop56
140
1.0
102
RTVSPost2010PropOp56
 70
     0
102
RTVSPost2010Prop57
140
1.0
102
RTVSPost2010PropOp57
 70
     0
  0
XRECORD
  5
2DF
102
{ACAD_REACTORS
330
2DE
102
}
330
2DE
100
AcDbXrecord
280
     1
102
RTVSPropertyOp0
 70
     1
102
RTVSPropertyOp1
 70
     1
102
RTVSPropertyOp2
 70
     1
102
RTVSPropertyOp3
 70
     1
102
RTVSPropertyOp4
 70
     1
102
RTVSPropertyOp5
 70
     1
102
RTVSPropertyOp6
 70
     1
102
RTVSPropertyOp7
 70
     1
102
RTVSPropertyOp8
 70
     1
102
RTVSPropertyOp9
 70
     1
102
RTVSPropertyOp10
 70
     1
102
RTVSPropertyOp11
 70
     1
102
RTVSPropertyOp12
 70
     1
102
RTVSPropertyOp13
 70
     1
102
RTVSPropertyOp14
 70
     1
102
RTVSPropertyOp15
 70
     1
102
RTVSPropertyOp16
 70
     1
102
RTVSPropertyOp17
 70
     1
102
RTVSPropertyOp18
 70
     1
102
RTVSPropertyOp19
 70
     1
102
RTVSPropertyOp20
 70
     1
102
RTVSPropertyOp21
 70
     1
102
RTVSPropertyOp22
 70
     1
102
RTVSPropertyOp23
 70
     1
102
RTVSPropertyOp24
 70
     1
102
RTVSPropertyOp25
 70
     1
102
RTVSPropertyOp26
 70
     1
102
RTVSPropertyOp27
 70
     1
102
RTVSPropertyOp28
 70
     1
102
RTVSPropertyOp29
 70
     1
102
RTVSPropertyOp30
 70
     1
102
RTVSPropertyOp31
 70
     1
102
RTVSPropertyOp32
 70
     1
102
RTVSPropertyOp33
 70
     1
102
RTVSPropertyOp34
 70
     1
102
RTVSPropertyOp35
 70
     1
102
RTVSPropertyOp36
 70
     1
102
RTVSPropertyOp37
 70
     1
102
RTVSPropertyOp38
 70
     1
102
RTVSPropertyOp39
 70
     1
102
RTVSPropertyOp40
 70
     1
102
RTVSPropertyOp41
 70
     1
102
RTVSPropertyOp42
 70
     1
102
RTVSPropertyOp43
 70
     1
102
RTVSPropertyOp44
 70
     1
102
RTVSPropertyOp45
 70
     1
102
RTVSPropertyOp46
 70
     1
102
RTVSPropertyOp47
 70
     1
102
RTVSPropertyOp48
 70
     1
102
RTVSPropertyOp49
 70
     1
102
RTVSPropertyOp50
 70
     1
102
RTVSPropertyOp51
 70
     0
102
RTVSPropertyOp52
 70
     0
102
RTVSPropertyOp53
 70
     1
102
RTVSPropertyOp54
 70
     1
102
RTVSPropertyOp55
 70
     1
102
RTVSPropertyOp56
 70
     1
102
RTVSPropertyOp57
 70
     1
102
RTVSPost2010Prop28
280
     0
102
RTVSPost2010PropOp28
 70
     1
102
RTVSPost2010Prop29
280
     1
102
RTVSPost2010PropOp29
 70
     1
102
RTVSPost2010Prop30
280
     1
102
RTVSPost2010PropOp30
 70
     1
102
RTVSPost2010Prop31
280
     0
102
RTVSPost2010PropOp31
 70
     1
102
RTVSPost2010Prop32
280
     0
102
RTVSPost2010PropOp32
 70
     1
102
RTVSPost2010Prop33
280
     0
102
RTVSPost2010PropOp33
 70
     1
102
RTVSPost2010Prop34
280
     0
102
RTVSPost2010PropOp34
 70
     1
102
RTVSPost2010Prop35
280
     0
102
RTVSPost2010PropOp35
 70
     1
102
RTVSPost2010Prop36
280
     0
102
RTVSPost2010PropOp36
 70
     1
102
RTVSPost2010Prop37
 90
       50
102
RTVSPost2010PropOp37
 70
     1
102
RTVSPost2010Prop38
140
0.0
102
RTVSPost2010PropOp38
 70
     1
102
RTVSPost2010Prop39
140
1.0
102
RTVSPost2010PropOp39
 70
     1
102
RTVSPost2010Prop40
 90
        0
102
RTVSPost2010PropOp40
 70
     1
102
RTVSPost2010Prop41ColorIndex
 90
       18
102
RTVSPost2010Prop41ColorRGB
 90
        0
102
RTVSPost2010PropOp41
 70
     1
102
RTVSPost2010Prop42
 90
       50
102
RTVSPost2010PropOp42
 70
     1
102
RTVSPost2010Prop43
 90
        3
102
RTVSPost2010PropOp43
 70
     1
102
RTVSPost2010Prop44ColorIndex
 90
        5
102
RTVSPost2010Prop44ColorRGB
 90
      255
102
RTVSPost2010PropOp44
 70
     1
102
RTVSPost2010Prop45
280
     0
102
RTVSPost2010PropOp45
 70
     1
102
RTVSPost2010Prop46
 90
       50
102
RTVSPost2010PropOp46
 70
     1
102
RTVSPost2010Prop47
 90
       50
102
RTVSPost2010PropOp47
 70
     1
102
RTVSPost2010Prop48
 90
       50
102
RTVSPost2010PropOp48
 70
     1
102
RTVSPost2010Prop49
280
     0
102
RTVSPost2010PropOp49
 70
     1
102
RTVSPost2010Prop50
 90
       50
102
RTVSPost2010PropOp50
 70
     1
102
RTVSPost2010Prop51ColorIndex
 90
      256
102
RTVSPost2010Prop51ColorRGB
 90
-16777216
102
RTVSPost2010PropOp51
 70
     0
102
RTVSPost2010Prop52
140
1.0
102
RTVSPost2010PropOp52
 70
     0
102
RTVSPost2010Prop53
 90
        2
102
RTVSPost2010PropOp53
 70
     1
102
RTVSPost2010Prop54
  1
strokes_ogs.tif
102
RTVSPost2010PropOp54
 70
     1
102
RTVSPost2010Prop55
280
     0
102
RTVSPost2010PropOp55
 70
     1
102
RTVSPost2010Prop56
140
1.0
102
RTVSPost2010PropOp56
 70
     1
102
RTVSPost2010Prop57
140
1.0
102
RTVSPost2010PropOp57
 70
     1
  0
XRECORD
  5
2C3
102
{ACAD_REACTORS
330
2C2
102
}
330
2C2
100
AcDbXrecord
280
     1
102
RTVSPropertyOp0
 70
     1
102
RTVSPropertyOp1
 70
     1
102
RTVSPropertyOp2
 70
     1
102
RTVSPropertyOp3
 70
     1
102
RTVSPropertyOp4
 70
     1
102
RTVSPropertyOp5
 70
     1
102
RTVSPropertyOp6
 70
     1
102
RTVSPropertyOp7
 70
     1
102
RTVSPropertyOp8
 70
     1
102
RTVSPropertyOp9
 70
     1
102
RTVSPropertyOp10
 70
     1
102
RTVSPropertyOp11
 70
     1
102
RTVSPropertyOp12
 70
     1
102
RTVSPropertyOp13
 70
     1
102
RTVSPropertyOp14
 70
     1
102
RTVSPropertyOp15
 70
     1
102
RTVSPropertyOp16
 70
     1
102
RTVSPropertyOp17
 70
     1
102
RTVSPropertyOp18
 70
     1
102
RTVSPropertyOp19
 70
     1
102
RTVSPropertyOp20
 70
     1
102
RTVSPropertyOp21
 70
     1
102
RTVSPropertyOp22
 70
     1
102
RTVSPropertyOp23
 70
     1
102
RTVSPropertyOp24
 70
     1
102
RTVSPropertyOp25
 70
     1
102
RTVSPropertyOp26
 70
     1
102
RTVSPropertyOp27
 70
     1
102
RTVSPropertyOp28
 70
     1
102
RTVSPropertyOp29
 70
     1
102
RTVSPropertyOp30
 70
     1
102
RTVSPropertyOp31
 70
     1
102
RTVSPropertyOp32
 70
     1
102
RTVSPropertyOp33
 70
     1
102
RTVSPropertyOp34
 70
     1
102
RTVSPropertyOp35
 70
     1
102
RTVSPropertyOp36
 70
     1
102
RTVSPropertyOp37
 70
     1
102
RTVSPropertyOp38
 70
     1
102
RTVSPropertyOp39
 70
     1
102
RTVSPropertyOp40
 70
     1
102
RTVSPropertyOp41
 70
     1
102
RTVSPropertyOp42
 70
     1
102
RTVSPropertyOp43
 70
     1
102
RTVSPropertyOp44
 70
     1
102
RTVSPropertyOp45
 70
     1
102
RTVSPropertyOp46
 70
     1
102
RTVSPropertyOp47
 70
     1
102
RTVSPropertyOp48
 70
     1
102
RTVSPropertyOp49
 70
     1
102
RTVSPropertyOp50
 70
     1
102
RTVSPropertyOp51
 70
     0
102
RTVSPropertyOp52
 70
     0
102
RTVSPropertyOp53
 70
     1
102
RTVSPropertyOp54
 70
     1
102
RTVSPropertyOp55
 70
     1
102
RTVSPropertyOp56
 70
     1
102
RTVSPropertyOp57
 70
     1
102
RTVSPost2010Prop28
280
     0
102
RTVSPost2010PropOp28
 70
     1
102
RTVSPost2010Prop29
280
     1
102
RTVSPost2010PropOp29
 70
     1
102
RTVSPost2010Prop30
280
     1
102
RTVSPost2010PropOp30
 70
     1
102
RTVSPost2010Prop31
280
     0
102
RTVSPost2010PropOp31
 70
     1
102
RTVSPost2010Prop32
280
     0
102
RTVSPost2010PropOp32
 70
     1
102
RTVSPost2010Prop33
280
     0
102
RTVSPost2010PropOp33
 70
     1
102
RTVSPost2010Prop34
280
     0
102
RTVSPost2010PropOp34
 70
     1
102
RTVSPost2010Prop35
280
     0
102
RTVSPost2010PropOp35
 70
     1
102
RTVSPost2010Prop36
280
     0
102
RTVSPost2010PropOp36
 70
     1
102
RTVSPost2010Prop37
 90
       50
102
RTVSPost2010PropOp37
 70
     1
102
RTVSPost2010Prop38
140
0.0
102
RTVSPost2010PropOp38
 70
     1
102
RTVSPost2010Prop39
140
1.0
102
RTVSPost2010PropOp39
 70
     1
102
RTVSPost2010Prop40
 90
        0
102
RTVSPost2010PropOp40
 70
     1
102
RTVSPost2010Prop41ColorIndex
 90
       18
102
RTVSPost2010Prop41ColorRGB
 90
        0
102
RTVSPost2010PropOp41
 70
     1
102
RTVSPost2010Prop42
 90
       50
102
RTVSPost2010PropOp42
 70
     1
102
RTVSPost2010Prop43
 90
        3
102
RTVSPost2010PropOp43
 70
     1
102
RTVSPost2010Prop44ColorIndex
 90
        5
102
RTVSPost2010Prop44ColorRGB
 90
      255
102
RTVSPost2010PropOp44
 70
     1
102
RTVSPost2010Prop45
280
     0
102
RTVSPost2010PropOp45
 70
     1
102
RTVSPost2010Prop46
 90
       50
102
RTVSPost2010PropOp46
 70
     1
102
RTVSPost2010Prop47
 90
       50
102
RTVSPost2010PropOp47
 70
     1
102
RTVSPost2010Prop48
 90
       50
102
RTVSPost2010PropOp48
 70
     1
102
RTVSPost2010Prop49
280
     0
102
RTVSPost2010PropOp49
 70
     1
102
RTVSPost2010Prop50
 90
       50
102
RTVSPost2010PropOp50
 70
     1
102
RTVSPost2010Prop51ColorIndex
 90
      256
102
RTVSPost2010Prop51ColorRGB
 90
-16777216
102
RTVSPost2010PropOp51
 70
     0
102
RTVSPost2010Prop52
140
1.0
102
RTVSPost2010PropOp52
 70
     0
102
RTVSPost2010Prop53
 90
        2
102
RTVSPost2010PropOp53
 70
     1
102
RTVSPost2010Prop54
  1
strokes_ogs.tif
102
RTVSPost2010PropOp54
 70
     1
102
RTVSPost2010Prop55
280
     0
102
RTVSPost2010PropOp55
 70
     1
102
RTVSPost2010Prop56
140
1.0
102
RTVSPost2010PropOp56
 70
     1
102
RTVSPost2010Prop57
140
1.0
102
RTVSPost2010PropOp57
 70
     1
  0
XRECORD
  5
2C5
102
{ACAD_REACTORS
330
2C4
102
}
330
2C4
100
AcDbXrecord
280
     1
102
RTVSPropertyOp0
 70
     1
102
RTVSPropertyOp1
 70
     1
102
RTVSPropertyOp2
 70
     1
102
RTVSPropertyOp3
 70
     1
102
RTVSPropertyOp4
 70
     1
102
RTVSPropertyOp5
 70
     1
102
RTVSPropertyOp6
 70
     1
102
RTVSPropertyOp7
 70
     1
102
RTVSPropertyOp8
 70
     1
102
RTVSPropertyOp9
 70
     1
102
RTVSPropertyOp10
 70
     1
102
RTVSPropertyOp11
 70
     1
102
RTVSPropertyOp12
 70
     1
102
RTVSPropertyOp13
 70
     1
102
RTVSPropertyOp14
 70
     1
102
RTVSPropertyOp15
 70
     1
102
RTVSPropertyOp16
 70
     1
102
RTVSPropertyOp17
 70
     1
102
RTVSPropertyOp18
 70
     1
102
RTVSPropertyOp19
 70
     1
102
RTVSPropertyOp20
 70
     1
102
RTVSPropertyOp21
 70
     1
102
RTVSPropertyOp22
 70
     1
102
RTVSPropertyOp23
 70
     1
102
RTVSPropertyOp24
 70
     1
102
RTVSPropertyOp25
 70
     1
102
RTVSPropertyOp26
 70
     1
102
RTVSPropertyOp27
 70
     1
102
RTVSPropertyOp28
 70
     1
102
RTVSPropertyOp29
 70
     1
102
RTVSPropertyOp30
 70
     1
102
RTVSPropertyOp31
 70
     1
102
RTVSPropertyOp32
 70
     1
102
RTVSPropertyOp33
 70
     1
102
RTVSPropertyOp34
 70
     1
102
RTVSPropertyOp35
 70
     1
102
RTVSPropertyOp36
 70
     1
102
RTVSPropertyOp37
 70
     1
102
RTVSPropertyOp38
 70
     1
102
RTVSPropertyOp39
 70
     1
102
RTVSPropertyOp40
 70
     1
102
RTVSPropertyOp41
 70
     1
102
RTVSPropertyOp42
 70
     1
102
RTVSPropertyOp43
 70
     1
102
RTVSPropertyOp44
 70
     1
102
RTVSPropertyOp45
 70
     1
102
RTVSPropertyOp46
 70
     1
102
RTVSPropertyOp47
 70
     1
102
RTVSPropertyOp48
 70
     1
102
RTVSPropertyOp49
 70
     1
102
RTVSPropertyOp50
 70
     1
102
RTVSPropertyOp51
 70
     0
102
RTVSPropertyOp52
 70
     0
102
RTVSPropertyOp53
 70
     1
102
RTVSPropertyOp54
 70
     1
102
RTVSPropertyOp55
 70
     1
102
RTVSPropertyOp56
 70
     1
102
RTVSPropertyOp57
 70
     1
102
RTVSPost2010Prop28
280
     0
102
RTVSPost2010PropOp28
 70
     1
102
RTVSPost2010Prop29
280
     1
102
RTVSPost2010PropOp29
 70
     1
102
RTVSPost2010Prop30
280
     1
102
RTVSPost2010PropOp30
 70
     1
102
RTVSPost2010Prop31
280
     0
102
RTVSPost2010PropOp31
 70
     1
102
RTVSPost2010Prop32
280
     0
102
RTVSPost2010PropOp32
 70
     1
102
RTVSPost2010Prop33
280
     0
102
RTVSPost2010PropOp33
 70
     1
102
RTVSPost2010Prop34
280
     0
102
RTVSPost2010PropOp34
 70
     1
102
RTVSPost2010Prop35
280
     0
102
RTVSPost2010PropOp35
 70
     1
102
RTVSPost2010Prop36
280
     0
102
RTVSPost2010PropOp36
 70
     1
102
RTVSPost2010Prop37
 90
       50
102
RTVSPost2010PropOp37
 70
     1
102
RTVSPost2010Prop38
140
0.0
102
RTVSPost2010PropOp38
 70
     1
102
RTVSPost2010Prop39
140
1.0
102
RTVSPost2010PropOp39
 70
     1
102
RTVSPost2010Prop40
 90
        0
102
RTVSPost2010PropOp40
 70
     1
102
RTVSPost2010Prop41ColorIndex
 90
       18
102
RTVSPost2010Prop41ColorRGB
 90
        0
102
RTVSPost2010PropOp41
 70
     1
102
RTVSPost2010Prop42
 90
       50
102
RTVSPost2010PropOp42
 70
     1
102
RTVSPost2010Prop43
 90
        3
102
RTVSPost2010PropOp43
 70
     1
102
RTVSPost2010Prop44ColorIndex
 90
        5
102
RTVSPost2010Prop44ColorRGB
 90
      255
102
RTVSPost2010PropOp44
 70
     1
102
RTVSPost2010Prop45
280
     0
102
RTVSPost2010PropOp45
 70
     1
102
RTVSPost2010Prop46
 90
       50
102
RTVSPost2010PropOp46
 70
     1
102
RTVSPost2010Prop47
 90
       50
102
RTVSPost2010PropOp47
 70
     1
102
RTVSPost2010Prop48
 90
       50
102
RTVSPost2010PropOp48
 70
     1
102
RTVSPost2010Prop49
280
     0
102
RTVSPost2010PropOp49
 70
     1
102
RTVSPost2010Prop50
 90
       50
102
RTVSPost2010PropOp50
 70
     1
102
RTVSPost2010Prop51ColorIndex
 90
      256
102
RTVSPost2010Prop51ColorRGB
 90
-16777216
102
RTVSPost2010PropOp51
 70
     0
102
RTVSPost2010Prop52
140
1.0
102
RTVSPost2010PropOp52
 70
     0
102
RTVSPost2010Prop53
 90
        2
102
RTVSPost2010PropOp53
 70
     1
102
RTVSPost2010Prop54
  1
strokes_ogs.tif
102
RTVSPost2010PropOp54
 70
     1
102
RTVSPost2010Prop55
280
     0
102
RTVSPost2010PropOp55
 70
     1
102
RTVSPost2010Prop56
140
1.0
102
RTVSPost2010PropOp56
 70
     1
102
RTVSPost2010Prop57
140
1.0
102
RTVSPost2010PropOp57
 70
     1
  0
XRECORD
  5
2C7
102
{ACAD_REACTORS
330
2C6
102
}
330
2C6
100
AcDbXrecord
280
     1
102
RTVSPropertyOp0
 70
     1
102
RTVSPropertyOp1
 70
     1
102
RTVSPropertyOp2
 70
     1
102
RTVSPropertyOp3
 70
     1
102
RTVSPropertyOp4
 70
     1
102
RTVSPropertyOp5
 70
     1
102
RTVSPropertyOp6
 70
     1
102
RTVSPropertyOp7
 70
     1
102
RTVSPropertyOp8
 70
     1
102
RTVSPropertyOp9
 70
     1
102
RTVSPropertyOp10
 70
     1
102
RTVSPropertyOp11
 70
     1
102
RTVSPropertyOp12
 70
     1
102
RTVSPropertyOp13
 70
     1
102
RTVSPropertyOp14
 70
     1
102
RTVSPropertyOp15
 70
     1
102
RTVSPropertyOp16
 70
     1
102
RTVSPropertyOp17
 70
     1
102
RTVSPropertyOp18
 70
     1
102
RTVSPropertyOp19
 70
     1
102
RTVSPropertyOp20
 70
     1
102
RTVSPropertyOp21
 70
     1
102
RTVSPropertyOp22
 70
     1
102
RTVSPropertyOp23
 70
     1
102
RTVSPropertyOp24
 70
     1
102
RTVSPropertyOp25
 70
     1
102
RTVSPropertyOp26
 70
     1
102
RTVSPropertyOp27
 70
     1
102
RTVSPropertyOp28
 70
     1
102
RTVSPropertyOp29
 70
     1
102
RTVSPropertyOp30
 70
     1
102
RTVSPropertyOp31
 70
     1
102
RTVSPropertyOp32
 70
     1
102
RTVSPropertyOp33
 70
     1
102
RTVSPropertyOp34
 70
     1
102
RTVSPropertyOp35
 70
     1
102
RTVSPropertyOp36
 70
     1
102
RTVSPropertyOp37
 70
     1
102
RTVSPropertyOp38
 70
     1
102
RTVSPropertyOp39
 70
     1
102
RTVSPropertyOp40
 70
     1
102
RTVSPropertyOp41
 70
     1
102
RTVSPropertyOp42
 70
     1
102
RTVSPropertyOp43
 70
     1
102
RTVSPropertyOp44
 70
     1
102
RTVSPropertyOp45
 70
     1
102
RTVSPropertyOp46
 70
     1
102
RTVSPropertyOp47
 70
     1
102
RTVSPropertyOp48
 70
     1
102
RTVSPropertyOp49
 70
     1
102
RTVSPropertyOp50
 70
     1
102
RTVSPropertyOp51
 70
     0
102
RTVSPropertyOp52
 70
     0
102
RTVSPropertyOp53
 70
     1
102
RTVSPropertyOp54
 70
     1
102
RTVSPropertyOp55
 70
     1
102
RTVSPropertyOp56
 70
     1
102
RTVSPropertyOp57
 70
     1
102
RTVSPost2010Prop28
280
     0
102
RTVSPost2010PropOp28
 70
     1
102
RTVSPost2010Prop29
280
     1
102
RTVSPost2010PropOp29
 70
     1
102
RTVSPost2010Prop30
280
     1
102
RTVSPost2010PropOp30
 70
     1
102
RTVSPost2010Prop31
280
     0
102
RTVSPost2010PropOp31
 70
     1
102
RTVSPost2010Prop32
280
     0
102
RTVSPost2010PropOp32
 70
     1
102
RTVSPost2010Prop33
280
     0
102
RTVSPost2010PropOp33
 70
     1
102
RTVSPost2010Prop34
280
     0
102
RTVSPost2010PropOp34
 70
     1
102
RTVSPost2010Prop35
280
     0
102
RTVSPost2010PropOp35
 70
     1
102
RTVSPost2010Prop36
280
     0
102
RTVSPost2010PropOp36
 70
     1
102
RTVSPost2010Prop37
 90
       50
102
RTVSPost2010PropOp37
 70
     1
102
RTVSPost2010Prop38
140
0.0
102
RTVSPost2010PropOp38
 70
     1
102
RTVSPost2010Prop39
140
1.0
102
RTVSPost2010PropOp39
 70
     1
102
RTVSPost2010Prop40
 90
        0
102
RTVSPost2010PropOp40
 70
     1
102
RTVSPost2010Prop41ColorIndex
 90
       18
102
RTVSPost2010Prop41ColorRGB
 90
        0
102
RTVSPost2010PropOp41
 70
     1
102
RTVSPost2010Prop42
 90
       50
102
RTVSPost2010PropOp42
 70
     1
102
RTVSPost2010Prop43
 90
        3
102
RTVSPost2010PropOp43
 70
     1
102
RTVSPost2010Prop44ColorIndex
 90
        5
102
RTVSPost2010Prop44ColorRGB
 90
      255
102
RTVSPost2010PropOp44
 70
     1
102
RTVSPost2010Prop45
280
     0
102
RTVSPost2010PropOp45
 70
     1
102
RTVSPost2010Prop46
 90
       50
102
RTVSPost2010PropOp46
 70
     1
102
RTVSPost2010Prop47
 90
       50
102
RTVSPost2010PropOp47
 70
     1
102
RTVSPost2010Prop48
 90
       50
102
RTVSPost2010PropOp48
 70
     1
102
RTVSPost2010Prop49
280
     0
102
RTVSPost2010PropOp49
 70
     1
102
RTVSPost2010Prop50
 90
       50
102
RTVSPost2010PropOp50
 70
     1
102
RTVSPost2010Prop51ColorIndex
 90
      256
102
RTVSPost2010Prop51ColorRGB
 90
-16777216
102
RTVSPost2010PropOp51
 70
     0
102
RTVSPost2010Prop52
140
1.0
102
RTVSPost2010PropOp52
 70
     0
102
RTVSPost2010Prop53
 90
        2
102
RTVSPost2010PropOp53
 70
     1
102
RTVSPost2010Prop54
  1
strokes_ogs.tif
102
RTVSPost2010PropOp54
 70
     1
102
RTVSPost2010Prop55
280
     0
102
RTVSPost2010PropOp55
 70
     1
102
RTVSPost2010Prop56
140
1.0
102
RTVSPost2010PropOp56
 70
     1
102
RTVSPost2010Prop57
140
1.0
102
RTVSPost2010PropOp57
 70
     1
  0
XRECORD
  5
2C9
102
{ACAD_REACTORS
330
2C8
102
}
330
2C8
100
AcDbXrecord
280
     1
102
RTVSPropertyOp0
 70
     1
102
RTVSPropertyOp1
 70
     1
102
RTVSPropertyOp2
 70
     1
102
RTVSPropertyOp3
 70
     1
102
RTVSPropertyOp4
 70
     1
102
RTVSPropertyOp5
 70
     1
102
RTVSPropertyOp6
 70
     1
102
RTVSPropertyOp7
 70
     1
102
RTVSPropertyOp8
 70
     1
102
RTVSPropertyOp9
 70
     1
102
RTVSPropertyOp10
 70
     1
102
RTVSPropertyOp11
 70
     1
102
RTVSPropertyOp12
 70
     1
102
RTVSPropertyOp13
 70
     1
102
RTVSPropertyOp14
 70
     1
102
RTVSPropertyOp15
 70
     1
102
RTVSPropertyOp16
 70
     1
102
RTVSPropertyOp17
 70
     1
102
RTVSPropertyOp18
 70
     1
102
RTVSPropertyOp19
 70
     1
102
RTVSPropertyOp20
 70
     1
102
RTVSPropertyOp21
 70
     1
102
RTVSPropertyOp22
 70
     1
102
RTVSPropertyOp23
 70
     1
102
RTVSPropertyOp24
 70
     1
102
RTVSPropertyOp25
 70
     1
102
RTVSPropertyOp26
 70
     1
102
RTVSPropertyOp27
 70
     1
102
RTVSPropertyOp28
 70
     1
102
RTVSPropertyOp29
 70
     1
102
RTVSPropertyOp30
 70
     1
102
RTVSPropertyOp31
 70
     1
102
RTVSPropertyOp32
 70
     1
102
RTVSPropertyOp33
 70
     1
102
RTVSPropertyOp34
 70
     1
102
RTVSPropertyOp35
 70
     1
102
RTVSPropertyOp36
 70
     1
102
RTVSPropertyOp37
 70
     1
102
RTVSPropertyOp38
 70
     1
102
RTVSPropertyOp39
 70
     1
102
RTVSPropertyOp40
 70
     1
102
RTVSPropertyOp41
 70
     1
102
RTVSPropertyOp42
 70
     1
102
RTVSPropertyOp43
 70
     1
102
RTVSPropertyOp44
 70
     1
102
RTVSPropertyOp45
 70
     1
102
RTVSPropertyOp46
 70
     1
102
RTVSPropertyOp47
 70
     1
102
RTVSPropertyOp48
 70
     1
102
RTVSPropertyOp49
 70
     1
102
RTVSPropertyOp50
 70
     1
102
RTVSPropertyOp51
 70
     0
102
RTVSPropertyOp52
 70
     0
102
RTVSPropertyOp53
 70
     1
102
RTVSPropertyOp54
 70
     1
102
RTVSPropertyOp55
 70
     1
102
RTVSPropertyOp56
 70
     1
102
RTVSPropertyOp57
 70
     1
102
RTVSPost2010Prop28
280
     0
102
RTVSPost2010PropOp28
 70
     1
102
RTVSPost2010Prop29
280
     1
102
RTVSPost2010PropOp29
 70
     1
102
RTVSPost2010Prop30
280
     1
102
RTVSPost2010PropOp30
 70
     1
102
RTVSPost2010Prop31
280
     0
102
RTVSPost2010PropOp31
 70
     1
102
RTVSPost2010Prop32
280
     0
102
RTVSPost2010PropOp32
 70
     1
102
RTVSPost2010Prop33
280
     0
102
RTVSPost2010PropOp33
 70
     1
102
RTVSPost2010Prop34
280
     0
102
RTVSPost2010PropOp34
 70
     1
102
RTVSPost2010Prop35
280
     0
102
RTVSPost2010PropOp35
 70
     1
102
RTVSPost2010Prop36
280
     0
102
RTVSPost2010PropOp36
 70
     1
102
RTVSPost2010Prop37
 90
       50
102
RTVSPost2010PropOp37
 70
     1
102
RTVSPost2010Prop38
140
0.0
102
RTVSPost2010PropOp38
 70
     1
102
RTVSPost2010Prop39
140
1.0
102
RTVSPost2010PropOp39
 70
     1
102
RTVSPost2010Prop40
 90
        0
102
RTVSPost2010PropOp40
 70
     1
102
RTVSPost2010Prop41ColorIndex
 90
       18
102
RTVSPost2010Prop41ColorRGB
 90
        0
102
RTVSPost2010PropOp41
 70
     1
102
RTVSPost2010Prop42
 90
       50
102
RTVSPost2010PropOp42
 70
     1
102
RTVSPost2010Prop43
 90
        3
102
RTVSPost2010PropOp43
 70
     1
102
RTVSPost2010Prop44ColorIndex
 90
        5
102
RTVSPost2010Prop44ColorRGB
 90
      255
102
RTVSPost2010PropOp44
 70
     1
102
RTVSPost2010Prop45
280
     0
102
RTVSPost2010PropOp45
 70
     1
102
RTVSPost2010Prop46
 90
       50
102
RTVSPost2010PropOp46
 70
     1
102
RTVSPost2010Prop47
 90
       50
102
RTVSPost2010PropOp47
 70
     1
102
RTVSPost2010Prop48
 90
       50
102
RTVSPost2010PropOp48
 70
     1
102
RTVSPost2010Prop49
280
     0
102
RTVSPost2010PropOp49
 70
     1
102
RTVSPost2010Prop50
 90
       50
102
RTVSPost2010PropOp50
 70
     1
102
RTVSPost2010Prop51ColorIndex
 90
      256
102
RTVSPost2010Prop51ColorRGB
 90
-16777216
102
RTVSPost2010PropOp51
 70
     0
102
RTVSPost2010Prop52
140
1.0
102
RTVSPost2010PropOp52
 70
     0
102
RTVSPost2010Prop53
 90
        2
102
RTVSPost2010PropOp53
 70
     1
102
RTVSPost2010Prop54
  1
strokes_ogs.tif
102
RTVSPost2010PropOp54
 70
     1
102
RTVSPost2010Prop55
280
     0
102
RTVSPost2010PropOp55
 70
     1
102
RTVSPost2010Prop56
140
1.0
102
RTVSPost2010PropOp56
 70
     1
102
RTVSPost2010Prop57
140
1.0
102
RTVSPost2010PropOp57
 70
     1
  0
XRECORD
  5
2CF
102
{ACAD_REACTORS
330
2CE
102
}
330
2CE
100
AcDbXrecord
280
     1
102
RTVSPropertyOp0
 70
     1
102
RTVSPropertyOp1
 70
     1
102
RTVSPropertyOp2
 70
     1
102
RTVSPropertyOp3
 70
     1
102
RTVSPropertyOp4
 70
     1
102
RTVSPropertyOp5
 70
     1
102
RTVSPropertyOp6
 70
     1
102
RTVSPropertyOp7
 70
     1
102
RTVSPropertyOp8
 70
     1
102
RTVSPropertyOp9
 70
     1
102
RTVSPropertyOp10
 70
     1
102
RTVSPropertyOp11
 70
     1
102
RTVSPropertyOp12
 70
     1
102
RTVSPropertyOp13
 70
     1
102
RTVSPropertyOp14
 70
     1
102
RTVSPropertyOp15
 70
     1
102
RTVSPropertyOp16
 70
     1
102
RTVSPropertyOp17
 70
     1
102
RTVSPropertyOp18
 70
     1
102
RTVSPropertyOp19
 70
     1
102
RTVSPropertyOp20
 70
     1
102
RTVSPropertyOp21
 70
     1
102
RTVSPropertyOp22
 70
     1
102
RTVSPropertyOp23
 70
     1
102
RTVSPropertyOp24
 70
     1
102
RTVSPropertyOp25
 70
     1
102
RTVSPropertyOp26
 70
     1
102
RTVSPropertyOp27
 70
     1
102
RTVSPropertyOp28
 70
     1
102
RTVSPropertyOp29
 70
     1
102
RTVSPropertyOp30
 70
     1
102
RTVSPropertyOp31
 70
     1
102
RTVSPropertyOp32
 70
     1
102
RTVSPropertyOp33
 70
     1
102
RTVSPropertyOp34
 70
     1
102
RTVSPropertyOp35
 70
     1
102
RTVSPropertyOp36
 70
     1
102
RTVSPropertyOp37
 70
     1
102
RTVSPropertyOp38
 70
     1
102
RTVSPropertyOp39
 70
     1
102
RTVSPropertyOp40
 70
     1
102
RTVSPropertyOp41
 70
     1
102
RTVSPropertyOp42
 70
     1
102
RTVSPropertyOp43
 70
     1
102
RTVSPropertyOp44
 70
     1
102
RTVSPropertyOp45
 70
     1
102
RTVSPropertyOp46
 70
     1
102
RTVSPropertyOp47
 70
     1
102
RTVSPropertyOp48
 70
     1
102
RTVSPropertyOp49
 70
     1
102
RTVSPropertyOp50
 70
     1
102
RTVSPropertyOp51
 70
     0
102
RTVSPropertyOp52
 70
     0
102
RTVSPropertyOp53
 70
     1
102
RTVSPropertyOp54
 70
     1
102
RTVSPropertyOp55
 70
     1
102
RTVSPropertyOp56
 70
     1
102
RTVSPropertyOp57
 70
     1
102
RTVSPost2010Prop28
280
     0
102
RTVSPost2010PropOp28
 70
     1
102
RTVSPost2010Prop29
280
     1
102
RTVSPost2010PropOp29
 70
     1
102
RTVSPost2010Prop30
280
     1
102
RTVSPost2010PropOp30
 70
     1
102
RTVSPost2010Prop31
280
     0
102
RTVSPost2010PropOp31
 70
     1
102
RTVSPost2010Prop32
280
     0
102
RTVSPost2010PropOp32
 70
     1
102
RTVSPost2010Prop33
280
     0
102
RTVSPost2010PropOp33
 70
     1
102
RTVSPost2010Prop34
280
     0
102
RTVSPost2010PropOp34
 70
     1
102
RTVSPost2010Prop35
280
     0
102
RTVSPost2010PropOp35
 70
     1
102
RTVSPost2010Prop36
280
     0
102
RTVSPost2010PropOp36
 70
     1
102
RTVSPost2010Prop37
 90
       50
102
RTVSPost2010PropOp37
 70
     1
102
RTVSPost2010Prop38
140
0.0
102
RTVSPost2010PropOp38
 70
     1
102
RTVSPost2010Prop39
140
1.0
102
RTVSPost2010PropOp39
 70
     1
102
RTVSPost2010Prop40
 90
        0
102
RTVSPost2010PropOp40
 70
     1
102
RTVSPost2010Prop41ColorIndex
 90
       18
102
RTVSPost2010Prop41ColorRGB
 90
        0
102
RTVSPost2010PropOp41
 70
     1
102
RTVSPost2010Prop42
 90
       50
102
RTVSPost2010PropOp42
 70
     1
102
RTVSPost2010Prop43
 90
        3
102
RTVSPost2010PropOp43
 70
     1
102
RTVSPost2010Prop44ColorIndex
 90
        5
102
RTVSPost2010Prop44ColorRGB
 90
      255
102
RTVSPost2010PropOp44
 70
     1
102
RTVSPost2010Prop45
280
     0
102
RTVSPost2010PropOp45
 70
     1
102
RTVSPost2010Prop46
 90
       50
102
RTVSPost2010PropOp46
 70
     1
102
RTVSPost2010Prop47
 90
       50
102
RTVSPost2010PropOp47
 70
     1
102
RTVSPost2010Prop48
 90
       50
102
RTVSPost2010PropOp48
 70
     1
102
RTVSPost2010Prop49
280
     0
102
RTVSPost2010PropOp49
 70
     1
102
RTVSPost2010Prop50
 90
       50
102
RTVSPost2010PropOp50
 70
     1
102
RTVSPost2010Prop51ColorIndex
 90
      256
102
RTVSPost2010Prop51ColorRGB
 90
-16777216
102
RTVSPost2010PropOp51
 70
     0
102
RTVSPost2010Prop52
140
1.0
102
RTVSPost2010PropOp52
 70
     0
102
RTVSPost2010Prop53
 90
        2
102
RTVSPost2010PropOp53
 70
     1
102
RTVSPost2010Prop54
  1
strokes_ogs.tif
102
RTVSPost2010PropOp54
 70
     1
102
RTVSPost2010Prop55
280
     0
102
RTVSPost2010PropOp55
 70
     1
102
RTVSPost2010Prop56
140
1.0
102
RTVSPost2010PropOp56
 70
     1
102
RTVSPost2010Prop57
140
1.0
102
RTVSPost2010PropOp57
 70
     1
  0
XRECORD
  5
2E3
102
{ACAD_REACTORS
330
2E2
102
}
330
2E2
100
AcDbXrecord
280
     1
102
RTVSPropertyOp0
 70
     0
102
RTVSPropertyOp1
 70
     0
102
RTVSPropertyOp2
 70
     0
102
RTVSPropertyOp3
 70
     0
102
RTVSPropertyOp4
 70
     0
102
RTVSPropertyOp5
 70
     0
102
RTVSPropertyOp6
 70
     0
102
RTVSPropertyOp7
 70
     0
102
RTVSPropertyOp8
 70
     0
102
RTVSPropertyOp9
 70
     0
102
RTVSPropertyOp10
 70
     0
102
RTVSPropertyOp11
 70
     0
102
RTVSPropertyOp12
 70
     0
102
RTVSPropertyOp13
 70
     0
102
RTVSPropertyOp14
 70
     2
102
RTVSPropertyOp15
 70
     0
102
RTVSPropertyOp16
 70
     0
102
RTVSPropertyOp17
 70
     0
102
RTVSPropertyOp18
 70
     0
102
RTVSPropertyOp19
 70
     0
102
RTVSPropertyOp20
 70
     0
102
RTVSPropertyOp21
 70
     0
102
RTVSPropertyOp22
 70
     0
102
RTVSPropertyOp23
 70
     0
102
RTVSPropertyOp24
 70
     0
102
RTVSPropertyOp25
 70
     0
102
RTVSPropertyOp26
 70
     0
102
RTVSPropertyOp27
 70
     0
102
RTVSPropertyOp28
 70
     0
102
RTVSPropertyOp29
 70
     0
102
RTVSPropertyOp30
 70
     0
102
RTVSPropertyOp31
 70
     0
102
RTVSPropertyOp32
 70
     0
102
RTVSPropertyOp33
 70
     0
102
RTVSPropertyOp34
 70
     0
102
RTVSPropertyOp35
 70
     0
102
RTVSPropertyOp36
 70
     0
102
RTVSPropertyOp37
 70
     0
102
RTVSPropertyOp38
 70
     0
102
RTVSPropertyOp39
 70
     0
102
RTVSPropertyOp40
 70
     0
102
RTVSPropertyOp41
 70
     0
102
RTVSPropertyOp42
 70
     0
102
RTVSPropertyOp43
 70
     0
102
RTVSPropertyOp44
 70
     0
102
RTVSPropertyOp45
 70
     0
102
RTVSPropertyOp46
 70
     0
102
RTVSPropertyOp47
 70
     0
102
RTVSPropertyOp48
 70
     0
102
RTVSPropertyOp49
 70
     0
102
RTVSPropertyOp50
 70
     0
102
RTVSPropertyOp51
 70
     0
102
RTVSPropertyOp52
 70
     0
102
RTVSPropertyOp53
 70
     0
102
RTVSPropertyOp54
 70
     0
102
RTVSPropertyOp55
 70
     0
102
RTVSPropertyOp56
 70
     0
102
RTVSPropertyOp57
 70
     0
102
RTVSPost2010Prop28
280
     0
102
RTVSPost2010PropOp28
 70
     0
102
RTVSPost2010Prop29
280
     1
102
RTVSPost2010PropOp29
 70
     0
102
RTVSPost2010Prop30
280
     1
102
RTVSPost2010PropOp30
 70
     0
102
RTVSPost2010Prop31
280
     0
102
RTVSPost2010PropOp31
 70
     0
102
RTVSPost2010Prop32
280
     0
102
RTVSPost2010PropOp32
 70
     0
102
RTVSPost2010Prop33
280
     0
102
RTVSPost2010PropOp33
 70
     0
102
RTVSPost2010Prop34
280
     0
102
RTVSPost2010PropOp34
 70
     0
102
RTVSPost2010Prop35
280
     0
102
RTVSPost2010PropOp35
 70
     0
102
RTVSPost2010Prop36
280
     0
102
RTVSPost2010PropOp36
 70
     0
102
RTVSPost2010Prop37
 90
       50
102
RTVSPost2010PropOp37
 70
     0
102
RTVSPost2010Prop38
140
0.0
102
RTVSPost2010PropOp38
 70
     0
102
RTVSPost2010Prop39
140
1.0
102
RTVSPost2010PropOp39
 70
     0
102
RTVSPost2010Prop40
 90
        0
102
RTVSPost2010PropOp40
 70
     0
102
RTVSPost2010Prop41ColorIndex
 90
       18
102
RTVSPost2010Prop41ColorRGB
 90
        0
102
RTVSPost2010PropOp41
 70
     0
102
RTVSPost2010Prop42
 90
       50
102
RTVSPost2010PropOp42
 70
     0
102
RTVSPost2010Prop43
 90
        3
102
RTVSPost2010PropOp43
 70
     0
102
RTVSPost2010Prop44ColorIndex
 90
        5
102
RTVSPost2010Prop44ColorRGB
 90
      255
102
RTVSPost2010PropOp44
 70
     0
102
RTVSPost2010Prop45
280
     0
102
RTVSPost2010PropOp45
 70
     0
102
RTVSPost2010Prop46
 90
       50
102
RTVSPost2010PropOp46
 70
     0
102
RTVSPost2010Prop47
 90
       50
102
RTVSPost2010PropOp47
 70
     0
102
RTVSPost2010Prop48
 90
       50
102
RTVSPost2010PropOp48
 70
     0
102
RTVSPost2010Prop49
280
     0
102
RTVSPost2010PropOp49
 70
     0
102
RTVSPost2010Prop50
 90
       50
102
RTVSPost2010PropOp50
 70
     0
102
RTVSPost2010Prop51ColorIndex
 90
      256
102
RTVSPost2010Prop51ColorRGB
 90
-16777216
102
RTVSPost2010PropOp51
 70
     0
102
RTVSPost2010Prop52
140
1.0
102
RTVSPost2010PropOp52
 70
     0
102
RTVSPost2010Prop53
 90
        2
102
RTVSPost2010PropOp53
 70
     0
102
RTVSPost2010Prop54
  1
strokes_ogs.tif
102
RTVSPost2010PropOp54
 70
     0
102
RTVSPost2010Prop55
280
     0
102
RTVSPost2010PropOp55
 70
     0
102
RTVSPost2010Prop56
140
1.0
102
RTVSPost2010PropOp56
 70
     0
102
RTVSPost2010Prop57
140
1.0
102
RTVSPost2010PropOp57
 70
     0
  0
XRECORD
  5
2DD
102
{ACAD_REACTORS
330
2DC
102
}
330
2DC
100
AcDbXrecord
280
     1
102
RTVSPropertyOp0
 70
     1
102
RTVSPropertyOp1
 70
     1
102
RTVSPropertyOp2
 70
     1
102
RTVSPropertyOp3
 70
     1
102
RTVSPropertyOp4
 70
     1
102
RTVSPropertyOp5
 70
     1
102
RTVSPropertyOp6
 70
     1
102
RTVSPropertyOp7
 70
     1
102
RTVSPropertyOp8
 70
     1
102
RTVSPropertyOp9
 70
     1
102
RTVSPropertyOp10
 70
     1
102
RTVSPropertyOp11
 70
     1
102
RTVSPropertyOp12
 70
     1
102
RTVSPropertyOp13
 70
     1
102
RTVSPropertyOp14
 70
     1
102
RTVSPropertyOp15
 70
     1
102
RTVSPropertyOp16
 70
     1
102
RTVSPropertyOp17
 70
     1
102
RTVSPropertyOp18
 70
     1
102
RTVSPropertyOp19
 70
     1
102
RTVSPropertyOp20
 70
     1
102
RTVSPropertyOp21
 70
     1
102
RTVSPropertyOp22
 70
     1
102
RTVSPropertyOp23
 70
     1
102
RTVSPropertyOp24
 70
     1
102
RTVSPropertyOp25
 70
     1
102
RTVSPropertyOp26
 70
     1
102
RTVSPropertyOp27
 70
     1
102
RTVSPropertyOp28
 70
     1
102
RTVSPropertyOp29
 70
     1
102
RTVSPropertyOp30
 70
     1
102
RTVSPropertyOp31
 70
     1
102
RTVSPropertyOp32
 70
     1
102
RTVSPropertyOp33
 70
     1
102
RTVSPropertyOp34
 70
     1
102
RTVSPropertyOp35
 70
     1
102
RTVSPropertyOp36
 70
     1
102
RTVSPropertyOp37
 70
     1
102
RTVSPropertyOp38
 70
     1
102
RTVSPropertyOp39
 70
     1
102
RTVSPropertyOp40
 70
     1
102
RTVSPropertyOp41
 70
     1
102
RTVSPropertyOp42
 70
     1
102
RTVSPropertyOp43
 70
     1
102
RTVSPropertyOp44
 70
     1
102
RTVSPropertyOp45
 70
     1
102
RTVSPropertyOp46
 70
     1
102
RTVSPropertyOp47
 70
     1
102
RTVSPropertyOp48
 70
     1
102
RTVSPropertyOp49
 70
     1
102
RTVSPropertyOp50
 70
     1
102
RTVSPropertyOp51
 70
     0
102
RTVSPropertyOp52
 70
     0
102
RTVSPropertyOp53
 70
     1
102
RTVSPropertyOp54
 70
     1
102
RTVSPropertyOp55
 70
     1
102
RTVSPropertyOp56
 70
     1
102
RTVSPropertyOp57
 70
     1
102
RTVSPost2010Prop28
280
     0
102
RTVSPost2010PropOp28
 70
     1
102
RTVSPost2010Prop29
280
     1
102
RTVSPost2010PropOp29
 70
     1
102
RTVSPost2010Prop30
280
     1
102
RTVSPost2010PropOp30
 70
     1
102
RTVSPost2010Prop31
280
     0
102
RTVSPost2010PropOp31
 70
     1
102
RTVSPost2010Prop32
280
     0
102
RTVSPost2010PropOp32
 70
     1
102
RTVSPost2010Prop33
280
     0
102
RTVSPost2010PropOp33
 70
     1
102
RTVSPost2010Prop34
280
     0
102
RTVSPost2010PropOp34
 70
     1
102
RTVSPost2010Prop35
280
     0
102
RTVSPost2010PropOp35
 70
     1
102
RTVSPost2010Prop36
280
     0
102
RTVSPost2010PropOp36
 70
     1
102
RTVSPost2010Prop37
 90
       50
102
RTVSPost2010PropOp37
 70
     1
102
RTVSPost2010Prop38
140
0.0
102
RTVSPost2010PropOp38
 70
     1
102
RTVSPost2010Prop39
140
1.0
102
RTVSPost2010PropOp39
 70
     1
102
RTVSPost2010Prop40
 90
        0
102
RTVSPost2010PropOp40
 70
     1
102
RTVSPost2010Prop41ColorIndex
 90
       18
102
RTVSPost2010Prop41ColorRGB
 90
        0
102
RTVSPost2010PropOp41
 70
     1
102
RTVSPost2010Prop42
 90
       50
102
RTVSPost2010PropOp42
 70
     1
102
RTVSPost2010Prop43
 90
        3
102
RTVSPost2010PropOp43
 70
     1
102
RTVSPost2010Prop44ColorIndex
 90
        5
102
RTVSPost2010Prop44ColorRGB
 90
      255
102
RTVSPost2010PropOp44
 70
     1
102
RTVSPost2010Prop45
280
     0
102
RTVSPost2010PropOp45
 70
     1
102
RTVSPost2010Prop46
 90
       50
102
RTVSPost2010PropOp46
 70
     1
102
RTVSPost2010Prop47
 90
       50
102
RTVSPost2010PropOp47
 70
     1
102
RTVSPost2010Prop48
 90
       50
102
RTVSPost2010PropOp48
 70
     1
102
RTVSPost2010Prop49
280
     0
102
RTVSPost2010PropOp49
 70
     1
102
RTVSPost2010Prop50
 90
       50
102
RTVSPost2010PropOp50
 70
     1
102
RTVSPost2010Prop51ColorIndex
 90
      256
102
RTVSPost2010Prop51ColorRGB
 90
-16777216
102
RTVSPost2010PropOp51
 70
     0
102
RTVSPost2010Prop52
140
1.0
102
RTVSPost2010PropOp52
 70
     0
102
RTVSPost2010Prop53
 90
        2
102
RTVSPost2010PropOp53
 70
     1
102
RTVSPost2010Prop54
  1
strokes_ogs.tif
102
RTVSPost2010PropOp54
 70
     1
102
RTVSPost2010Prop55
280
     0
102
RTVSPost2010PropOp55
 70
     1
102
RTVSPost2010Prop56
140
1.0
102
RTVSPost2010PropOp56
 70
     1
102
RTVSPost2010Prop57
140
1.0
102
RTVSPost2010PropOp57
 70
     1
  0
XRECORD
  5
2E5
102
{ACAD_REACTORS
330
2E4
102
}
330
2E4
100
AcDbXrecord
280
     1
102
RTVSPropertyOp0
 70
     0
102
RTVSPropertyOp1
 70
     0
102
RTVSPropertyOp2
 70
     0
102
RTVSPropertyOp3
 70
     0
102
RTVSPropertyOp4
 70
     0
102
RTVSPropertyOp5
 70
     0
102
RTVSPropertyOp6
 70
     0
102
RTVSPropertyOp7
 70
     0
102
RTVSPropertyOp8
 70
     0
102
RTVSPropertyOp9
 70
     0
102
RTVSPropertyOp10
 70
     0
102
RTVSPropertyOp11
 70
     0
102
RTVSPropertyOp12
 70
     0
102
RTVSPropertyOp13
 70
     0
102
RTVSPropertyOp14
 70
     2
102
RTVSPropertyOp15
 70
     0
102
RTVSPropertyOp16
 70
     0
102
RTVSPropertyOp17
 70
     0
102
RTVSPropertyOp18
 70
     0
102
RTVSPropertyOp19
 70
     0
102
RTVSPropertyOp20
 70
     0
102
RTVSPropertyOp21
 70
     0
102
RTVSPropertyOp22
 70
     0
102
RTVSPropertyOp23
 70
     0
102
RTVSPropertyOp24
 70
     0
102
RTVSPropertyOp25
 70
     0
102
RTVSPropertyOp26
 70
     0
102
RTVSPropertyOp27
 70
     0
102
RTVSPropertyOp28
 70
     0
102
RTVSPropertyOp29
 70
     0
102
RTVSPropertyOp30
 70
     0
102
RTVSPropertyOp31
 70
     0
102
RTVSPropertyOp32
 70
     0
102
RTVSPropertyOp33
 70
     0
102
RTVSPropertyOp34
 70
     0
102
RTVSPropertyOp35
 70
     0
102
RTVSPropertyOp36
 70
     0
102
RTVSPropertyOp37
 70
     0
102
RTVSPropertyOp38
 70
     0
102
RTVSPropertyOp39
 70
     0
102
RTVSPropertyOp40
 70
     0
102
RTVSPropertyOp41
 70
     0
102
RTVSPropertyOp42
 70
     0
102
RTVSPropertyOp43
 70
     0
102
RTVSPropertyOp44
 70
     0
102
RTVSPropertyOp45
 70
     0
102
RTVSPropertyOp46
 70
     0
102
RTVSPropertyOp47
 70
     0
102
RTVSPropertyOp48
 70
     0
102
RTVSPropertyOp49
 70
     0
102
RTVSPropertyOp50
 70
     0
102
RTVSPropertyOp51
 70
     0
102
RTVSPropertyOp52
 70
     0
102
RTVSPropertyOp53
 70
     0
102
RTVSPropertyOp54
 70
     0
102
RTVSPropertyOp55
 70
     0
102
RTVSPropertyOp56
 70
     0
102
RTVSPropertyOp57
 70
     0
102
RTVSPost2010Prop28
280
     0
102
RTVSPost2010PropOp28
 70
     0
102
RTVSPost2010Prop29
280
     1
102
RTVSPost2010PropOp29
 70
     0
102
RTVSPost2010Prop30
280
     1
102
RTVSPost2010PropOp30
 70
     0
102
RTVSPost2010Prop31
280
     0
102
RTVSPost2010PropOp31
 70
     0
102
RTVSPost2010Prop32
280
     0
102
RTVSPost2010PropOp32
 70
     0
102
RTVSPost2010Prop33
280
     0
102
RTVSPost2010PropOp33
 70
     0
102
RTVSPost2010Prop34
280
     0
102
RTVSPost2010PropOp34
 70
     0
102
RTVSPost2010Prop35
280
     0
102
RTVSPost2010PropOp35
 70
     0
102
RTVSPost2010Prop36
280
     0
102
RTVSPost2010PropOp36
 70
     0
102
RTVSPost2010Prop37
 90
       50
102
RTVSPost2010PropOp37
 70
     0
102
RTVSPost2010Prop38
140
0.0
102
RTVSPost2010PropOp38
 70
     0
102
RTVSPost2010Prop39
140
1.0
102
RTVSPost2010PropOp39
 70
     0
102
RTVSPost2010Prop40
 90
        0
102
RTVSPost2010PropOp40
 70
     0
102
RTVSPost2010Prop41ColorIndex
 90
       18
102
RTVSPost2010Prop41ColorRGB
 90
        0
102
RTVSPost2010PropOp41
 70
     0
102
RTVSPost2010Prop42
 90
       50
102
RTVSPost2010PropOp42
 70
     0
102
RTVSPost2010Prop43
 90
        3
102
RTVSPost2010PropOp43
 70
     0
102
RTVSPost2010Prop44ColorIndex
 90
        5
102
RTVSPost2010Prop44ColorRGB
 90
      255
102
RTVSPost2010PropOp44
 70
     0
102
RTVSPost2010Prop45
280
     0
102
RTVSPost2010PropOp45
 70
     0
102
RTVSPost2010Prop46
 90
       50
102
RTVSPost2010PropOp46
 70
     0
102
RTVSPost2010Prop47
 90
       50
102
RTVSPost2010PropOp47
 70
     0
102
RTVSPost2010Prop48
 90
       50
102
RTVSPost2010PropOp48
 70
     0
102
RTVSPost2010Prop49
280
     0
102
RTVSPost2010PropOp49
 70
     0
102
RTVSPost2010Prop50
 90
       50
102
RTVSPost2010PropOp50
 70
     0
102
RTVSPost2010Prop51ColorIndex
 90
      256
102
RTVSPost2010Prop51ColorRGB
 90
-16777216
102
RTVSPost2010PropOp51
 70
     0
102
RTVSPost2010Prop52
140
1.0
102
RTVSPost2010PropOp52
 70
     0
102
RTVSPost2010Prop53
 90
        2
102
RTVSPost2010PropOp53
 70
     0
102
RTVSPost2010Prop54
  1
strokes_ogs.tif
102
RTVSPost2010PropOp54
 70
     0
102
RTVSPost2010Prop55
280
     0
102
RTVSPost2010PropOp55
 70
     0
102
RTVSPost2010Prop56
140
1.0
102
RTVSPost2010PropOp56
 70
     0
102
RTVSPost2010Prop57
140
1.0
102
RTVSPost2010PropOp57
 70
     0
  0
XRECORD
  5
2D3
102
{ACAD_REACTORS
330
2D2
102
}
330
2D2
100
AcDbXrecord
280
     1
102
RTVSPropertyOp0
 70
     1
102
RTVSPropertyOp1
 70
     1
102
RTVSPropertyOp2
 70
     1
102
RTVSPropertyOp3
 70
     1
102
RTVSPropertyOp4
 70
     1
102
RTVSPropertyOp5
 70
     1
102
RTVSPropertyOp6
 70
     1
102
RTVSPropertyOp7
 70
     1
102
RTVSPropertyOp8
 70
     1
102
RTVSPropertyOp9
 70
     1
102
RTVSPropertyOp10
 70
     1
102
RTVSPropertyOp11
 70
     1
102
RTVSPropertyOp12
 70
     1
102
RTVSPropertyOp13
 70
     1
102
RTVSPropertyOp14
 70
     1
102
RTVSPropertyOp15
 70
     1
102
RTVSPropertyOp16
 70
     1
102
RTVSPropertyOp17
 70
     1
102
RTVSPropertyOp18
 70
     1
102
RTVSPropertyOp19
 70
     1
102
RTVSPropertyOp20
 70
     1
102
RTVSPropertyOp21
 70
     1
102
RTVSPropertyOp22
 70
     1
102
RTVSPropertyOp23
 70
     1
102
RTVSPropertyOp24
 70
     1
102
RTVSPropertyOp25
 70
     1
102
RTVSPropertyOp26
 70
     1
102
RTVSPropertyOp27
 70
     1
102
RTVSPropertyOp28
 70
     1
102
RTVSPropertyOp29
 70
     1
102
RTVSPropertyOp30
 70
     1
102
RTVSPropertyOp31
 70
     1
102
RTVSPropertyOp32
 70
     1
102
RTVSPropertyOp33
 70
     1
102
RTVSPropertyOp34
 70
     1
102
RTVSPropertyOp35
 70
     1
102
RTVSPropertyOp36
 70
     1
102
RTVSPropertyOp37
 70
     1
102
RTVSPropertyOp38
 70
     1
102
RTVSPropertyOp39
 70
     1
102
RTVSPropertyOp40
 70
     1
102
RTVSPropertyOp41
 70
     1
102
RTVSPropertyOp42
 70
     1
102
RTVSPropertyOp43
 70
     1
102
RTVSPropertyOp44
 70
     1
102
RTVSPropertyOp45
 70
     1
102
RTVSPropertyOp46
 70
     1
102
RTVSPropertyOp47
 70
     1
102
RTVSPropertyOp48
 70
     1
102
RTVSPropertyOp49
 70
     1
102
RTVSPropertyOp50
 70
     1
102
RTVSPropertyOp51
 70
     0
102
RTVSPropertyOp52
 70
     0
102
RTVSPropertyOp53
 70
     1
102
RTVSPropertyOp54
 70
     1
102
RTVSPropertyOp55
 70
     1
102
RTVSPropertyOp56
 70
     1
102
RTVSPropertyOp57
 70
     1
102
RTVSPost2010Prop28
280
     0
102
RTVSPost2010PropOp28
 70
     1
102
RTVSPost2010Prop29
280
     1
102
RTVSPost2010PropOp29
 70
     1
102
RTVSPost2010Prop30
280
     1
102
RTVSPost2010PropOp30
 70
     1
102
RTVSPost2010Prop31
280
     0
102
RTVSPost2010PropOp31
 70
     1
102
RTVSPost2010Prop32
280
     0
102
RTVSPost2010PropOp32
 70
     1
102
RTVSPost2010Prop33
280
     0
102
RTVSPost2010PropOp33
 70
     1
102
RTVSPost2010Prop34
280
     0
102
RTVSPost2010PropOp34
 70
     1
102
RTVSPost2010Prop35
280
     0
102
RTVSPost2010PropOp35
 70
     1
102
RTVSPost2010Prop36
280
     0
102
RTVSPost2010PropOp36
 70
     1
102
RTVSPost2010Prop37
 90
       50
102
RTVSPost2010PropOp37
 70
     1
102
RTVSPost2010Prop38
140
0.0
102
RTVSPost2010PropOp38
 70
     1
102
RTVSPost2010Prop39
140
1.0
102
RTVSPost2010PropOp39
 70
     1
102
RTVSPost2010Prop40
 90
        0
102
RTVSPost2010PropOp40
 70
     1
102
RTVSPost2010Prop41ColorIndex
 90
       18
102
RTVSPost2010Prop41ColorRGB
 90
        0
102
RTVSPost2010PropOp41
 70
     1
102
RTVSPost2010Prop42
 90
       50
102
RTVSPost2010PropOp42
 70
     1
102
RTVSPost2010Prop43
 90
        3
102
RTVSPost2010PropOp43
 70
     1
102
RTVSPost2010Prop44ColorIndex
 90
        5
102
RTVSPost2010Prop44ColorRGB
 90
      255
102
RTVSPost2010PropOp44
 70
     1
102
RTVSPost2010Prop45
280
     0
102
RTVSPost2010PropOp45
 70
     1
102
RTVSPost2010Prop46
 90
       50
102
RTVSPost2010PropOp46
 70
     1
102
RTVSPost2010Prop47
 90
       50
102
RTVSPost2010PropOp47
 70
     1
102
RTVSPost2010Prop48
 90
       50
102
RTVSPost2010PropOp48
 70
     1
102
RTVSPost2010Prop49
280
     0
102
RTVSPost2010PropOp49
 70
     1
102
RTVSPost2010Prop50
 90
       50
102
RTVSPost2010PropOp50
 70
     1
102
RTVSPost2010Prop51ColorIndex
 90
      256
102
RTVSPost2010Prop51ColorRGB
 90
-16777216
102
RTVSPost2010PropOp51
 70
     0
102
RTVSPost2010Prop52
140
1.0
102
RTVSPost2010PropOp52
 70
     0
102
RTVSPost2010Prop53
 90
        2
102
RTVSPost2010PropOp53
 70
     1
102
RTVSPost2010Prop54
  1
strokes_ogs.tif
102
RTVSPost2010PropOp54
 70
     1
102
RTVSPost2010Prop55
280
     0
102
RTVSPost2010PropOp55
 70
     1
102
RTVSPost2010Prop56
140
1.0
102
RTVSPost2010PropOp56
 70
     1
102
RTVSPost2010Prop57
140
1.0
102
RTVSPost2010PropOp57
 70
     1
  0
XRECORD
  5
2F1
102
{ACAD_REACTORS
330
2F0
102
}
330
2F0
100
AcDbXrecord
280
     1
102
RTVSPropertyOp0
 70
     1
102
RTVSPropertyOp1
 70
     1
102
RTVSPropertyOp2
 70
     1
102
RTVSPropertyOp3
 70
     1
102
RTVSPropertyOp4
 70
     1
102
RTVSPropertyOp5
 70
     1
102
RTVSPropertyOp6
 70
     1
102
RTVSPropertyOp7
 70
     1
102
RTVSPropertyOp8
 70
     1
102
RTVSPropertyOp9
 70
     1
102
RTVSPropertyOp10
 70
     1
102
RTVSPropertyOp11
 70
     1
102
RTVSPropertyOp12
 70
     1
102
RTVSPropertyOp13
 70
     1
102
RTVSPropertyOp14
 70
     1
102
RTVSPropertyOp15
 70
     1
102
RTVSPropertyOp16
 70
     1
102
RTVSPropertyOp17
 70
     1
102
RTVSPropertyOp18
 70
     1
102
RTVSPropertyOp19
 70
     1
102
RTVSPropertyOp20
 70
     1
102
RTVSPropertyOp21
 70
     1
102
RTVSPropertyOp22
 70
     1
102
RTVSPropertyOp23
 70
     1
102
RTVSPropertyOp24
 70
     1
102
RTVSPropertyOp25
 70
     1
102
RTVSPropertyOp26
 70
     1
102
RTVSPropertyOp27
 70
     1
102
RTVSPropertyOp28
 70
     1
102
RTVSPropertyOp29
 70
     1
102
RTVSPropertyOp30
 70
     1
102
RTVSPropertyOp31
 70
     1
102
RTVSPropertyOp32
 70
     1
102
RTVSPropertyOp33
 70
     1
102
RTVSPropertyOp34
 70
     1
102
RTVSPropertyOp35
 70
     1
102
RTVSPropertyOp36
 70
     1
102
RTVSPropertyOp37
 70
     1
102
RTVSPropertyOp38
 70
     1
102
RTVSPropertyOp39
 70
     1
102
RTVSPropertyOp40
 70
     1
102
RTVSPropertyOp41
 70
     1
102
RTVSPropertyOp42
 70
     1
102
RTVSPropertyOp43
 70
     1
102
RTVSPropertyOp44
 70
     1
102
RTVSPropertyOp45
 70
     1
102
RTVSPropertyOp46
 70
     1
102
RTVSPropertyOp47
 70
     1
102
RTVSPropertyOp48
 70
     1
102
RTVSPropertyOp49
 70
     1
102
RTVSPropertyOp50
 70
     1
102
RTVSPropertyOp51
 70
     0
102
RTVSPropertyOp52
 70
     0
102
RTVSPropertyOp53
 70
     1
102
RTVSPropertyOp54
 70
     1
102
RTVSPropertyOp55
 70
     1
102
RTVSPropertyOp56
 70
     1
102
RTVSPropertyOp57
 70
     1
102
RTVSPost2010Prop28
280
     0
102
RTVSPost2010PropOp28
 70
     1
102
RTVSPost2010Prop29
280
     1
102
RTVSPost2010PropOp29
 70
     1
102
RTVSPost2010Prop30
280
     1
102
RTVSPost2010PropOp30
 70
     1
102
RTVSPost2010Prop31
280
     0
102
RTVSPost2010PropOp31
 70
     1
102
RTVSPost2010Prop32
280
     0
102
RTVSPost2010PropOp32
 70
     1
102
RTVSPost2010Prop33
280
     0
102
RTVSPost2010PropOp33
 70
     1
102
RTVSPost2010Prop34
280
     0
102
RTVSPost2010PropOp34
 70
     1
102
RTVSPost2010Prop35
280
     0
102
RTVSPost2010PropOp35
 70
     1
102
RTVSPost2010Prop36
280
     0
102
RTVSPost2010PropOp36
 70
     1
102
RTVSPost2010Prop37
 90
       50
102
RTVSPost2010PropOp37
 70
     1
102
RTVSPost2010Prop38
140
0.0
102
RTVSPost2010PropOp38
 70
     1
102
RTVSPost2010Prop39
140
1.0
102
RTVSPost2010PropOp39
 70
     1
102
RTVSPost2010Prop40
 90
        0
102
RTVSPost2010PropOp40
 70
     1
102
RTVSPost2010Prop41ColorIndex
 90
       18
102
RTVSPost2010Prop41ColorRGB
 90
        0
102
RTVSPost2010PropOp41
 70
     1
102
RTVSPost2010Prop42
 90
       50
102
RTVSPost2010PropOp42
 70
     1
102
RTVSPost2010Prop43
 90
        3
102
RTVSPost2010PropOp43
 70
     1
102
RTVSPost2010Prop44ColorIndex
 90
        5
102
RTVSPost2010Prop44ColorRGB
 90
      255
102
RTVSPost2010PropOp44
 70
     1
102
RTVSPost2010Prop45
280
     0
102
RTVSPost2010PropOp45
 70
     1
102
RTVSPost2010Prop46
 90
       50
102
RTVSPost2010PropOp46
 70
     1
102
RTVSPost2010Prop47
 90
       50
102
RTVSPost2010PropOp47
 70
     1
102
RTVSPost2010Prop48
 90
       50
102
RTVSPost2010PropOp48
 70
     1
102
RTVSPost2010Prop49
280
     0
102
RTVSPost2010PropOp49
 70
     1
102
RTVSPost2010Prop50
 90
       50
102
RTVSPost2010PropOp50
 70
     1
102
RTVSPost2010Prop51ColorIndex
 90
      256
102
RTVSPost2010Prop51ColorRGB
 90
-16777216
102
RTVSPost2010PropOp51
 70
     0
102
RTVSPost2010Prop52
140
1.0
102
RTVSPost2010PropOp52
 70
     0
102
RTVSPost2010Prop53
 90
        2
102
RTVSPost2010PropOp53
 70
     1
102
RTVSPost2010Prop54
  1
strokes_ogs.tif
102
RTVSPost2010PropOp54
 70
     1
102
RTVSPost2010Prop55
280
     0
102
RTVSPost2010PropOp55
 70
     1
102
RTVSPost2010Prop56
140
1.0
102
RTVSPost2010PropOp56
 70
     1
102
RTVSPost2010Prop57
140
1.0
102
RTVSPost2010PropOp57
 70
     1
  0
XRECORD
  5
2EF
102
{ACAD_REACTORS
330
2EE
102
}
330
2EE
100
AcDbXrecord
280
     1
102
RTVSPropertyOp0
 70
     1
102
RTVSPropertyOp1
 70
     1
102
RTVSPropertyOp2
 70
     1
102
RTVSPropertyOp3
 70
     1
102
RTVSPropertyOp4
 70
     1
102
RTVSPropertyOp5
 70
     1
102
RTVSPropertyOp6
 70
     1
102
RTVSPropertyOp7
 70
     1
102
RTVSPropertyOp8
 70
     1
102
RTVSPropertyOp9
 70
     1
102
RTVSPropertyOp10
 70
     1
102
RTVSPropertyOp11
 70
     1
102
RTVSPropertyOp12
 70
     1
102
RTVSPropertyOp13
 70
     1
102
RTVSPropertyOp14
 70
     1
102
RTVSPropertyOp15
 70
     1
102
RTVSPropertyOp16
 70
     1
102
RTVSPropertyOp17
 70
     1
102
RTVSPropertyOp18
 70
     1
102
RTVSPropertyOp19
 70
     1
102
RTVSPropertyOp20
 70
     1
102
RTVSPropertyOp21
 70
     1
102
RTVSPropertyOp22
 70
     1
102
RTVSPropertyOp23
 70
     1
102
RTVSPropertyOp24
 70
     1
102
RTVSPropertyOp25
 70
     1
102
RTVSPropertyOp26
 70
     1
102
RTVSPropertyOp27
 70
     1
102
RTVSPropertyOp28
 70
     1
102
RTVSPropertyOp29
 70
     1
102
RTVSPropertyOp30
 70
     1
102
RTVSPropertyOp31
 70
     1
102
RTVSPropertyOp32
 70
     1
102
RTVSPropertyOp33
 70
     1
102
RTVSPropertyOp34
 70
     1
102
RTVSPropertyOp35
 70
     1
102
RTVSPropertyOp36
 70
     1
102
RTVSPropertyOp37
 70
     1
102
RTVSPropertyOp38
 70
     1
102
RTVSPropertyOp39
 70
     1
102
RTVSPropertyOp40
 70
     1
102
RTVSPropertyOp41
 70
     1
102
RTVSPropertyOp42
 70
     1
102
RTVSPropertyOp43
 70
     1
102
RTVSPropertyOp44
 70
     1
102
RTVSPropertyOp45
 70
     1
102
RTVSPropertyOp46
 70
     1
102
RTVSPropertyOp47
 70
     1
102
RTVSPropertyOp48
 70
     1
102
RTVSPropertyOp49
 70
     1
102
RTVSPropertyOp50
 70
     1
102
RTVSPropertyOp51
 70
     0
102
RTVSPropertyOp52
 70
     0
102
RTVSPropertyOp53
 70
     1
102
RTVSPropertyOp54
 70
     1
102
RTVSPropertyOp55
 70
     1
102
RTVSPropertyOp56
 70
     1
102
RTVSPropertyOp57
 70
     1
102
RTVSPost2010Prop28
280
     0
102
RTVSPost2010PropOp28
 70
     1
102
RTVSPost2010Prop29
280
     1
102
RTVSPost2010PropOp29
 70
     1
102
RTVSPost2010Prop30
280
     1
102
RTVSPost2010PropOp30
 70
     1
102
RTVSPost2010Prop31
280
     0
102
RTVSPost2010PropOp31
 70
     1
102
RTVSPost2010Prop32
280
     0
102
RTVSPost2010PropOp32
 70
     1
102
RTVSPost2010Prop33
280
     0
102
RTVSPost2010PropOp33
 70
     1
102
RTVSPost2010Prop34
280
     0
102
RTVSPost2010PropOp34
 70
     1
102
RTVSPost2010Prop35
280
     0
102
RTVSPost2010PropOp35
 70
     1
102
RTVSPost2010Prop36
280
     0
102
RTVSPost2010PropOp36
 70
     1
102
RTVSPost2010Prop37
 90
       50
102
RTVSPost2010PropOp37
 70
     1
102
RTVSPost2010Prop38
140
0.0
102
RTVSPost2010PropOp38
 70
     1
102
RTVSPost2010Prop39
140
1.0
102
RTVSPost2010PropOp39
 70
     1
102
RTVSPost2010Prop40
 90
        0
102
RTVSPost2010PropOp40
 70
     1
102
RTVSPost2010Prop41ColorIndex
 90
       18
102
RTVSPost2010Prop41ColorRGB
 90
        0
102
RTVSPost2010PropOp41
 70
     1
102
RTVSPost2010Prop42
 90
       50
102
RTVSPost2010PropOp42
 70
     1
102
RTVSPost2010Prop43
 90
        3
102
RTVSPost2010PropOp43
 70
     1
102
RTVSPost2010Prop44ColorIndex
 90
        5
102
RTVSPost2010Prop44ColorRGB
 90
      255
102
RTVSPost2010PropOp44
 70
     1
102
RTVSPost2010Prop45
280
     0
102
RTVSPost2010PropOp45
 70
     1
102
RTVSPost2010Prop46
 90
       50
102
RTVSPost2010PropOp46
 70
     1
102
RTVSPost2010Prop47
 90
       50
102
RTVSPost2010PropOp47
 70
     1
102
RTVSPost2010Prop48
 90
       50
102
RTVSPost2010PropOp48
 70
     1
102
RTVSPost2010Prop49
280
     0
102
RTVSPost2010PropOp49
 70
     1
102
RTVSPost2010Prop50
 90
       50
102
RTVSPost2010PropOp50
 70
     1
102
RTVSPost2010Prop51ColorIndex
 90
      256
102
RTVSPost2010Prop51ColorRGB
 90
-16777216
102
RTVSPost2010PropOp51
 70
     0
102
RTVSPost2010Prop52
140
1.0
102
RTVSPost2010PropOp52
 70
     0
102
RTVSPost2010Prop53
 90
        2
102
RTVSPost2010PropOp53
 70
     1
102
RTVSPost2010Prop54
  1
strokes_ogs.tif
102
RTVSPost2010PropOp54
 70
     1
102
RTVSPost2010Prop55
280
     0
102
RTVSPost2010PropOp55
 70
     1
102
RTVSPost2010Prop56
140
1.0
102
RTVSPost2010PropOp56
 70
     1
102
RTVSPost2010Prop57
140
1.0
102
RTVSPost2010PropOp57
 70
     1
  0
XRECORD
  5
2E9
102
{ACAD_REACTORS
330
2E8
102
}
330
2E8
100
AcDbXrecord
280
     1
102
RTVSPropertyOp0
 70
     1
102
RTVSPropertyOp1
 70
     1
102
RTVSPropertyOp2
 70
     1
102
RTVSPropertyOp3
 70
     1
102
RTVSPropertyOp4
 70
     1
102
RTVSPropertyOp5
 70
     1
102
RTVSPropertyOp6
 70
     1
102
RTVSPropertyOp7
 70
     1
102
RTVSPropertyOp8
 70
     1
102
RTVSPropertyOp9
 70
     1
102
RTVSPropertyOp10
 70
     1
102
RTVSPropertyOp11
 70
     1
102
RTVSPropertyOp12
 70
     1
102
RTVSPropertyOp13
 70
     1
102
RTVSPropertyOp14
 70
     1
102
RTVSPropertyOp15
 70
     1
102
RTVSPropertyOp16
 70
     1
102
RTVSPropertyOp17
 70
     1
102
RTVSPropertyOp18
 70
     1
102
RTVSPropertyOp19
 70
     1
102
RTVSPropertyOp20
 70
     1
102
RTVSPropertyOp21
 70
     1
102
RTVSPropertyOp22
 70
     1
102
RTVSPropertyOp23
 70
     1
102
RTVSPropertyOp24
 70
     1
102
RTVSPropertyOp25
 70
     1
102
RTVSPropertyOp26
 70
     1
102
RTVSPropertyOp27
 70
     1
102
RTVSPropertyOp28
 70
     1
102
RTVSPropertyOp29
 70
     1
102
RTVSPropertyOp30
 70
     1
102
RTVSPropertyOp31
 70
     1
102
RTVSPropertyOp32
 70
     1
102
RTVSPropertyOp33
 70
     1
102
RTVSPropertyOp34
 70
     1
102
RTVSPropertyOp35
 70
     1
102
RTVSPropertyOp36
 70
     1
102
RTVSPropertyOp37
 70
     1
102
RTVSPropertyOp38
 70
     1
102
RTVSPropertyOp39
 70
     1
102
RTVSPropertyOp40
 70
     1
102
RTVSPropertyOp41
 70
     1
102
RTVSPropertyOp42
 70
     1
102
RTVSPropertyOp43
 70
     1
102
RTVSPropertyOp44
 70
     1
102
RTVSPropertyOp45
 70
     1
102
RTVSPropertyOp46
 70
     1
102
RTVSPropertyOp47
 70
     1
102
RTVSPropertyOp48
 70
     1
102
RTVSPropertyOp49
 70
     1
102
RTVSPropertyOp50
 70
     1
102
RTVSPropertyOp51
 70
     0
102
RTVSPropertyOp52
 70
     0
102
RTVSPropertyOp53
 70
     1
102
RTVSPropertyOp54
 70
     1
102
RTVSPropertyOp55
 70
     1
102
RTVSPropertyOp56
 70
     1
102
RTVSPropertyOp57
 70
     1
102
RTVSPost2010Prop28
280
     0
102
RTVSPost2010PropOp28
 70
     1
102
RTVSPost2010Prop29
280
     1
102
RTVSPost2010PropOp29
 70
     1
102
RTVSPost2010Prop30
280
     1
102
RTVSPost2010PropOp30
 70
     1
102
RTVSPost2010Prop31
280
     0
102
RTVSPost2010PropOp31
 70
     1
102
RTVSPost2010Prop32
280
     0
102
RTVSPost2010PropOp32
 70
     1
102
RTVSPost2010Prop33
280
     0
102
RTVSPost2010PropOp33
 70
     1
102
RTVSPost2010Prop34
280
     0
102
RTVSPost2010PropOp34
 70
     1
102
RTVSPost2010Prop35
280
     0
102
RTVSPost2010PropOp35
 70
     1
102
RTVSPost2010Prop36
280
     0
102
RTVSPost2010PropOp36
 70
     1
102
RTVSPost2010Prop37
 90
       50
102
RTVSPost2010PropOp37
 70
     1
102
RTVSPost2010Prop38
140
0.0
102
RTVSPost2010PropOp38
 70
     1
102
RTVSPost2010Prop39
140
1.0
102
RTVSPost2010PropOp39
 70
     1
102
RTVSPost2010Prop40
 90
        0
102
RTVSPost2010PropOp40
 70
     1
102
RTVSPost2010Prop41ColorIndex
 90
       18
102
RTVSPost2010Prop41ColorRGB
 90
        0
102
RTVSPost2010PropOp41
 70
     1
102
RTVSPost2010Prop42
 90
       50
102
RTVSPost2010PropOp42
 70
     1
102
RTVSPost2010Prop43
 90
        3
102
RTVSPost2010PropOp43
 70
     1
102
RTVSPost2010Prop44ColorIndex
 90
        5
102
RTVSPost2010Prop44ColorRGB
 90
      255
102
RTVSPost2010PropOp44
 70
     1
102
RTVSPost2010Prop45
280
     0
102
RTVSPost2010PropOp45
 70
     1
102
RTVSPost2010Prop46
 90
       50
102
RTVSPost2010PropOp46
 70
     1
102
RTVSPost2010Prop47
 90
       50
102
RTVSPost2010PropOp47
 70
     1
102
RTVSPost2010Prop48
 90
       50
102
RTVSPost2010PropOp48
 70
     1
102
RTVSPost2010Prop49
280
     0
102
RTVSPost2010PropOp49
 70
     1
102
RTVSPost2010Prop50
 90
       50
102
RTVSPost2010PropOp50
 70
     1
102
RTVSPost2010Prop51ColorIndex
 90
      256
102
RTVSPost2010Prop51ColorRGB
 90
-16777216
102
RTVSPost2010PropOp51
 70
     0
102
RTVSPost2010Prop52
140
1.0
102
RTVSPost2010PropOp52
 70
     0
102
RTVSPost2010Prop53
 90
        2
102
RTVSPost2010PropOp53
 70
     1
102
RTVSPost2010Prop54
  1
strokes_ogs.tif
102
RTVSPost2010PropOp54
 70
     1
102
RTVSPost2010Prop55
280
     0
102
RTVSPost2010PropOp55
 70
     1
102
RTVSPost2010Prop56
140
1.0
102
RTVSPost2010PropOp56
 70
     1
102
RTVSPost2010Prop57
140
1.0
102
RTVSPost2010PropOp57
 70
     1
  0
XRECORD
  5
2EB
102
{ACAD_REACTORS
330
2EA
102
}
330
2EA
100
AcDbXrecord
280
     1
102
RTVSPropertyOp0
 70
     1
102
RTVSPropertyOp1
 70
     1
102
RTVSPropertyOp2
 70
     1
102
RTVSPropertyOp3
 70
     1
102
RTVSPropertyOp4
 70
     1
102
RTVSPropertyOp5
 70
     1
102
RTVSPropertyOp6
 70
     1
102
RTVSPropertyOp7
 70
     1
102
RTVSPropertyOp8
 70
     1
102
RTVSPropertyOp9
 70
     1
102
RTVSPropertyOp10
 70
     1
102
RTVSPropertyOp11
 70
     1
102
RTVSPropertyOp12
 70
     1
102
RTVSPropertyOp13
 70
     1
102
RTVSPropertyOp14
 70
     1
102
RTVSPropertyOp15
 70
     1
102
RTVSPropertyOp16
 70
     1
102
RTVSPropertyOp17
 70
     1
102
RTVSPropertyOp18
 70
     1
102
RTVSPropertyOp19
 70
     1
102
RTVSPropertyOp20
 70
     1
102
RTVSPropertyOp21
 70
     1
102
RTVSPropertyOp22
 70
     1
102
RTVSPropertyOp23
 70
     1
102
RTVSPropertyOp24
 70
     1
102
RTVSPropertyOp25
 70
     1
102
RTVSPropertyOp26
 70
     1
102
RTVSPropertyOp27
 70
     1
102
RTVSPropertyOp28
 70
     1
102
RTVSPropertyOp29
 70
     1
102
RTVSPropertyOp30
 70
     1
102
RTVSPropertyOp31
 70
     1
102
RTVSPropertyOp32
 70
     1
102
RTVSPropertyOp33
 70
     1
102
RTVSPropertyOp34
 70
     1
102
RTVSPropertyOp35
 70
     1
102
RTVSPropertyOp36
 70
     1
102
RTVSPropertyOp37
 70
     1
102
RTVSPropertyOp38
 70
     1
102
RTVSPropertyOp39
 70
     1
102
RTVSPropertyOp40
 70
     1
102
RTVSPropertyOp41
 70
     1
102
RTVSPropertyOp42
 70
     1
102
RTVSPropertyOp43
 70
     1
102
RTVSPropertyOp44
 70
     1
102
RTVSPropertyOp45
 70
     1
102
RTVSPropertyOp46
 70
     1
102
RTVSPropertyOp47
 70
     1
102
RTVSPropertyOp48
 70
     1
102
RTVSPropertyOp49
 70
     1
102
RTVSPropertyOp50
 70
     1
102
RTVSPropertyOp51
 70
     0
102
RTVSPropertyOp52
 70
     0
102
RTVSPropertyOp53
 70
     1
102
RTVSPropertyOp54
 70
     1
102
RTVSPropertyOp55
 70
     1
102
RTVSPropertyOp56
 70
     1
102
RTVSPropertyOp57
 70
     1
102
RTVSPost2010Prop28
280
     0
102
RTVSPost2010PropOp28
 70
     1
102
RTVSPost2010Prop29
280
     1
102
RTVSPost2010PropOp29
 70
     1
102
RTVSPost2010Prop30
280
     1
102
RTVSPost2010PropOp30
 70
     1
102
RTVSPost2010Prop31
280
     0
102
RTVSPost2010PropOp31
 70
     1
102
RTVSPost2010Prop32
280
     0
102
RTVSPost2010PropOp32
 70
     1
102
RTVSPost2010Prop33
280
     0
102
RTVSPost2010PropOp33
 70
     1
102
RTVSPost2010Prop34
280
     0
102
RTVSPost2010PropOp34
 70
     1
102
RTVSPost2010Prop35
280
     0
102
RTVSPost2010PropOp35
 70
     1
102
RTVSPost2010Prop36
280
     0
102
RTVSPost2010PropOp36
 70
     1
102
RTVSPost2010Prop37
 90
       50
102
RTVSPost2010PropOp37
 70
     1
102
RTVSPost2010Prop38
140
0.0
102
RTVSPost2010PropOp38
 70
     1
102
RTVSPost2010Prop39
140
1.0
102
RTVSPost2010PropOp39
 70
     1
102
RTVSPost2010Prop40
 90
        0
102
RTVSPost2010PropOp40
 70
     1
102
RTVSPost2010Prop41ColorIndex
 90
       18
102
RTVSPost2010Prop41ColorRGB
 90
        0
102
RTVSPost2010PropOp41
 70
     1
102
RTVSPost2010Prop42
 90
       50
102
RTVSPost2010PropOp42
 70
     1
102
RTVSPost2010Prop43
 90
        3
102
RTVSPost2010PropOp43
 70
     1
102
RTVSPost2010Prop44ColorIndex
 90
        5
102
RTVSPost2010Prop44ColorRGB
 90
      255
102
RTVSPost2010PropOp44
 70
     1
102
RTVSPost2010Prop45
280
     0
102
RTVSPost2010PropOp45
 70
     1
102
RTVSPost2010Prop46
 90
       50
102
RTVSPost2010PropOp46
 70
     1
102
RTVSPost2010Prop47
 90
       50
102
RTVSPost2010PropOp47
 70
     1
102
RTVSPost2010Prop48
 90
       50
102
RTVSPost2010PropOp48
 70
     1
102
RTVSPost2010Prop49
280
     0
102
RTVSPost2010PropOp49
 70
     1
102
RTVSPost2010Prop50
 90
       50
102
RTVSPost2010PropOp50
 70
     1
102
RTVSPost2010Prop51ColorIndex
 90
      256
102
RTVSPost2010Prop51ColorRGB
 90
-16777216
102
RTVSPost2010PropOp51
 70
     0
102
RTVSPost2010Prop52
140
1.0
102
RTVSPost2010PropOp52
 70
     0
102
RTVSPost2010Prop53
 90
        2
102
RTVSPost2010PropOp53
 70
     1
102
RTVSPost2010Prop54
  1
strokes_ogs.tif
102
RTVSPost2010PropOp54
 70
     1
102
RTVSPost2010Prop55
280
     0
102
RTVSPost2010PropOp55
 70
     1
102
RTVSPost2010Prop56
140
1.0
102
RTVSPost2010PropOp56
 70
     1
102
RTVSPost2010Prop57
140
1.0
102
RTVSPost2010PropOp57
 70
     1
  0
XRECORD
  5
2DB
102
{ACAD_REACTORS
330
2DA
102
}
330
2DA
100
AcDbXrecord
280
     1
102
RTVSPropertyOp0
 70
     1
102
RTVSPropertyOp1
 70
     1
102
RTVSPropertyOp2
 70
     1
102
RTVSPropertyOp3
 70
     1
102
RTVSPropertyOp4
 70
     1
102
RTVSPropertyOp5
 70
     1
102
RTVSPropertyOp6
 70
     1
102
RTVSPropertyOp7
 70
     1
102
RTVSPropertyOp8
 70
     1
102
RTVSPropertyOp9
 70
     1
102
RTVSPropertyOp10
 70
     1
102
RTVSPropertyOp11
 70
     1
102
RTVSPropertyOp12
 70
     1
102
RTVSPropertyOp13
 70
     1
102
RTVSPropertyOp14
 70
     1
102
RTVSPropertyOp15
 70
     1
102
RTVSPropertyOp16
 70
     1
102
RTVSPropertyOp17
 70
     1
102
RTVSPropertyOp18
 70
     1
102
RTVSPropertyOp19
 70
     1
102
RTVSPropertyOp20
 70
     1
102
RTVSPropertyOp21
 70
     1
102
RTVSPropertyOp22
 70
     1
102
RTVSPropertyOp23
 70
     1
102
RTVSPropertyOp24
 70
     1
102
RTVSPropertyOp25
 70
     1
102
RTVSPropertyOp26
 70
     1
102
RTVSPropertyOp27
 70
     1
102
RTVSPropertyOp28
 70
     1
102
RTVSPropertyOp29
 70
     1
102
RTVSPropertyOp30
 70
     1
102
RTVSPropertyOp31
 70
     1
102
RTVSPropertyOp32
 70
     1
102
RTVSPropertyOp33
 70
     1
102
RTVSPropertyOp34
 70
     1
102
RTVSPropertyOp35
 70
     1
102
RTVSPropertyOp36
 70
     1
102
RTVSPropertyOp37
 70
     1
102
RTVSPropertyOp38
 70
     1
102
RTVSPropertyOp39
 70
     1
102
RTVSPropertyOp40
 70
     1
102
RTVSPropertyOp41
 70
     1
102
RTVSPropertyOp42
 70
     1
102
RTVSPropertyOp43
 70
     1
102
RTVSPropertyOp44
 70
     1
102
RTVSPropertyOp45
 70
     1
102
RTVSPropertyOp46
 70
     1
102
RTVSPropertyOp47
 70
     1
102
RTVSPropertyOp48
 70
     1
102
RTVSPropertyOp49
 70
     1
102
RTVSPropertyOp50
 70
     1
102
RTVSPropertyOp51
 70
     0
102
RTVSPropertyOp52
 70
     0
102
RTVSPropertyOp53
 70
     1
102
RTVSPropertyOp54
 70
     1
102
RTVSPropertyOp55
 70
     1
102
RTVSPropertyOp56
 70
     1
102
RTVSPropertyOp57
 70
     1
102
RTVSPost2010Prop28
280
     0
102
RTVSPost2010PropOp28
 70
     1
102
RTVSPost2010Prop29
280
     1
102
RTVSPost2010PropOp29
 70
     1
102
RTVSPost2010Prop30
280
     1
102
RTVSPost2010PropOp30
 70
     1
102
RTVSPost2010Prop31
280
     0
102
RTVSPost2010PropOp31
 70
     1
102
RTVSPost2010Prop32
280
     0
102
RTVSPost2010PropOp32
 70
     1
102
RTVSPost2010Prop33
280
     0
102
RTVSPost2010PropOp33
 70
     1
102
RTVSPost2010Prop34
280
     0
102
RTVSPost2010PropOp34
 70
     1
102
RTVSPost2010Prop35
280
     0
102
RTVSPost2010PropOp35
 70
     1
102
RTVSPost2010Prop36
280
     0
102
RTVSPost2010PropOp36
 70
     1
102
RTVSPost2010Prop37
 90
       50
102
RTVSPost2010PropOp37
 70
     1
102
RTVSPost2010Prop38
140
0.0
102
RTVSPost2010PropOp38
 70
     1
102
RTVSPost2010Prop39
140
1.0
102
RTVSPost2010PropOp39
 70
     1
102
RTVSPost2010Prop40
 90
        0
102
RTVSPost2010PropOp40
 70
     1
102
RTVSPost2010Prop41ColorIndex
 90
       18
102
RTVSPost2010Prop41ColorRGB
 90
        0
102
RTVSPost2010PropOp41
 70
     1
102
RTVSPost2010Prop42
 90
       50
102
RTVSPost2010PropOp42
 70
     1
102
RTVSPost2010Prop43
 90
        3
102
RTVSPost2010PropOp43
 70
     1
102
RTVSPost2010Prop44ColorIndex
 90
        5
102
RTVSPost2010Prop44ColorRGB
 90
      255
102
RTVSPost2010PropOp44
 70
     1
102
RTVSPost2010Prop45
280
     0
102
RTVSPost2010PropOp45
 70
     1
102
RTVSPost2010Prop46
 90
       50
102
RTVSPost2010PropOp46
 70
     1
102
RTVSPost2010Prop47
 90
       50
102
RTVSPost2010PropOp47
 70
     1
102
RTVSPost2010Prop48
 90
       50
102
RTVSPost2010PropOp48
 70
     1
102
RTVSPost2010Prop49
280
     0
102
RTVSPost2010PropOp49
 70
     1
102
RTVSPost2010Prop50
 90
       50
102
RTVSPost2010PropOp50
 70
     1
102
RTVSPost2010Prop51ColorIndex
 90
      256
102
RTVSPost2010Prop51ColorRGB
 90
-16777216
102
RTVSPost2010PropOp51
 70
     0
102
RTVSPost2010Prop52
140
1.0
102
RTVSPost2010PropOp52
 70
     0
102
RTVSPost2010Prop53
 90
        2
102
RTVSPost2010PropOp53
 70
     1
102
RTVSPost2010Prop54
  1
strokes_ogs.tif
102
RTVSPost2010PropOp54
 70
     1
102
RTVSPost2010Prop55
280
     0
102
RTVSPost2010PropOp55
 70
     1
102
RTVSPost2010Prop56
140
1.0
102
RTVSPost2010PropOp56
 70
     1
102
RTVSPost2010Prop57
140
1.0
102
RTVSPost2010PropOp57
 70
     1
  0
XRECORD
  5
2CD
102
{ACAD_REACTORS
330
2CC
102
}
330
2CC
100
AcDbXrecord
280
     1
102
RTVSPropertyOp0
 70
     1
102
RTVSPropertyOp1
 70
     1
102
RTVSPropertyOp2
 70
     1
102
RTVSPropertyOp3
 70
     1
102
RTVSPropertyOp4
 70
     1
102
RTVSPropertyOp5
 70
     1
102
RTVSPropertyOp6
 70
     1
102
RTVSPropertyOp7
 70
     1
102
RTVSPropertyOp8
 70
     1
102
RTVSPropertyOp9
 70
     1
102
RTVSPropertyOp10
 70
     1
102
RTVSPropertyOp11
 70
     1
102
RTVSPropertyOp12
 70
     1
102
RTVSPropertyOp13
 70
     1
102
RTVSPropertyOp14
 70
     1
102
RTVSPropertyOp15
 70
     1
102
RTVSPropertyOp16
 70
     1
102
RTVSPropertyOp17
 70
     1
102
RTVSPropertyOp18
 70
     1
102
RTVSPropertyOp19
 70
     1
102
RTVSPropertyOp20
 70
     1
102
RTVSPropertyOp21
 70
     1
102
RTVSPropertyOp22
 70
     1
102
RTVSPropertyOp23
 70
     1
102
RTVSPropertyOp24
 70
     1
102
RTVSPropertyOp25
 70
     1
102
RTVSPropertyOp26
 70
     1
102
RTVSPropertyOp27
 70
     1
102
RTVSPropertyOp28
 70
     1
102
RTVSPropertyOp29
 70
     1
102
RTVSPropertyOp30
 70
     1
102
RTVSPropertyOp31
 70
     1
102
RTVSPropertyOp32
 70
     1
102
RTVSPropertyOp33
 70
     1
102
RTVSPropertyOp34
 70
     1
102
RTVSPropertyOp35
 70
     1
102
RTVSPropertyOp36
 70
     1
102
RTVSPropertyOp37
 70
     1
102
RTVSPropertyOp38
 70
     1
102
RTVSPropertyOp39
 70
     1
102
RTVSPropertyOp40
 70
     1
102
RTVSPropertyOp41
 70
     1
102
RTVSPropertyOp42
 70
     1
102
RTVSPropertyOp43
 70
     1
102
RTVSPropertyOp44
 70
     1
102
RTVSPropertyOp45
 70
     1
102
RTVSPropertyOp46
 70
     1
102
RTVSPropertyOp47
 70
     1
102
RTVSPropertyOp48
 70
     1
102
RTVSPropertyOp49
 70
     1
102
RTVSPropertyOp50
 70
     1
102
RTVSPropertyOp51
 70
     0
102
RTVSPropertyOp52
 70
     0
102
RTVSPropertyOp53
 70
     1
102
RTVSPropertyOp54
 70
     1
102
RTVSPropertyOp55
 70
     1
102
RTVSPropertyOp56
 70
     1
102
RTVSPropertyOp57
 70
     1
102
RTVSPost2010Prop28
280
     0
102
RTVSPost2010PropOp28
 70
     1
102
RTVSPost2010Prop29
280
     1
102
RTVSPost2010PropOp29
 70
     1
102
RTVSPost2010Prop30
280
     1
102
RTVSPost2010PropOp30
 70
     1
102
RTVSPost2010Prop31
280
     0
102
RTVSPost2010PropOp31
 70
     1
102
RTVSPost2010Prop32
280
     0
102
RTVSPost2010PropOp32
 70
     1
102
RTVSPost2010Prop33
280
     0
102
RTVSPost2010PropOp33
 70
     1
102
RTVSPost2010Prop34
280
     0
102
RTVSPost2010PropOp34
 70
     1
102
RTVSPost2010Prop35
280
     0
102
RTVSPost2010PropOp35
 70
     1
102
RTVSPost2010Prop36
280
     0
102
RTVSPost2010PropOp36
 70
     1
102
RTVSPost2010Prop37
 90
       50
102
RTVSPost2010PropOp37
 70
     1
102
RTVSPost2010Prop38
140
0.0
102
RTVSPost2010PropOp38
 70
     1
102
RTVSPost2010Prop39
140
1.0
102
RTVSPost2010PropOp39
 70
     1
102
RTVSPost2010Prop40
 90
        0
102
RTVSPost2010PropOp40
 70
     1
102
RTVSPost2010Prop41ColorIndex
 90
       18
102
RTVSPost2010Prop41ColorRGB
 90
        0
102
RTVSPost2010PropOp41
 70
     1
102
RTVSPost2010Prop42
 90
       50
102
RTVSPost2010PropOp42
 70
     1
102
RTVSPost2010Prop43
 90
        3
102
RTVSPost2010PropOp43
 70
     1
102
RTVSPost2010Prop44ColorIndex
 90
        5
102
RTVSPost2010Prop44ColorRGB
 90
      255
102
RTVSPost2010PropOp44
 70
     1
102
RTVSPost2010Prop45
280
     0
102
RTVSPost2010PropOp45
 70
     1
102
RTVSPost2010Prop46
 90
       50
102
RTVSPost2010PropOp46
 70
     1
102
RTVSPost2010Prop47
 90
       50
102
RTVSPost2010PropOp47
 70
     1
102
RTVSPost2010Prop48
 90
       50
102
RTVSPost2010PropOp48
 70
     1
102
RTVSPost2010Prop49
280
     0
102
RTVSPost2010PropOp49
 70
     1
102
RTVSPost2010Prop50
 90
       50
102
RTVSPost2010PropOp50
 70
     1
102
RTVSPost2010Prop51ColorIndex
 90
      256
102
RTVSPost2010Prop51ColorRGB
 90
-16777216
102
RTVSPost2010PropOp51
 70
     0
102
RTVSPost2010Prop52
140
1.0
102
RTVSPost2010PropOp52
 70
     0
102
RTVSPost2010Prop53
 90
        2
102
RTVSPost2010PropOp53
 70
     1
102
RTVSPost2010Prop54
  1
strokes_ogs.tif
102
RTVSPost2010PropOp54
 70
     1
102
RTVSPost2010Prop55
280
     0
102
RTVSPost2010PropOp55
 70
     1
102
RTVSPost2010Prop56
140
1.0
102
RTVSPost2010PropOp56
 70
     1
102
RTVSPost2010Prop57
140
1.0
102
RTVSPost2010PropOp57
 70
     1
  0
XRECORD
  5
2ED
102
{ACAD_REACTORS
330
2EC
102
}
330
2EC
100
AcDbXrecord
280
     1
102
RTVSPropertyOp0
 70
     1
102
RTVSPropertyOp1
 70
     1
102
RTVSPropertyOp2
 70
     1
102
RTVSPropertyOp3
 70
     1
102
RTVSPropertyOp4
 70
     1
102
RTVSPropertyOp5
 70
     1
102
RTVSPropertyOp6
 70
     1
102
RTVSPropertyOp7
 70
     1
102
RTVSPropertyOp8
 70
     1
102
RTVSPropertyOp9
 70
     1
102
RTVSPropertyOp10
 70
     1
102
RTVSPropertyOp11
 70
     1
102
RTVSPropertyOp12
 70
     1
102
RTVSPropertyOp13
 70
     1
102
RTVSPropertyOp14
 70
     1
102
RTVSPropertyOp15
 70
     1
102
RTVSPropertyOp16
 70
     1
102
RTVSPropertyOp17
 70
     1
102
RTVSPropertyOp18
 70
     1
102
RTVSPropertyOp19
 70
     1
102
RTVSPropertyOp20
 70
     1
102
RTVSPropertyOp21
 70
     1
102
RTVSPropertyOp22
 70
     1
102
RTVSPropertyOp23
 70
     1
102
RTVSPropertyOp24
 70
     1
102
RTVSPropertyOp25
 70
     1
102
RTVSPropertyOp26
 70
     1
102
RTVSPropertyOp27
 70
     1
102
RTVSPropertyOp28
 70
     1
102
RTVSPropertyOp29
 70
     1
102
RTVSPropertyOp30
 70
     1
102
RTVSPropertyOp31
 70
     1
102
RTVSPropertyOp32
 70
     1
102
RTVSPropertyOp33
 70
     1
102
RTVSPropertyOp34
 70
     1
102
RTVSPropertyOp35
 70
     1
102
RTVSPropertyOp36
 70
     1
102
RTVSPropertyOp37
 70
     1
102
RTVSPropertyOp38
 70
     1
102
RTVSPropertyOp39
 70
     1
102
RTVSPropertyOp40
 70
     1
102
RTVSPropertyOp41
 70
     1
102
RTVSPropertyOp42
 70
     1
102
RTVSPropertyOp43
 70
     1
102
RTVSPropertyOp44
 70
     1
102
RTVSPropertyOp45
 70
     1
102
RTVSPropertyOp46
 70
     1
102
RTVSPropertyOp47
 70
     1
102
RTVSPropertyOp48
 70
     1
102
RTVSPropertyOp49
 70
     1
102
RTVSPropertyOp50
 70
     1
102
RTVSPropertyOp51
 70
     0
102
RTVSPropertyOp52
 70
     0
102
RTVSPropertyOp53
 70
     1
102
RTVSPropertyOp54
 70
     1
102
RTVSPropertyOp55
 70
     1
102
RTVSPropertyOp56
 70
     1
102
RTVSPropertyOp57
 70
     1
102
RTVSPost2010Prop28
280
     0
102
RTVSPost2010PropOp28
 70
     1
102
RTVSPost2010Prop29
280
     1
102
RTVSPost2010PropOp29
 70
     1
102
RTVSPost2010Prop30
280
     1
102
RTVSPost2010PropOp30
 70
     1
102
RTVSPost2010Prop31
280
     0
102
RTVSPost2010PropOp31
 70
     1
102
RTVSPost2010Prop32
280
     0
102
RTVSPost2010PropOp32
 70
     1
102
RTVSPost2010Prop33
280
     0
102
RTVSPost2010PropOp33
 70
     1
102
RTVSPost2010Prop34
280
     0
102
RTVSPost2010PropOp34
 70
     1
102
RTVSPost2010Prop35
280
     0
102
RTVSPost2010PropOp35
 70
     1
102
RTVSPost2010Prop36
280
     0
102
RTVSPost2010PropOp36
 70
     1
102
RTVSPost2010Prop37
 90
       50
102
RTVSPost2010PropOp37
 70
     1
102
RTVSPost2010Prop38
140
0.0
102
RTVSPost2010PropOp38
 70
     1
102
RTVSPost2010Prop39
140
1.0
102
RTVSPost2010PropOp39
 70
     1
102
RTVSPost2010Prop40
 90
        0
102
RTVSPost2010PropOp40
 70
     1
102
RTVSPost2010Prop41ColorIndex
 90
       18
102
RTVSPost2010Prop41ColorRGB
 90
        0
102
RTVSPost2010PropOp41
 70
     1
102
RTVSPost2010Prop42
 90
       50
102
RTVSPost2010PropOp42
 70
     1
102
RTVSPost2010Prop43
 90
        3
102
RTVSPost2010PropOp43
 70
     1
102
RTVSPost2010Prop44ColorIndex
 90
        5
102
RTVSPost2010Prop44ColorRGB
 90
      255
102
RTVSPost2010PropOp44
 70
     1
102
RTVSPost2010Prop45
280
     0
102
RTVSPost2010PropOp45
 70
     1
102
RTVSPost2010Prop46
 90
       50
102
RTVSPost2010PropOp46
 70
     1
102
RTVSPost2010Prop47
 90
       50
102
RTVSPost2010PropOp47
 70
     1
102
RTVSPost2010Prop48
 90
       50
102
RTVSPost2010PropOp48
 70
     1
102
RTVSPost2010Prop49
280
     0
102
RTVSPost2010PropOp49
 70
     1
102
RTVSPost2010Prop50
 90
       50
102
RTVSPost2010PropOp50
 70
     1
102
RTVSPost2010Prop51ColorIndex
 90
      256
102
RTVSPost2010Prop51ColorRGB
 90
-16777216
102
RTVSPost2010PropOp51
 70
     0
102
RTVSPost2010Prop52
140
1.0
102
RTVSPost2010PropOp52
 70
     0
102
RTVSPost2010Prop53
 90
        2
102
RTVSPost2010PropOp53
 70
     1
102
RTVSPost2010Prop54
  1
strokes_ogs.tif
102
RTVSPost2010PropOp54
 70
     1
102
RTVSPost2010Prop55
280
     0
102
RTVSPost2010PropOp55
 70
     1
102
RTVSPost2010Prop56
140
1.0
102
RTVSPost2010PropOp56
 70
     1
102
RTVSPost2010Prop57
140
1.0
102
RTVSPost2010PropOp57
 70
     1
  0
ENDSEC
  0
EOF
