  0
SECTION
  2
HEADER
  9
$ACADVER
  1
AC1021
  9
$ACADMAINTVER
 70
    25
  9
$DWGCODEPAGE
  3
ANSI_1252
  9
$INSBASE
 10
0.0
 20
0.0
 30
0.0
  9
$EXTMIN
 10
1.000000000000000E+20
 20
1.000000000000000E+20
 30
1.000000000000000E+20
  9
$EXTMAX
 10
-1.000000000000000E+20
 20
-1.000000000000000E+20
 30
-1.000000000000000E+20
  9
$LIMMIN
 10
0.0
 20
0.0
  9
$LIMMAX
 10
12.0
 20
9.0
  9
$ORTHOMODE
 70
     0
  9
$REGENMODE
 70
     1
  9
$FILLMODE
 70
     1
  9
$QTEXTMODE
 70
     0
  9
$MIRRTEXT
 70
     1
  9
$LTSCALE
 40
137.5
  9
$ATTMODE
 70
     1
  9
$TEXTSIZE
 40
0.2
  9
$TRACEWID
 40
0.05
  9
$TEXTSTYLE
  7
Standard
  9
$CLAYER
  8
0
  9
$CELTYPE
  6
ByLayer
  9
$CECOLOR
 62
   256
  9
$CELTSCALE
 40
1.0
  9
$DISPSILH
 70
     0
  9
$DIMSCALE
 40
1.0
  9
$DIMASZ
 40
0.18
  9
$DIMEXO
 40
0.0625
  9
$DIMDLI
 40
0.38
  9
$DIMRND
 40
0.0
  9
$DIMDLE
 40
0.0
  9
$DIMEXE
 40
0.18
  9
$DIMTP
 40
0.0
  9
$DIMTM
 40
0.0
  9
$DIMTXT
 40
0.18
  9
$DIMCEN
 40
0.09
  9
$DIMTSZ
 40
0.0
  9
$DIMTOL
 70
     0
  9
$DIMLIM
 70
     0
  9
$DIMTIH
 70
     1
  9
$DIMTOH
 70
     1
  9
$DIMSE1
 70
     0
  9
$DIMSE2
 70
     0
  9
$DIMTAD
 70
     0
  9
$DIMZIN
 70
     0
  9
$DIMBLK
  1

  9
$DIMASO
 70
     1
  9
$DIMSHO
 70
     1
  9
$DIMPOST
  1

  9
$DIMAPOST
  1

  9
$DIMALT
 70
     0
  9
$DIMALTD
 70
     2
  9
$DIMALTF
 40
25.4
  9
$DIMLFAC
 40
1.0
  9
$DIMTOFL
 70
     0
  9
$DIMTVP
 40
0.0
  9
$DIMTIX
 70
     0
  9
$DIMSOXD
 70
     0
  9
$DIMSAH
 70
     0
  9
$DIMBLK1
  1

  9
$DIMBLK2
  1

  9
$DIMSTYLE
  2
STANDARD_ACAD
  9
$DIMCLRD
 70
     0
  9
$DIMCLRE
 70
     0
  9
$DIMCLRT
 70
     0
  9
$DIMTFAC
 40
1.0
  9
$DIMGAP
 40
0.09
  9
$DIMJUST
 70
     0
  9
$DIMSD1
 70
     0
  9
$DIMSD2
 70
     0
  9
$DIMTOLJ
 70
     1
  9
$DIMTZIN
 70
     0
  9
$DIMALTZ
 70
     0
  9
$DIMALTTZ
 70
     0
  9
$DIMUPT
 70
     0
  9
$DIMDEC
 70
     4
  9
$DIMTDEC
 70
     4
  9
$DIMALTU
 70
     2
  9
$DIMALTTD
 70
     2
  9
$DIMTXSTY
  7
Standard
  9
$DIMAUNIT
 70
     0
  9
$DIMADEC
 70
     0
  9
$DIMALTRND
 40
0.0
  9
$DIMAZIN
 70
     0
  9
$DIMDSEP
 70
    46
  9
$DIMATFIT
 70
     3
  9
$DIMFRAC
 70
     0
  9
$DIMLDRBLK
  1

  9
$DIMLUNIT
 70
     2
  9
$DIMLWD
 70
    -2
  9
$DIMLWE
 70
    -2
  9
$DIMTMOVE
 70
     2
  9
$DIMFXL
 40
1.0
  9
$DIMFXLON
 70
     0
  9
$DIMJOGANG
 40
0.7853981633974483
  9
$DIMTFILL
 70
     0
  9
$DIMTFILLCLR
 70
     0
  9
$DIMARCSYM
 70
     0
  9
$DIMLTYPE
  6

  9
$DIMLTEX1
  6

  9
$DIMLTEX2
  6

  9
$LUNITS
 70
     2
  9
$LUPREC
 70
     3
  9
$SKETCHINC
 40
0.1
  9
$FILLETRAD
 40
0.5
  9
$AUNITS
 70
     0
  9
$AUPREC
 70
     0
  9
$MENU
  1
.
  9
$ELEVATION
 40
0.0
  9
$PELEVATION
 40
0.0
  9
$THICKNESS
 40
0.0
  9
$LIMCHECK
 70
     0
  9
$CHAMFERA
 40
0.0
  9
$CHAMFERB
 40
0.0
  9
$CHAMFERC
 40
0.0
  9
$CHAMFERD
 40
0.0
  9
$SKPOLY
 70
     0
  9
$TDCREATE
 40
2460194.458381875
  9
$TDUCREATE
 40
2460193.958381875
  9
$TDUPDATE
 40
2460194.458420255
  9
$TDUUPDATE
 40
2460193.958420255
  9
$TDINDWG
 40
0.0000000116
  9
$TDUSRTIMER
 40
0.0000000116
  9
$USRTIMER
 70
     1
  9
$ANGBASE
 50
0.0
  9
$ANGDIR
 70
     0
  9
$PDMODE
 70
     0
  9
$PDSIZE
 40
0.0
  9
$PLINEWID
 40
0.0
  9
$SPLFRAME
 70
     0
  9
$SPLINETYPE
 70
     6
  9
$SPLINESEGS
 70
     8
  9
$HANDSEED
  5
325
  9
$SURFTAB1
 70
     6
  9
$SURFTAB2
 70
     6
  9
$SURFTYPE
 70
     6
  9
$SURFU
 70
     6
  9
$SURFV
 70
     6
  9
$UCSBASE
  2

  9
$UCSNAME
  2

  9
$UCSORG
 10
0.0
 20
0.0
 30
0.0
  9
$UCSXDIR
 10
1.0
 20
0.0
 30
0.0
  9
$UCSYDIR
 10
0.0
 20
1.0
 30
0.0
  9
$UCSORTHOREF
  2

  9
$UCSORTHOVIEW
 70
     0
  9
$UCSORGTOP
 10
0.0
 20
0.0
 30
0.0
  9
$UCSORGBOTTOM
 10
0.0
 20
0.0
 30
0.0
  9
$UCSORGLEFT
 10
0.0
 20
0.0
 30
0.0
  9
$UCSORGRIGHT
 10
0.0
 20
0.0
 30
0.0
  9
$UCSORGFRONT
 10
0.0
 20
0.0
 30
0.0
  9
$UCSORGBACK
 10
0.0
 20
0.0
 30
0.0
  9
$PUCSBASE
  2

  9
$PUCSNAME
  2

  9
$PUCSORG
 10
0.0
 20
0.0
 30
0.0
  9
$PUCSXDIR
 10
1.0
 20
0.0
 30
0.0
  9
$PUCSYDIR
 10
0.0
 20
1.0
 30
0.0
  9
$PUCSORTHOREF
  2

  9
$PUCSORTHOVIEW
 70
     0
  9
$PUCSORGTOP
 10
0.0
 20
0.0
 30
0.0
  9
$PUCSORGBOTTOM
 10
0.0
 20
0.0
 30
0.0
  9
$PUCSORGLEFT
 10
0.0
 20
0.0
 30
0.0
  9
$PUCSORGRIGHT
 10
0.0
 20
0.0
 30
0.0
  9
$PUCSORGFRONT
 10
0.0
 20
0.0
 30
0.0
  9
$PUCSORGBACK
 10
0.0
 20
0.0
 30
0.0
  9
$USERI1
 70
     0
  9
$USERI2
 70
     0
  9
$USERI3
 70
     0
  9
$USERI4
 70
     0
  9
$USERI5
 70
     0
  9
$USERR1
 40
0.0
  9
$USERR2
 40
0.0
  9
$USERR3
 40
0.0
  9
$USERR4
 40
0.0
  9
$USERR5
 40
0.0
  9
$WORLDVIEW
 70
     1
  9
$SHADEDGE
 70
     3
  9
$SHADEDIF
 70
    70
  9
$TILEMODE
 70
     1
  9
$MAXACTVP
 70
    64
  9
$PINSBASE
 10
0.0
 20
0.0
 30
0.0
  9
$PLIMCHECK
 70
     0
  9
$PEXTMIN
 10
1.000000000000000E+20
 20
1.000000000000000E+20
 30
1.000000000000000E+20
  9
$PEXTMAX
 10
-1.000000000000000E+20
 20
-1.000000000000000E+20
 30
-1.000000000000000E+20
  9
$PLIMMIN
 10
0.0
 20
0.0
  9
$PLIMMAX
 10
12.0
 20
9.0
  9
$UNITMODE
 70
     0
  9
$VISRETAIN
 70
     1
  9
$PLINEGEN
 70
     0
  9
$PSLTSCALE
 70
     1
  9
$TREEDEPTH
 70
  3020
  9
$CMLSTYLE
  2
Standard
  9
$CMLJUST
 70
     0
  9
$CMLSCALE
 40
1.0
  9
$PROXYGRAPHICS
 70
     1
  9
$MEASUREMENT
 70
     1
  9
$CELWEIGHT
370
    -1
  9
$ENDCAPS
280
     0
  9
$JOINSTYLE
280
     0
  9
$LWDISPLAY
290
     0
  9
$INSUNITS
 70
     4
  9
$HYPERLINKBASE
  1

  9
$STYLESHEET
  1

  9
$XEDIT
290
     1
  9
$CEPSNTYPE
380
     0
  9
$PSTYLEMODE
290
     1
  9
$FINGERPRINTGUID
  2
{883e8cc3-6157-4423-98dd-63b2b599af2e}
  9
$VERSIONGUID
  2
{FAEB1C32-E019-11D5-929B-00C0DF256EC4}
  9
$EXTNAMES
290
     1
  9
$PSVPSCALE
 40
0.0
  9
$OLESTARTUP
290
     0
  9
$SORTENTS
280
   127
  9
$INDEXCTL
280
     0
  9
$HIDETEXT
280
     1
  9
$XCLIPFRAME
290
     0
  9
$HALOGAP
280
     0
  9
$OBSCOLOR
 70
   257
  9
$OBSLTYPE
280
     0
  9
$INTERSECTIONDISPLAY
280
     0
  9
$INTERSECTIONCOLOR
 70
   257
  9
$DIMASSOC
280
     2
  9
$PROJECTNAME
  1

  9
$CAMERADISPLAY
290
     0
  9
$LENSLENGTH
 40
50.0
  9
$CAMERAHEIGHT
 40
0.0
  9
$STEPSPERSEC
 40
2.0
  9
$STEPSIZE
 40
6.0
  9
$3DDWFPREC
 40
2.0
  9
$PSOLWIDTH
 40
0.25
  9
$PSOLHEIGHT
 40
4.0
  9
$LOFTANG1
 40
1.570796326794897
  9
$LOFTANG2
 40
1.570796326794897
  9
$LOFTMAG1
 40
0.0
  9
$LOFTMAG2
 40
0.0
  9
$LOFTPARAM
 70
     7
  9
$LOFTNORMALS
280
     1
  9
$LATITUDE
 40
37.795
  9
$LONGITUDE
 40
-122.394
  9
$NORTHDIRECTION
 40
0.0
  9
$TIMEZONE
 70
 -8000
  9
$LIGHTGLYPHDISPLAY
280
     1
  9
$TILEMODELIGHTSYNCH
280
     1
  9
$CMATERIAL
347
44
  9
$SOLIDHIST
280
     0
  9
$SHOWHIST
280
     1
  9
$DWFFRAME
280
     2
  9
$DGNFRAME
280
     2
  9
$REALWORLDSCALE
290
     1
  9
$INTERFERECOLOR
 62
   256
  9
$CSHADOW
280
     0
  9
$SHADOWPLANELOCATION
 40
0.0
  0
ENDSEC
  0
SECTION
  2
CLASSES
  0
CLASS
  1
ACDBDICTIONARYWDFLT
  2
AcDbDictionaryWithDefault
  3
ObjectDBX Classes
 90
        0
 91
        3
280
     0
281
     0
  0
CLASS
  1
VISUALSTYLE
  2
AcDbVisualStyle
  3
ObjectDBX Classes
 90
     4095
 91
        3
280
     0
281
     0
  0
CLASS
  1
MATERIAL
  2
AcDbMaterial
  3
ObjectDBX Classes
 90
     1153
 91
        3
280
     0
281
     0
  0
CLASS
  1
SCALE
  2
AcDbScale
  3
ObjectDBX Classes
 90
     1153
 91
        3
280
     0
281
     0
  0
CLASS
  1
TABLESTYLE
  2
AcDbTableStyle
  3
ObjectDBX Classes
 90
     4095
 91
        3
280
     0
281
     0
  0
CLASS
  1
MLEADERSTYLE
  2
AcDbMLeaderStyle
  3
ACDB_MLEADERSTYLE_CLASS
 90
     4095
 91
        3
280
     0
281
     0
  0
CLASS
  1
SUN
  2
AcDbSun
  3
SCENEOE
 90
     1153
 91
        3
280
     0
281
     0
  0
CLASS
  1
DICTIONARYVAR
  2
AcDbDictionaryVar
  3
ObjectDBX Classes
 90
        0
 91
        3
280
     0
281
     0
  0
CLASS
  1
CELLSTYLEMAP
  2
AcDbCellStyleMap
  3
ObjectDBX Classes
 90
     1152
 91
        3
280
     0
281
     0
  0
ENDSEC
  0
SECTION
  2
TABLES
  0
TABLE
  2
VPORT
  5
8
330
0
100
AcDbSymbolTable
 70
     1
  0
VPORT
  5
29
330
8
100
AcDbSymbolTableRecord
100
AcDbViewportTableRecord
  2
*Active
 70
     0
 10
0.0
 20
0.0
 11
1.0
 21
1.0
 12
10.42990654205607
 22
4.5
 13
0.0
 23
0.0
 14
0.5
 24
0.5
 15
0.5
 25
0.5
 16
0.0
 26
0.0
 36
1.0
 17
0.0
 27
0.0
 37
0.0
 40
9.0
 41
1.972972972850329
 42
50.0
 43
0.0
 44
0.0
 50
0.0
 51
0.0
 71
     0
 72
   100
 73
     1
 74
     3
 75
     0
 76
     0
 77
     0
 78
     0
281
     0
 65
     1
110
0.0
120
0.0
130
0.0
111
1.0
121
0.0
131
0.0
112
0.0
122
1.0
132
0.0
 79
     0
146
0.0
348
2F
 60
     3
 61
     5
292
     1
282
     1
141
0.0
142
0.0
 63
   250
361
6D
  0
ENDTAB
  0
TABLE
  2
LTYPE
  5
5
330
0
100
AcDbSymbolTable
 70
     1
  0
LTYPE
  5
14
330
5
100
AcDbSymbolTableRecord
100
AcDbLinetypeTableRecord
  2
ByBlock
 70
     0
  3

 72
    65
 73
     0
 40
0.0
  0
LTYPE
  5
15
330
5
100
AcDbSymbolTableRecord
100
AcDbLinetypeTableRecord
  2
ByLayer
 70
     0
  3

 72
    65
 73
     0
 40
0.0
  0
LTYPE
  5
16
330
5
100
AcDbSymbolTableRecord
100
AcDbLinetypeTableRecord
  2
Continuous
 70
     0
  3
Solid line
 72
    65
 73
     0
 40
0.0
  0
ENDTAB
  0
TABLE
  2
LAYER
  5
2
330
0
100
AcDbSymbolTable
 70
     2
  0
LAYER
  5
10
330
2
100
AcDbSymbolTableRecord
100
AcDbLayerTableRecord
  2
0
 70
     0
 62
    18
420
        0
  6
Continuous
370
    -3
390
F
347
46
  0
LAYER
  5
6E
330
2
100
AcDbSymbolTableRecord
100
AcDbLayerTableRecord
  2
FISHER & PAYKEL
 70
     0
 62
    18
420
        0
  6
Continuous
370
    -3
390
F
347
46
  0
ENDTAB
  0
TABLE
  2
STYLE
  5
3
330
0
100
AcDbSymbolTable
 70
     1
  0
STYLE
  5
11
330
3
100
AcDbSymbolTableRecord
100
AcDbTextStyleTableRecord
  2
Standard
 70
     0
 40
0.0
 41
1.0
 50
0.0
 71
     0
 42
0.2
  3
txt
  4

  0
ENDTAB
  0
TABLE
  2
VIEW
  5
6
330
0
100
AcDbSymbolTable
 70
     0
  0
ENDTAB
  0
TABLE
  2
UCS
  5
7
330
0
100
AcDbSymbolTable
 70
     0
  0
ENDTAB
  0
TABLE
  2
APPID
  5
9
330
0
100
AcDbSymbolTable
 70
     2
  0
APPID
  5
12
330
9
100
AcDbSymbolTableRecord
100
AcDbRegAppTableRecord
  2
ACAD
 70
     0
  0
APPID
  5
31D
330
9
100
AcDbSymbolTableRecord
100
AcDbRegAppTableRecord
  2
ACAD_MLEADERVER
 70
     0
  0
ENDTAB
  0
TABLE
  2
DIMSTYLE
  5
A
330
0
100
AcDbSymbolTable
 70
     1
100
AcDbDimStyleTable
  0
DIMSTYLE
105
27
330
A
100
AcDbSymbolTableRecord
100
AcDbDimStyleTableRecord
  2
STANDARD_ACAD
 70
     0
178
     0
340
11
  0
ENDTAB
  0
TABLE
  2
BLOCK_RECORD
  5
1
330
0
100
AcDbSymbolTable
 70
     2
  0
BLOCK_RECORD
  5
1F
330
1
100
AcDbSymbolTableRecord
100
AcDbBlockTableRecord
  2
*Model_Space
340
22
 70
     0
280
     1
281
     0
  0
BLOCK_RECORD
  5
1B
330
1
100
AcDbSymbolTableRecord
100
AcDbBlockTableRecord
  2
*Paper_Space
340
1E
 70
     0
280
     1
281
     0
  0
BLOCK_RECORD
  5
23
330
1
100
AcDbSymbolTableRecord
100
AcDbBlockTableRecord
  2
*Paper_Space0
340
26
 70
     0
280
     1
281
     0
  0
BLOCK_RECORD
  5
2E0
330
1
100
AcDbSymbolTableRecord
100
AcDbBlockTableRecord
  2
_FILLED
340
0
 70
     0
280
     1
281
     0
  0
ENDTAB
  0
ENDSEC
  0
SECTION
  2
BLOCKS
  0
BLOCK
  5
20
330
1F
100
AcDbEntity
  8
0
100
AcDbBlockBegin
  2
*Model_Space
 70
     0
 10
0.0
 20
0.0
 30
0.0
  3
*Model_Space
  1

  0
ENDBLK
  5
21
330
1F
100
AcDbEntity
  8
0
100
AcDbBlockEnd
  0
BLOCK
  5
1C
330
1B
100
AcDbEntity
 67
     1
  8
0
100
AcDbBlockBegin
  2
*Paper_Space
 70
     0
 10
0.0
 20
0.0
 30
0.0
  3
*Paper_Space
  1

  0
ENDBLK
  5
1D
330
1B
100
AcDbEntity
 67
     1
  8
0
100
AcDbBlockEnd
  0
BLOCK
  5
24
330
23
100
AcDbEntity
  8
0
100
AcDbBlockBegin
  2
*Paper_Space0
 70
     0
 10
0.0
 20
0.0
 30
0.0
  3
*Paper_Space0
  1

  0
ENDBLK
  5
25
330
23
100
AcDbEntity
  8
0
100
AcDbBlockEnd
  0
BLOCK
  5
2E6
330
2E0
100
AcDbEntity
  8
0
100
AcDbBlockBegin
  2
_FILLED
 70
     0
 10
0.0
 20
0.0
 30
0.0
  3
_FILLED
  1

  0
LINE
  5
2E1
330
2E0
100
AcDbEntity
  8
0
  6
ByBlock
 62
     0
370
    -2
100
AcDbLine
 10
0.0
 20
0.0
 30
0.0
 11
-1.0
 21
0.125
 31
0.0
  0
LINE
  5
2E2
330
2E0
100
AcDbEntity
  8
0
  6
ByBlock
 62
     0
370
    -2
100
AcDbLine
 10
-1.0
 20
0.125
 30
0.0
 11
-1.0
 21
-0.125
 31
0.0
  0
LINE
  5
2E3
330
2E0
100
AcDbEntity
  8
0
  6
ByBlock
 62
     0
370
    -2
100
AcDbLine
 10
-1.0
 20
-0.125
 30
0.0
 11
0.0
 21
0.0
 31
0.0
  0
LINE
  5
2E4
330
2E0
100
AcDbEntity
  8
0
  6
ByBlock
 62
     0
370
    -2
100
AcDbLine
 10
-0.5000000000000001
 20
-0.0625
 30
0.0
 11
-1.0
 21
0.0
 31
0.0
  0
LINE
  5
2E5
330
2E0
100
AcDbEntity
  8
0
  6
ByBlock
 62
     0
370
    -2
100
AcDbLine
 10
-0.5000000000000001
 20
0.0625
 30
0.0
 11
-0.515873015873016
 21
-0.064484126984127
 31
0.0
  0
ENDBLK
  5
2E7
330
2E0
100
AcDbEntity
  8
0
100
AcDbBlockEnd
  0
ENDSEC
  0
SECTION
  2
ENTITIES
  0
LINE
  5
6F
330
1F
100
AcDbEntity
  8
FISHER & PAYKEL
 62
   250
420
  1316376
370
     9
100
AcDbLine
 10
574.0600749881257
 20
-251.994833135652
 30
0.0
 11
574.8503098722165
 21
-251.2116539201688
 31
0.0
  0
SPLINE
  5
70
330
1F
100
AcDbEntity
  8
FISHER & PAYKEL
 62
   250
420
  1316376
370
     9
100
AcDbSpline
210
0.0
220
0.0
230
1.0
 70
     8
 71
     3
 72
     8
 73
     4
 74
     0
 42
0.000000001
 43
0.0000000001
 40
0.3153727952756245
 40
0.3153727952756245
 40
0.3153727952756245
 40
0.3153727952756245
 40
1.315372795275624
 40
1.315372795275624
 40
1.315372795275624
 40
1.315372795275624
 10
574.8503098722165
 20
-251.2116539201688
 30
0.0
 10
576.1979425763361
 20
-252.5451752870724
 30
0.0
 10
577.7572453386942
 20
-253.3918555200271
 30
0.0
 10
579.3377151068764
 20
-253.3918555200271
 30
0.0
  0
SPLINE
  5
71
330
1F
100
AcDbEntity
  8
FISHER & PAYKEL
 62
   250
420
  1316376
370
     9
100
AcDbSpline
210
0.0
220
0.0
230
1.0
 70
     8
 71
     3
 72
     8
 73
     4
 74
     0
 42
0.000000001
 43
0.0000000001
 40
1.315372795275624
 40
1.315372795275624
 40
1.315372795275624
 40
1.315372795275624
 40
2.315372795275624
 40
2.315372795275624
 40
2.315372795275624
 40
2.315372795275624
 10
579.3377151068764
 20
-253.3918555200271
 30
0.0
 10
581.7119475934535
 20
-253.3918555200271
 30
0.0
 10
583.3559183791072
 20
-251.7408290657654
 30
0.0
 10
583.3559183791072
 20
-249.6699903293306
 30
0.0
  0
LINE
  5
72
330
1F
100
AcDbEntity
  8
FISHER & PAYKEL
 62
   250
420
  1316376
370
     9
100
AcDbLine
 10
583.3559183791072
 20
-249.6699903293306
 30
0.0
 11
583.3559183791072
 21
-249.6241284833786
 31
0.0
  0
SPLINE
  5
73
330
1F
100
AcDbEntity
  8
FISHER & PAYKEL
 62
   250
420
  1316376
370
     9
100
AcDbSpline
210
0.0
220
0.0
230
1.0
 70
     8
 71
     3
 72
     8
 73
     4
 74
     0
 42
0.000000001
 43
0.0000000001
 40
2.328372795275658
 40
2.328372795275658
 40
2.328372795275658
 40
2.328372795275658
 40
3.328372795275658
 40
3.328372795275658
 40
3.328372795275658
 40
3.328372795275658
 10
583.3559183791072
 20
-249.6241284833786
 30
0.0
 10
583.3559183791072
 20
-247.5744567527677
 30
0.0
 10
581.6696135818058
 20
-246.1139333509209
 30
0.0
 10
579.2530470835809
 20
-246.1139333509209
 30
0.0
  0
SPLINE
  5
74
330
1F
100
AcDbEntity
  8
FISHER & PAYKEL
 62
   250
420
  1316376
370
     9
100
AcDbSpline
210
0.0
220
0.0
230
1.0
 70
     8
 71
     3
 72
     8
 73
     4
 74
     0
 42
0.000000001
 43
0.0000000001
 40
3.328372795275658
 40
3.328372795275658
 40
3.328372795275658
 40
3.328372795275658
 40
4.328372795275659
 40
4.328372795275659
 40
4.328372795275659
 40
4.328372795275659
 10
579.2530470835809
 20
-246.1139333509209
 30
0.0
 10
577.8630803678136
 20
-246.1139333509209
 30
0.0
 10
576.8188414138363
 20
-246.5372734673981
 30
0.0
 10
575.8769096546739
 20
-247.048809441475
 30
0.0
  0
LINE
  5
75
330
1F
100
AcDbEntity
  8
FISHER & PAYKEL
 62
   250
420
  1316376
370
     9
100
AcDbLine
 10
575.8769096546739
 20
-247.048809441475
 30
0.0
 11
575.0196459188073
 21
-246.4949394557505
 31
0.0
  0
LINE
  5
76
330
1F
100
AcDbEntity
  8
FISHER & PAYKEL
 62
   250
420
  1316376
370
     9
100
AcDbLine
 10
575.0196459188073
 20
-246.4949394557505
 30
0.0
 11
575.4500417038928
 21
-239.3228523157636
 31
0.0
  0
LINE
  5
77
330
1F
100
AcDbEntity
  8
FISHER & PAYKEL
 62
   250
420
  1316376
370
     9
100
AcDbLine
 10
575.4500417038928
 20
-239.3228523157636
 30
0.0
 11
583.8462873473602
 21
-239.3228523157636
 31
0.0
  0
LINE
  5
78
330
1F
100
AcDbEntity
  8
FISHER & PAYKEL
 62
   250
420
  1316376
370
     9
100
AcDbLine
 10
583.8462873473602
 20
-239.3228523157636
 30
0.0
 11
583.8462873473602
 21
-240.381202606957
 31
0.0
  0
LINE
  5
79
330
1F
100
AcDbEntity
  8
FISHER & PAYKEL
 62
   250
420
  1316376
370
     9
100
AcDbLine
 10
583.8462873473602
 20
-240.381202606957
 30
0.0
 11
576.4307796403987
 21
-240.381202606957
 31
0.0
  0
LINE
  5
7A
330
1F
100
AcDbEntity
  8
FISHER & PAYKEL
 62
   250
420
  1316376
370
     9
100
AcDbLine
 10
576.4307796403987
 20
-240.381202606957
 30
0.0
 11
576.0674127070888
 21
-245.923430298506
 31
0.0
  0
SPLINE
  5
7B
330
1F
100
AcDbEntity
  8
FISHER & PAYKEL
 62
   250
420
  1316376
370
     9
100
AcDbSpline
210
0.0
220
0.0
230
1.0
 70
     8
 71
     3
 72
     8
 73
     4
 74
     0
 42
0.000000001
 43
0.0000000001
 40
13.01070906300447
 40
13.01070906300447
 40
13.01070906300447
 40
13.01070906300447
 40
14.01070906300447
 40
14.01070906300447
 40
14.01070906300447
 40
14.01070906300447
 10
576.0674127070888
 20
-245.923430298506
 30
0.0
 10
577.030511472075
 20
-245.4577561703809
 30
0.0
 10
577.9936102370607
 20
-245.119084077199
 30
0.0
 10
579.3800491185241
 20
-245.119084077199
 30
0.0
  0
SPLINE
  5
7C
330
1F
100
AcDbEntity
  8
FISHER & PAYKEL
 62
   250
420
  1316376
370
     9
100
AcDbSpline
210
0.0
220
0.0
230
1.0
 70
     8
 71
     3
 72
     8
 73
     4
 74
     0
 42
0.000000001
 43
0.0000000001
 40
14.01070906300447
 40
14.01070906300447
 40
14.01070906300447
 40
14.01070906300447
 40
15.01070906300447
 40
15.01070906300447
 40
15.01070906300447
 40
15.01070906300447
 10
579.3800491185241
 20
-245.119084077199
 30
0.0
 10
582.265817579178
 20
-245.119084077199
 30
0.0
 10
584.5095201965078
 20
-246.9394465780517
 30
0.0
 10
584.5095201965078
 20
-249.581794471731
 30
0.0
  0
LINE
  5
7D
330
1F
100
AcDbEntity
  8
FISHER & PAYKEL
 62
   250
420
  1316376
370
     9
100
AcDbLine
 10
584.5095201965078
 20
-249.581794471731
 30
0.0
 11
584.5095201965078
 21
-249.6241284833786
 31
0.0
  0
SPLINE
  5
7E
330
1F
100
AcDbEntity
  8
FISHER & PAYKEL
 62
   250
420
  1316376
370
     9
100
AcDbSpline
210
0.0
220
0.0
230
1.0
 70
     8
 71
     3
 72
     8
 73
     4
 74
     0
 42
0.000000001
 43
0.0000000001
 40
15.02270906300447
 40
15.02270906300447
 40
15.02270906300447
 40
15.02270906300447
 40
16.02270906300447
 40
16.02270906300447
 40
16.02270906300447
 40
16.02270906300447
 10
584.5095201965078
 20
-249.6241284833786
 30
0.0
 10
584.5095201965078
 20
-252.4181732521292
 30
0.0
 10
582.3081515908257
 20
-254.3867047937488
 30
0.0
 10
579.2953810952288
 20
-254.3867047937488
 30
0.0
  0
SPLINE
  5
7F
330
1F
100
AcDbEntity
  8
FISHER & PAYKEL
 62
   250
420
  1316376
370
     9
100
AcDbSpline
210
0.0
220
0.0
230
1.0
 70
     8
 71
     3
 72
     8
 73
     4
 74
     0
 42
0.000000001
 43
0.0000000001
 40
16.02270906300447
 40
16.02270906300447
 40
16.02270906300447
 40
16.02270906300447
 40
17.02270906300447
 40
17.02270906300447
 40
17.02270906300447
 40
17.02270906300447
 10
579.2953810952288
 20
-254.3867047937488
 30
0.0
 10
577.2668768540746
 20
-254.3867047937488
 30
0.0
 10
575.3653745873046
 20
-253.3071880114856
 30
0.0
 10
574.0600749881257
 20
-251.994833135652
 30
0.0
  0
POLYLINE
  5
80
330
1F
100
AcDbEntity
  8
FISHER & PAYKEL
 62
   250
420
  1316376
370
     9
100
AcDb2dPolyline
 66
     1
 10
0.0
 20
0.0
 30
0.0
 70
     1
  0
VERTEX
  5
81
330
80
100
AcDbEntity
  8
FISHER & PAYKEL
 62
   250
420
  1316376
370
     9
100
AcDbVertex
100
AcDb2dVertex
 10
698.9828043925631
 20
-240.3603883845633
 30
0.0
  0
VERTEX
  5
82
330
80
100
AcDbEntity
  8
FISHER & PAYKEL
 62
   250
420
  1316376
370
     9
100
AcDbVertex
100
AcDb2dVertex
 10
696.0970359319094
 20
-241.3340706524612
 30
0.0
  0
VERTEX
  5
83
330
80
100
AcDbEntity
  8
FISHER & PAYKEL
 62
   250
420
  1316376
370
     9
100
AcDbVertex
100
AcDb2dVertex
 10
695.7971700160713
 20
-240.4662234136824
 30
0.0
  0
VERTEX
  5
84
330
80
100
AcDbEntity
  8
FISHER & PAYKEL
 62
   250
420
  1316376
370
     9
100
AcDbVertex
100
AcDb2dVertex
 10
699.2156414566257
 20
-239.2173700700744
 30
0.0
  0
VERTEX
  5
85
330
80
100
AcDbEntity
  8
FISHER & PAYKEL
 62
   250
420
  1316376
370
     9
100
AcDbVertex
100
AcDb2dVertex
 10
700.0729051924925
 20
-239.2173700700744
 30
0.0
  0
VERTEX
  5
86
330
80
100
AcDbEntity
  8
FISHER & PAYKEL
 62
   250
420
  1316376
370
     9
100
AcDbVertex
100
AcDb2dVertex
 10
700.0729051924925
 20
-254.1295256729888
 30
0.0
  0
VERTEX
  5
87
330
80
100
AcDbEntity
  8
FISHER & PAYKEL
 62
   250
420
  1316376
370
     9
100
AcDbVertex
100
AcDb2dVertex
 10
698.9828043925631
 20
-254.1295256729888
 30
0.0
  0
SEQEND
  5
88
330
80
100
AcDbEntity
  8
FISHER & PAYKEL
 62
   250
420
  1316376
370
     9
  0
LINE
  5
89
330
1F
100
AcDbEntity
  8
FISHER & PAYKEL
 62
   250
420
  1316376
370
     9
100
AcDbLine
 10
703.6751768002844
 20
-246.7718744486126
 30
0.0
 11
703.6751768002844
 21
-246.7260126026611
 31
0.0
  0
SPLINE
  5
8A
330
1F
100
AcDbEntity
  8
FISHER & PAYKEL
 62
   250
420
  1316376
370
     9
100
AcDbSpline
210
0.0
220
0.0
230
1.0
 70
     8
 71
     3
 72
     8
 73
     4
 74
     0
 42
0.000000001
 43
0.0000000001
 40
2.012999999999977
 40
2.012999999999977
 40
2.012999999999977
 40
2.012999999999977
 40
3.012999999999977
 40
3.012999999999977
 40
3.012999999999977
 40
3.012999999999977
 10
703.6751768002844
 20
-246.7260126026611
 30
0.0
 10
703.6751768002844
 20
-242.6443083129586
 30
0.0
 10
706.0917432985091
 20
-239.0670843287251
 30
0.0
 10
709.8982765125011
 20
-239.0670843287251
 30
0.0
  0
SPLINE
  5
8B
330
1F
100
AcDbEntity
  8
FISHER & PAYKEL
 62
   250
420
  1316376
370
     9
100
AcDbSpline
210
0.0
220
0.0
230
1.0
 70
     8
 71
     3
 72
     8
 73
     4
 74
     0
 42
0.000000001
 43
0.0000000001
 40
3.012999999999977
 40
3.012999999999977
 40
3.012999999999977
 40
3.012999999999977
 40
4.012999999999977
 40
4.012999999999977
 40
4.012999999999977
 40
4.012999999999977
 10
709.8982765125011
 20
-239.0670843287251
 30
0.0
 10
713.7012818921892
 20
-239.0670843287251
 30
0.0
 10
716.0719865444623
 20
-242.601974301311
 30
0.0
 10
716.0719865444623
 20
-246.6872064253173
 30
0.0
  0
LINE
  5
8C
330
1F
100
AcDbEntity
  8
FISHER & PAYKEL
 62
   250
420
  1316376
370
     9
100
AcDbLine
 10
716.0719865444623
 20
-246.6872064253173
 30
0.0
 11
716.0719865444623
 21
-246.7260126026611
 31
0.0
  0
SPLINE
  5
8D
330
1F
100
AcDbEntity
  8
FISHER & PAYKEL
 62
   250
420
  1316376
370
     9
100
AcDbSpline
210
0.0
220
0.0
230
1.0
 70
     8
 71
     3
 72
     8
 73
     4
 74
     0
 42
0.000000001
 43
0.0000000001
 40
4.024000000000001
 40
4.024000000000001
 40
4.024000000000001
 40
4.024000000000001
 40
5.024000000000001
 40
5.024000000000001
 40
5.024000000000001
 40
5.024000000000001
 10
716.0719865444623
 20
-246.7260126026611
 30
0.0
 10
716.0719865444623
 20
-250.8112447266672
 30
0.0
 10
713.6589478805415
 20
-254.3849408765968
 30
0.0
 10
709.8524146665495
 20
-254.3849408765968
 30
0.0
  0
SPLINE
  5
8E
330
1F
100
AcDbEntity
  8
FISHER & PAYKEL
 62
   250
420
  1316376
370
     9
100
AcDbSpline
210
0.0
220
0.0
230
1.0
 70
     8
 71
     3
 72
     8
 73
     4
 74
     0
 42
0.000000001
 43
0.0000000001
 40
5.024000000000001
 40
5.024000000000001
 40
5.024000000000001
 40
5.024000000000001
 40
6.024000000000001
 40
6.024000000000001
 40
6.024000000000001
 40
6.024000000000001
 10
709.8524146665495
 20
-254.3849408765968
 30
0.0
 10
706.0494092868614
 20
-254.3849408765968
 30
0.0
 10
703.6751768002844
 20
-250.853578738315
 30
0.0
 10
703.6751768002844
 20
-246.7718744486126
 30
0.0
  0
LINE
  5
8F
330
1F
100
AcDbEntity
  8
FISHER & PAYKEL
 62
   250
420
  1316376
370
     9
100
AcDbLine
 10
714.9183847270617
 20
-246.7718744486126
 30
0.0
 11
714.9183847270617
 21
-246.7260126026611
 31
0.0
  0
SPLINE
  5
90
330
1F
100
AcDbEntity
  8
FISHER & PAYKEL
 62
   250
420
  1316376
370
     9
100
AcDbSpline
210
0.0
220
0.0
230
1.0
 70
     8
 71
     3
 72
     8
 73
     4
 74
     0
 42
0.000000001
 43
0.0000000001
 40
0.0129999999999768
 40
0.0129999999999768
 40
0.0129999999999768
 40
0.0129999999999768
 40
1.012999999999977
 40
1.012999999999977
 40
1.012999999999977
 40
1.012999999999977
 10
714.9183847270617
 20
-246.7260126026611
 30
0.0
 10
714.9183847270617
 20
-243.2793184876746
 30
0.0
 10
712.9533810197461
 20
-240.0654614367506
 30
0.0
 10
709.8524146665495
 20
-240.0654614367506
 30
0.0
  0
SPLINE
  5
91
330
1F
100
AcDbEntity
  8
FISHER & PAYKEL
 62
   250
420
  1316376
370
     9
100
AcDbSpline
210
0.0
220
0.0
230
1.0
 70
     8
 71
     3
 72
     8
 73
     4
 74
     0
 42
0.000000001
 43
0.0000000001
 40
1.012999999999977
 40
1.012999999999977
 40
1.012999999999977
 40
1.012999999999977
 40
2.012999999999977
 40
2.012999999999977
 40
2.012999999999977
 40
2.012999999999977
 10
709.8524146665495
 20
-240.0654614367506
 30
0.0
 10
706.7549761476569
 20
-240.0654614367506
 30
0.0
 10
704.8323064519891
 20
-243.2369844760267
 30
0.0
 10
704.8323064519891
 20
-246.6872064253173
 30
0.0
  0
LINE
  5
92
330
1F
100
AcDbEntity
  8
FISHER & PAYKEL
 62
   250
420
  1316376
370
     9
100
AcDbLine
 10
704.8323064519891
 20
-246.6872064253173
 30
0.0
 11
704.8323064519891
 21
-246.7260126026611
 31
0.0
  0
SPLINE
  5
93
330
1F
100
AcDbEntity
  8
FISHER & PAYKEL
 62
   250
420
  1316376
370
     9
100
AcDbSpline
210
0.0
220
0.0
230
1.0
 70
     8
 71
     3
 72
     8
 73
     4
 74
     0
 42
0.000000001
 43
0.0000000001
 40
2.024000000000001
 40
2.024000000000001
 40
2.024000000000001
 40
2.024000000000001
 40
3.024000000000001
 40
3.024000000000001
 40
3.024000000000001
 40
3.024000000000001
 10
704.8323064519891
 20
-246.7260126026611
 30
0.0
 10
704.8323064519891
 20
-250.1550675461274
 30
0.0
 10
706.7973101593047
 20
-253.3936194371793
 30
0.0
 10
709.8982765125011
 20
-253.3936194371793
 30
0.0
  0
SPLINE
  5
94
330
1F
100
AcDbEntity
  8
FISHER & PAYKEL
 62
   250
420
  1316376
370
     9
100
AcDbSpline
210
0.0
220
0.0
230
1.0
 70
     8
 71
     3
 72
     8
 73
     4
 74
     0
 42
0.000000001
 43
0.0000000001
 40
3.024000000000001
 40
3.024000000000001
 40
3.024000000000001
 40
3.024000000000001
 40
4.024000000000001
 40
4.024000000000001
 40
4.024000000000001
 40
4.024000000000001
 10
709.8982765125011
 20
-253.3936194371793
 30
0.0
 10
712.9957150313937
 20
-253.3936194371793
 30
0.0
 10
714.9183847270617
 20
-250.1974015577753
 30
0.0
 10
714.9183847270617
 20
-246.7718744486126
 30
0.0
  0
LINE
  5
95
330
1F
100
AcDbEntity
  8
FISHER & PAYKEL
 62
   250
420
  1316376
370
     9
100
AcDbLine
 10
947.4661663766731
 20
-253.3075402801621
 30
0.0
 11
953.0436724112624
 21
-248.3156547400331
 31
0.0
  0
SPLINE
  5
96
330
1F
100
AcDbEntity
  8
FISHER & PAYKEL
 62
   250
420
  1316376
370
     9
100
AcDbSpline
210
0.0
220
0.0
230
1.0
 70
     8
 71
     3
 72
     8
 73
     4
 74
     0
 42
0.000000001
 43
0.0000000001
 40
2.121741266036095
 40
2.121741266036095
 40
2.121741266036095
 40
2.121741266036095
 40
3.121741266036095
 40
3.121741266036095
 40
3.121741266036095
 40
3.121741266036095
 10
953.0436724112624
 20
-248.3156547400331
 30
0.0
 10
955.4990450868306
 20
-246.0931191285272
 30
0.0
 10
956.3563088226972
 20
-244.8230987790953
 30
0.0
 10
956.3563088226972
 20
-243.2567403481291
 30
0.0
  0
SPLINE
  5
97
330
1F
100
AcDbEntity
  8
FISHER & PAYKEL
 62
   250
420
  1316376
370
     9
100
AcDbSpline
210
0.0
220
0.0
230
1.0
 70
     8
 71
     3
 72
     8
 73
     4
 74
     0
 42
0.000000001
 43
0.0000000001
 40
3.121741266036095
 40
3.121741266036095
 40
3.121741266036095
 40
3.121741266036095
 40
4.121741266036095
 40
4.121741266036095
 40
4.121741266036095
 40
4.121741266036095
 10
956.3563088226972
 20
-243.2567403481291
 30
0.0
 10
956.3563088226972
 20
-241.3340706524612
 30
0.0
 10
954.7723112202113
 20
-240.0852173088531
 30
0.0
 10
952.9766435594865
 20
-240.0852173088531
 30
0.0
  0
SPLINE
  5
98
330
1F
100
AcDbEntity
  8
FISHER & PAYKEL
 62
   250
420
  1316376
370
     9
100
AcDbSpline
210
0.0
220
0.0
230
1.0
 70
     8
 71
     3
 72
     8
 73
     4
 74
     0
 42
0.000000001
 43
0.0000000001
 40
4.121741266036095
 40
4.121741266036095
 40
4.121741266036095
 40
4.121741266036095
 40
5.121741266036095
 40
5.121741266036095
 40
5.121741266036095
 40
5.121741266036095
 10
952.9766435594865
 20
-240.0852173088531
 30
0.0
 10
951.0751408696426
 20
-240.0852173088531
 30
0.0
 10
949.8403988632501
 20
-241.0588995767509
 30
0.0
 10
948.5986011882501
 20
-242.8369280659558
 30
0.0
  0
LINE
  5
99
330
1F
100
AcDbEntity
  8
FISHER & PAYKEL
 62
   250
420
  1316376
370
     9
100
AcDbLine
 10
948.5986011882501
 20
-242.8369280659558
 30
0.0
 11
947.766032292511
 21
-242.2865859145352
 31
0.0
  0
SPLINE
  5
9A
330
1F
100
AcDbEntity
  8
FISHER & PAYKEL
 62
   250
420
  1316376
370
     9
100
AcDbSpline
210
0.0
220
0.0
230
1.0
 70
     8
 71
     3
 72
     8
 73
     4
 74
     0
 42
0.000000001
 43
0.0000000001
 40
5.404640541397528
 40
5.404640541397528
 40
5.404640541397528
 40
5.404640541397528
 40
6.404640541397528
 40
6.404640541397528
 40
6.404640541397528
 40
6.404640541397528
 10
947.766032292511
 20
-242.2865859145352
 30
0.0
 10
949.0678031506791
 20
-240.3180543729154
 30
0.0
 10
950.4577698664464
 20
-239.1150628752591
 30
0.0
 10
953.0860064229098
 20
-239.1150628752591
 30
0.0
  0
SPLINE
  5
9B
330
1F
100
AcDbEntity
  8
FISHER & PAYKEL
 62
   250
420
  1316376
370
     9
100
AcDbSpline
210
0.0
220
0.0
230
1.0
 70
     8
 71
     3
 72
     8
 73
     4
 74
     0
 42
0.000000001
 43
0.0000000001
 40
6.404640541397528
 40
6.404640541397528
 40
6.404640541397528
 40
6.404640541397528
 40
7.404640541397528
 40
7.404640541397528
 40
7.404640541397528
 40
7.404640541397528
 10
953.0860064229098
 20
-239.1150628752591
 30
0.0
 10
955.6260471217738
 20
-239.1150628752591
 30
0.0
 10
957.5310776459219
 20
-240.868396524336
 30
0.0
 10
957.5310776459219
 20
-243.1756001591377
 30
0.0
  0
LINE
  5
9C
330
1F
100
AcDbEntity
  8
FISHER & PAYKEL
 62
   250
420
  1316376
370
     9
100
AcDbLine
 10
957.5310776459219
 20
-243.1756001591377
 30
0.0
 11
957.5310776459219
 21
-243.2179341707854
 31
0.0
  0
SPLINE
  5
9D
330
1F
100
AcDbEntity
  8
FISHER & PAYKEL
 62
   250
420
  1316376
370
     9
100
AcDbSpline
210
0.0
220
0.0
230
1.0
 70
     8
 71
     3
 72
     8
 73
     4
 74
     0
 42
0.000000001
 43
0.0000000001
 40
7.416640541397529
 40
7.416640541397529
 40
7.416640541397529
 40
7.416640541397529
 40
8.416640541397529
 40
8.416640541397529
 40
8.416640541397529
 40
8.416640541397529
 10
957.5310776459219
 20
-243.2179341707854
 30
0.0
 10
957.5310776459219
 20
-245.2499667298766
 30
0.0
 10
956.4198098401689
 20
-246.6011272683002
 30
0.0
 10
953.7915732837055
 20
-248.9718319205733
 30
0.0
  0
LINE
  5
9E
330
1F
100
AcDbEntity
  8
FISHER & PAYKEL
 62
   250
420
  1316376
370
     9
100
AcDbLine
 10
953.7915732837055
 20
-248.9718319205733
 30
0.0
 11
949.2195000257502
 21
-253.0782310504035
 31
0.0
  0
LINE
  5
9F
330
1F
100
AcDbEntity
  8
FISHER & PAYKEL
 62
   250
420
  1316376
370
     9
100
AcDbLine
 10
949.2195000257502
 20
-253.0782310504035
 30
0.0
 11
957.682774520993
 21
-253.0782310504035
 31
0.0
  0
LINE
  5
A0
330
1F
100
AcDbEntity
  8
FISHER & PAYKEL
 62
   250
420
  1316376
370
     9
100
AcDbLine
 10
957.682774520993
 20
-253.0782310504035
 30
0.0
 11
957.682774520993
 21
-254.1295256729888
 31
0.0
  0
LINE
  5
A1
330
1F
100
AcDbEntity
  8
FISHER & PAYKEL
 62
   250
420
  1316376
370
     9
100
AcDbLine
 10
957.682774520993
 20
-254.1295256729888
 30
0.0
 11
947.4661663766731
 21
-254.1295256729888
 31
0.0
  0
LINE
  5
A2
330
1F
100
AcDbEntity
  8
FISHER & PAYKEL
 62
   250
420
  1316376
370
     9
100
AcDbLine
 10
947.4661663766731
 20
-254.1295256729888
 30
0.0
 11
947.4661663766731
 21
-253.3075402801621
 31
0.0
  0
LINE
  5
A3
330
1F
100
AcDbEntity
  8
FISHER & PAYKEL
 62
   250
420
  1316376
370
     9
100
AcDbLine
 10
960.4009708522078
 20
-246.7718744486126
 30
0.0
 11
960.4009708522078
 21
-246.7260126026611
 31
0.0
  0
SPLINE
  5
A4
330
1F
100
AcDbEntity
  8
FISHER & PAYKEL
 62
   250
420
  1316376
370
     9
100
AcDbSpline
210
0.0
220
0.0
230
1.0
 70
     8
 71
     3
 72
     8
 73
     4
 74
     0
 42
0.000000001
 43
0.0000000001
 40
2.012999999999977
 40
2.012999999999977
 40
2.012999999999977
 40
2.012999999999977
 40
3.012999999999977
 40
3.012999999999977
 40
3.012999999999977
 40
3.012999999999977
 10
960.4009708522078
 20
-246.7260126026611
 30
0.0
 10
960.4009708522078
 20
-242.6443083129586
 30
0.0
 10
962.8175373504328
 20
-239.0670843287251
 30
0.0
 10
966.6240705644248
 20
-239.0670843287251
 30
0.0
  0
SPLINE
  5
A5
330
1F
100
AcDbEntity
  8
FISHER & PAYKEL
 62
   250
420
  1316376
370
     9
100
AcDbSpline
210
0.0
220
0.0
230
1.0
 70
     8
 71
     3
 72
     8
 73
     4
 74
     0
 42
0.000000001
 43
0.0000000001
 40
3.012999999999977
 40
3.012999999999977
 40
3.012999999999977
 40
3.012999999999977
 40
4.012999999999977
 40
4.012999999999977
 40
4.012999999999977
 40
4.012999999999977
 10
966.6240705644248
 20
-239.0670843287251
 30
0.0
 10
970.4270759441126
 20
-239.0670843287251
 30
0.0
 10
972.797780596386
 20
-242.601974301311
 30
0.0
 10
972.797780596386
 20
-246.6872064253173
 30
0.0
  0
LINE
  5
A6
330
1F
100
AcDbEntity
  8
FISHER & PAYKEL
 62
   250
420
  1316376
370
     9
100
AcDbLine
 10
972.797780596386
 20
-246.6872064253173
 30
0.0
 11
972.797780596386
 21
-246.7260126026611
 31
0.0
  0
SPLINE
  5
A7
330
1F
100
AcDbEntity
  8
FISHER & PAYKEL
 62
   250
420
  1316376
370
     9
100
AcDbSpline
210
0.0
220
0.0
230
1.0
 70
     8
 71
     3
 72
     8
 73
     4
 74
     0
 42
0.000000001
 43
0.0000000001
 40
4.024000000000001
 40
4.024000000000001
 40
4.024000000000001
 40
4.024000000000001
 40
5.024000000000001
 40
5.024000000000001
 40
5.024000000000001
 40
5.024000000000001
 10
972.797780596386
 20
-246.7260126026611
 30
0.0
 10
972.797780596386
 20
-250.8112447266672
 30
0.0
 10
970.384741932465
 20
-254.3849408765968
 30
0.0
 10
966.578208718473
 20
-254.3849408765968
 30
0.0
  0
SPLINE
  5
A8
330
1F
100
AcDbEntity
  8
FISHER & PAYKEL
 62
   250
420
  1316376
370
     9
100
AcDbSpline
210
0.0
220
0.0
230
1.0
 70
     8
 71
     3
 72
     8
 73
     4
 74
     0
 42
0.000000001
 43
0.0000000001
 40
5.024000000000001
 40
5.024000000000001
 40
5.024000000000001
 40
5.024000000000001
 40
6.024000000000001
 40
6.024000000000001
 40
6.024000000000001
 40
6.024000000000001
 10
966.578208718473
 20
-254.3849408765968
 30
0.0
 10
962.7752033387849
 20
-254.3849408765968
 30
0.0
 10
960.4009708522078
 20
-250.853578738315
 30
0.0
 10
960.4009708522078
 20
-246.7718744486126
 30
0.0
  0
LINE
  5
A9
330
1F
100
AcDbEntity
  8
FISHER & PAYKEL
 62
   250
420
  1316376
370
     9
100
AcDbLine
 10
971.6441787789852
 20
-246.7718744486126
 30
0.0
 11
971.6441787789852
 21
-246.7260126026611
 31
0.0
  0
SPLINE
  5
AA
330
1F
100
AcDbEntity
  8
FISHER & PAYKEL
 62
   250
420
  1316376
370
     9
100
AcDbSpline
210
0.0
220
0.0
230
1.0
 70
     8
 71
     3
 72
     8
 73
     4
 74
     0
 42
0.000000001
 43
0.0000000001
 40
0.0129999999999768
 40
0.0129999999999768
 40
0.0129999999999768
 40
0.0129999999999768
 40
1.012999999999977
 40
1.012999999999977
 40
1.012999999999977
 40
1.012999999999977
 10
971.6441787789852
 20
-246.7260126026611
 30
0.0
 10
971.6441787789852
 20
-243.2793184876746
 30
0.0
 10
969.6756472373656
 20
-240.0654614367506
 30
0.0
 10
966.578208718473
 20
-240.0654614367506
 30
0.0
  0
SPLINE
  5
AB
330
1F
100
AcDbEntity
  8
FISHER & PAYKEL
 62
   250
420
  1316376
370
     9
100
AcDbSpline
210
0.0
220
0.0
230
1.0
 70
     8
 71
     3
 72
     8
 73
     4
 74
     0
 42
0.000000001
 43
0.0000000001
 40
1.012999999999977
 40
1.012999999999977
 40
1.012999999999977
 40
1.012999999999977
 40
2.012999999999977
 40
2.012999999999977
 40
2.012999999999977
 40
2.012999999999977
 10
966.578208718473
 20
-240.0654614367506
 30
0.0
 10
963.4842980338844
 20
-240.0654614367506
 30
0.0
 10
961.5581005039126
 20
-243.2369844760267
 30
0.0
 10
961.5581005039126
 20
-246.6872064253173
 30
0.0
  0
LINE
  5
AC
330
1F
100
AcDbEntity
  8
FISHER & PAYKEL
 62
   250
420
  1316376
370
     9
100
AcDbLine
 10
961.5581005039126
 20
-246.6872064253173
 30
0.0
 11
961.5581005039126
 21
-246.7260126026611
 31
0.0
  0
SPLINE
  5
AD
330
1F
100
AcDbEntity
  8
FISHER & PAYKEL
 62
   250
420
  1316376
370
     9
100
AcDbSpline
210
0.0
220
0.0
230
1.0
 70
     8
 71
     3
 72
     8
 73
     4
 74
     0
 42
0.000000001
 43
0.0000000001
 40
2.024000000000001
 40
2.024000000000001
 40
2.024000000000001
 40
2.024000000000001
 40
3.024000000000001
 40
3.024000000000001
 40
3.024000000000001
 40
3.024000000000001
 10
961.5581005039126
 20
-246.7260126026611
 30
0.0
 10
961.5581005039126
 20
-250.1550675461274
 30
0.0
 10
963.5231042112282
 20
-253.3936194371793
 30
0.0
 10
966.6240705644248
 20
-253.3936194371793
 30
0.0
  0
SPLINE
  5
AE
330
1F
100
AcDbEntity
  8
FISHER & PAYKEL
 62
   250
420
  1316376
370
     9
100
AcDbSpline
210
0.0
220
0.0
230
1.0
 70
     8
 71
     3
 72
     8
 73
     4
 74
     0
 42
0.000000001
 43
0.0000000001
 40
3.024000000000001
 40
3.024000000000001
 40
3.024000000000001
 40
3.024000000000001
 40
4.024000000000001
 40
4.024000000000001
 40
4.024000000000001
 40
4.024000000000001
 10
966.6240705644248
 20
-253.3936194371793
 30
0.0
 10
969.7215090833172
 20
-253.3936194371793
 30
0.0
 10
971.6441787789852
 20
-250.1974015577753
 30
0.0
 10
971.6441787789852
 20
-246.7718744486126
 30
0.0
  0
LINE
  5
AF
330
1F
100
AcDbEntity
  8
FISHER & PAYKEL
 62
   250
420
  1316376
370
     9
100
AcDbLine
 10
446.1019969485453
 20
-246.7718744486126
 30
0.0
 11
446.1019969485453
 21
-246.7260126026611
 31
0.0
  0
SPLINE
  5
B0
330
1F
100
AcDbEntity
  8
FISHER & PAYKEL
 62
   250
420
  1316376
370
     9
100
AcDbSpline
210
0.0
220
0.0
230
1.0
 70
     8
 71
     3
 72
     8
 73
     4
 74
     0
 42
0.000000001
 43
0.0000000001
 40
2.012999999999977
 40
2.012999999999977
 40
2.012999999999977
 40
2.012999999999977
 40
3.012999999999977
 40
3.012999999999977
 40
3.012999999999977
 40
3.012999999999977
 10
446.1019969485453
 20
-246.7260126026611
 30
0.0
 10
446.1019969485453
 20
-242.6443083129586
 30
0.0
 10
448.51856344677
 20
-239.0670843287251
 30
0.0
 10
452.3250966607622
 20
-239.0670843287251
 30
0.0
  0
SPLINE
  5
B1
330
1F
100
AcDbEntity
  8
FISHER & PAYKEL
 62
   250
420
  1316376
370
     9
100
AcDbSpline
210
0.0
220
0.0
230
1.0
 70
     8
 71
     3
 72
     8
 73
     4
 74
     0
 42
0.000000001
 43
0.0000000001
 40
3.012999999999977
 40
3.012999999999977
 40
3.012999999999977
 40
3.012999999999977
 40
4.012999999999977
 40
4.012999999999977
 40
4.012999999999977
 40
4.012999999999977
 10
452.3250966607622
 20
-239.0670843287251
 30
0.0
 10
456.1281020404504
 20
-239.0670843287251
 30
0.0
 10
458.4988066927235
 20
-242.601974301311
 30
0.0
 10
458.4988066927235
 20
-246.6872064253173
 30
0.0
  0
LINE
  5
B2
330
1F
100
AcDbEntity
  8
FISHER & PAYKEL
 62
   250
420
  1316376
370
     9
100
AcDbLine
 10
458.4988066927235
 20
-246.6872064253173
 30
0.0
 11
458.4988066927235
 21
-246.7260126026611
 31
0.0
  0
SPLINE
  5
B3
330
1F
100
AcDbEntity
  8
FISHER & PAYKEL
 62
   250
420
  1316376
370
     9
100
AcDbSpline
210
0.0
220
0.0
230
1.0
 70
     8
 71
     3
 72
     8
 73
     4
 74
     0
 42
0.000000001
 43
0.0000000001
 40
4.024000000000001
 40
4.024000000000001
 40
4.024000000000001
 40
4.024000000000001
 40
5.024000000000001
 40
5.024000000000001
 40
5.024000000000001
 40
5.024000000000001
 10
458.4988066927235
 20
-246.7260126026611
 30
0.0
 10
458.4988066927235
 20
-250.8112447266672
 30
0.0
 10
456.0857680288025
 20
-254.3849408765968
 30
0.0
 10
452.2792348148104
 20
-254.3849408765968
 30
0.0
  0
SPLINE
  5
B4
330
1F
100
AcDbEntity
  8
FISHER & PAYKEL
 62
   250
420
  1316376
370
     9
100
AcDbSpline
210
0.0
220
0.0
230
1.0
 70
     8
 71
     3
 72
     8
 73
     4
 74
     0
 42
0.000000001
 43
0.0000000001
 40
5.024000000000001
 40
5.024000000000001
 40
5.024000000000001
 40
5.024000000000001
 40
6.024000000000001
 40
6.024000000000001
 40
6.024000000000001
 40
6.024000000000001
 10
452.2792348148104
 20
-254.3849408765968
 30
0.0
 10
448.4762294351223
 20
-254.3849408765968
 30
0.0
 10
446.1019969485453
 20
-250.853578738315
 30
0.0
 10
446.1019969485453
 20
-246.7718744486126
 30
0.0
  0
LINE
  5
B5
330
1F
100
AcDbEntity
  8
FISHER & PAYKEL
 62
   250
420
  1316376
370
     9
100
AcDbLine
 10
457.3452048753227
 20
-246.7718744486126
 30
0.0
 11
457.3452048753227
 21
-246.7260126026611
 31
0.0
  0
SPLINE
  5
B6
330
1F
100
AcDbEntity
  8
FISHER & PAYKEL
 62
   250
420
  1316376
370
     9
100
AcDbSpline
210
0.0
220
0.0
230
1.0
 70
     8
 71
     3
 72
     8
 73
     4
 74
     0
 42
0.000000001
 43
0.0000000001
 40
0.0129999999999768
 40
0.0129999999999768
 40
0.0129999999999768
 40
0.0129999999999768
 40
1.012999999999977
 40
1.012999999999977
 40
1.012999999999977
 40
1.012999999999977
 10
457.3452048753227
 20
-246.7260126026611
 30
0.0
 10
457.3452048753227
 20
-243.2793184876746
 30
0.0
 10
455.3802011680071
 20
-240.0654614367506
 30
0.0
 10
452.2792348148104
 20
-240.0654614367506
 30
0.0
  0
SPLINE
  5
B7
330
1F
100
AcDbEntity
  8
FISHER & PAYKEL
 62
   250
420
  1316376
370
     9
100
AcDbSpline
210
0.0
220
0.0
230
1.0
 70
     8
 71
     3
 72
     8
 73
     4
 74
     0
 42
0.000000001
 43
0.0000000001
 40
1.012999999999977
 40
1.012999999999977
 40
1.012999999999977
 40
1.012999999999977
 40
2.012999999999977
 40
2.012999999999977
 40
2.012999999999977
 40
2.012999999999977
 10
452.2792348148104
 20
-240.0654614367506
 30
0.0
 10
449.181796295918
 20
-240.0654614367506
 30
0.0
 10
447.25912660025
 20
-243.2369844760267
 30
0.0
 10
447.25912660025
 20
-246.6872064253173
 30
0.0
  0
LINE
  5
B8
330
1F
100
AcDbEntity
  8
FISHER & PAYKEL
 62
   250
420
  1316376
370
     9
100
AcDbLine
 10
447.25912660025
 20
-246.6872064253173
 30
0.0
 11
447.25912660025
 21
-246.7260126026611
 31
0.0
  0
SPLINE
  5
B9
330
1F
100
AcDbEntity
  8
FISHER & PAYKEL
 62
   250
420
  1316376
370
     9
100
AcDbSpline
210
0.0
220
0.0
230
1.0
 70
     8
 71
     3
 72
     8
 73
     4
 74
     0
 42
0.000000001
 43
0.0000000001
 40
2.024000000000001
 40
2.024000000000001
 40
2.024000000000001
 40
2.024000000000001
 40
3.024000000000001
 40
3.024000000000001
 40
3.024000000000001
 40
3.024000000000001
 10
447.25912660025
 20
-246.7260126026611
 30
0.0
 10
447.25912660025
 20
-250.1550675461274
 30
0.0
 10
449.2241303075658
 20
-253.3936194371793
 30
0.0
 10
452.3250966607622
 20
-253.3936194371793
 30
0.0
  0
SPLINE
  5
BA
330
1F
100
AcDbEntity
  8
FISHER & PAYKEL
 62
   250
420
  1316376
370
     9
100
AcDbSpline
210
0.0
220
0.0
230
1.0
 70
     8
 71
     3
 72
     8
 73
     4
 74
     0
 42
0.000000001
 43
0.0000000001
 40
3.024000000000001
 40
3.024000000000001
 40
3.024000000000001
 40
3.024000000000001
 40
4.024000000000001
 40
4.024000000000001
 40
4.024000000000001
 40
4.024000000000001
 10
452.3250966607622
 20
-253.3936194371793
 30
0.0
 10
455.4225351796547
 20
-253.3936194371793
 30
0.0
 10
457.3452048753227
 20
-250.1974015577753
 30
0.0
 10
457.3452048753227
 20
-246.7718744486126
 30
0.0
  0
POLYLINE
  5
BB
330
1F
100
AcDbEntity
  8
FISHER & PAYKEL
 62
   250
420
  1316376
370
     9
100
AcDb2dPolyline
 66
     1
 10
0.0
 20
0.0
 30
0.0
 70
     1
  0
VERTEX
  5
BC
330
BB
100
AcDbEntity
  8
FISHER & PAYKEL
 62
   250
420
  1316376
370
     9
100
AcDbVertex
100
AcDb2dVertex
 10
975.9647174510667
 20
-288.5774165176108
 30
0.0
  0
VERTEX
  5
BD
330
BB
100
AcDbEntity
  8
FISHER & PAYKEL
 62
   250
420
  1316376
370
     9
100
AcDbVertex
100
AcDb2dVertex
 10
977.0759852568199
 20
-288.5774165176108
 30
0.0
  0
VERTEX
  5
BE
330
BB
100
AcDbEntity
  8
FISHER & PAYKEL
 62
   250
420
  1316376
370
     9
100
AcDbVertex
100
AcDb2dVertex
 10
977.0759852568199
 20
-303.3837370914059
 30
0.0
  0
VERTEX
  5
BF
330
BB
100
AcDbEntity
  8
FISHER & PAYKEL
 62
   250
420
  1316376
370
     9
100
AcDbVertex
100
AcDb2dVertex
 10
975.9647174510667
 20
-303.3837370914059
 30
0.0
  0
SEQEND
  5
C0
330
BB
100
AcDbEntity
  8
FISHER & PAYKEL
 62
   250
420
  1316376
370
     9
  0
LINE
  5
C1
330
1F
100
AcDbEntity
  8
FISHER & PAYKEL
 62
   250
420
  1316376
370
     9
100
AcDbLine
 10
981.4078129986744
 20
-292.599500407576
 30
0.0
 11
982.4555797869559
 21
-292.599500407576
 31
0.0
  0
LINE
  5
C2
330
1F
100
AcDbEntity
  8
FISHER & PAYKEL
 62
   250
420
  1316376
370
     9
100
AcDbLine
 10
982.4555797869559
 20
-292.599500407576
 30
0.0
 11
982.4555797869559
 21
-294.6068381265395
 31
0.0
  0
SPLINE
  5
C3
330
1F
100
AcDbEntity
  8
FISHER & PAYKEL
 62
   250
420
  1316376
370
     9
100
AcDbSpline
210
0.0
220
0.0
230
1.0
 70
     8
 71
     3
 72
     8
 73
     4
 74
     0
 42
0.000000001
 43
0.0000000001
 40
0.8660000000000423
 40
0.8660000000000423
 40
0.8660000000000423
 40
0.8660000000000423
 40
1.866000000000042
 40
1.866000000000042
 40
1.866000000000042
 40
1.866000000000042
 10
982.4555797869559
 20
-294.6068381265395
 30
0.0
 10
983.1823136535752
 20
-293.3368177771074
 30
0.0
 10
984.4029443227516
 20
-292.3454963376896
 30
0.0
 10
986.385587201587
 20
-292.3454963376896
 30
0.0
  0
SPLINE
  5
C4
330
1F
100
AcDbEntity
  8
FISHER & PAYKEL
 62
   250
420
  1316376
370
     9
100
AcDbSpline
210
0.0
220
0.0
230
1.0
 70
     8
 71
     3
 72
     8
 73
     4
 74
     0
 42
0.000000001
 43
0.0000000001
 40
1.866000000000042
 40
1.866000000000042
 40
1.866000000000042
 40
1.866000000000042
 40
2.866000000000042
 40
2.866000000000042
 40
2.866000000000042
 40
2.866000000000042
 10
986.385587201587
 20
-292.3454963376896
 30
0.0
 10
989.1408257929938
 20
-292.3454963376896
 30
0.0
 10
990.7459904013037
 20
-294.2046650158859
 30
0.0
 10
990.7459904013037
 20
-296.7870397263978
 30
0.0
  0
LINE
  5
C5
330
1F
100
AcDbEntity
  8
FISHER & PAYKEL
 62
   250
420
  1316376
370
     9
100
AcDbLine
 10
990.7459904013037
 20
-296.7870397263978
 30
0.0
 11
990.7459904013037
 21
-303.3876177091404
 31
0.0
  0
LINE
  5
C6
330
1F
100
AcDbEntity
  8
FISHER & PAYKEL
 62
   250
420
  1316376
370
     9
100
AcDbLine
 10
990.7459904013037
 20
-303.3876177091404
 30
0.0
 11
989.7017514473264
 21
-303.3876177091404
 31
0.0
  0
LINE
  5
C7
330
1F
100
AcDbEntity
  8
FISHER & PAYKEL
 62
   250
420
  1316376
370
     9
100
AcDbLine
 10
989.7017514473264
 20
-303.3876177091404
 30
0.0
 11
989.7017514473264
 21
-296.9775427788124
 31
0.0
  0
SPLINE
  5
C8
330
1F
100
AcDbEntity
  8
FISHER & PAYKEL
 62
   250
420
  1316376
370
     9
100
AcDbSpline
210
0.0
220
0.0
230
1.0
 70
     8
 71
     3
 72
     8
 73
     4
 74
     0
 42
0.000000001
 43
0.0000000001
 40
6.850000000000023
 40
6.850000000000023
 40
6.850000000000023
 40
6.850000000000023
 40
7.850000000000023
 40
7.850000000000023
 40
7.850000000000023
 40
7.850000000000023
 10
989.7017514473264
 20
-296.9775427788124
 30
0.0
 10
989.7017514473264
 20
-294.7550071673065
 30
0.0
 10
988.4387867665021
 20
-293.2944837654595
 30
0.0
 10
986.2374181608202
 20
-293.2944837654595
 30
0.0
  0
SPLINE
  5
C9
330
1F
100
AcDbEntity
  8
FISHER & PAYKEL
 62
   250
420
  1316376
370
     9
100
AcDbSpline
210
0.0
220
0.0
230
1.0
 70
     8
 71
     3
 72
     8
 73
     4
 74
     0
 42
0.000000001
 43
0.0000000001
 40
7.850000000000023
 40
7.850000000000023
 40
7.850000000000023
 40
7.850000000000023
 40
8.850000000000023
 40
8.850000000000023
 40
8.850000000000023
 40
8.850000000000023
 10
986.2374181608202
 20
-293.2944837654595
 30
0.0
 10
984.0995505726094
 20
-293.2944837654595
 30
0.0
 10
982.4555797869559
 20
-294.9031762080735
 30
0.0
 10
982.4555797869559
 20
-297.1468788254033
 30
0.0
  0
LINE
  5
CA
330
1F
100
AcDbEntity
  8
FISHER & PAYKEL
 62
   250
420
  1316376
370
     9
100
AcDbLine
 10
982.4555797869559
 20
-297.1468788254033
 30
0.0
 11
982.4555797869559
 21
-303.3876177091404
 31
0.0
  0
LINE
  5
CB
330
1F
100
AcDbEntity
  8
FISHER & PAYKEL
 62
   250
420
  1316376
370
     9
100
AcDbLine
 10
982.4555797869559
 20
-303.3876177091404
 30
0.0
 11
981.4078129986744
 21
-303.3876177091404
 31
0.0
  0
LINE
  5
CC
330
1F
100
AcDbEntity
  8
FISHER & PAYKEL
 62
   250
420
  1316376
370
     9
100
AcDbLine
 10
981.4078129986744
 20
-303.3876177091404
 30
0.0
 11
981.4078129986744
 21
-292.599500407576
 31
0.0
  0
LINE
  5
CD
330
1F
100
AcDbEntity
  8
FISHER & PAYKEL
 62
   250
420
  1316376
370
     9
100
AcDbLine
 10
993.7277159550256
 20
-298.0358930700058
 30
0.0
 11
993.7277159550256
 21
-297.9935590583582
 31
0.0
  0
SPLINE
  5
CE
330
1F
100
AcDbEntity
  8
FISHER & PAYKEL
 62
   250
420
  1316376
370
     9
100
AcDbSpline
210
0.0
220
0.0
230
1.0
 70
     8
 71
     3
 72
     8
 73
     4
 74
     0
 42
0.000000001
 43
0.0000000001
 40
0.0120000000000005
 40
0.0120000000000005
 40
0.0120000000000005
 40
0.0120000000000005
 40
1.012
 40
1.012
 40
1.012
 40
1.012
 10
993.7277159550256
 20
-297.9935590583582
 30
0.0
 10
993.7277159550256
 20
-294.9666772255453
 30
0.0
 10
996.1619216247702
 20
-292.3454963376896
 30
0.0
 10
999.2840549837906
 20
-292.3454963376896
 30
0.0
  0
SPLINE
  5
CF
330
1F
100
AcDbEntity
  8
FISHER & PAYKEL
 62
   250
420
  1316376
370
     9
100
AcDbSpline
210
0.0
220
0.0
230
1.0
 70
     8
 71
     3
 72
     8
 73
     4
 74
     0
 42
0.000000001
 43
0.0000000001
 40
1.012
 40
1.012
 40
1.012
 40
1.012
 40
2.012
 40
2.012
 40
2.012
 40
2.012
 10
999.2840549837906
 20
-292.3454963376896
 30
0.0
 10
1001.333726714402
 20
-292.3454963376896
 30
0.0
 10
1002.621386235354
 20
-293.2733167596357
 30
0.0
 10
1003.644458183507
 20
-294.3316670508291
 30
0.0
  0
LINE
  5
D0
330
1F
100
AcDbEntity
  8
FISHER & PAYKEL
 62
   250
420
  1316376
370
     9
100
AcDbLine
 10
1003.644458183507
 20
-294.3316670508291
 30
0.0
 11
1002.896557311064
 21
-295.0936792604884
 31
0.0
  0
SPLINE
  5
D1
330
1F
100
AcDbEntity
  8
FISHER & PAYKEL
 62
   250
420
  1316376
370
     9
100
AcDbSpline
210
0.0
220
0.0
230
1.0
 70
     8
 71
     3
 72
     8
 73
     4
 74
     0
 42
0.000000001
 43
0.0000000001
 40
2.31465491900843
 40
2.31465491900843
 40
2.31465491900843
 40
2.31465491900843
 40
3.31465491900843
 40
3.31465491900843
 40
3.31465491900843
 40
3.31465491900843
 10
1002.896557311064
 20
-295.0936792604884
 30
0.0
 10
1001.954625551902
 20
-294.1411639984144
 30
0.0
 10
1000.885691757797
 20
-293.3156507712833
 30
0.0
 10
999.262887977967
 20
-293.3156507712833
 30
0.0
  0
SPLINE
  5
D2
330
1F
100
AcDbEntity
  8
FISHER & PAYKEL
 62
   250
420
  1316376
370
     9
100
AcDbSpline
210
0.0
220
0.0
230
1.0
 70
     8
 71
     3
 72
     8
 73
     4
 74
     0
 42
0.000000001
 43
0.0000000001
 40
3.31465491900843
 40
3.31465491900843
 40
3.31465491900843
 40
3.31465491900843
 40
4.314654919008429
 40
4.314654919008429
 40
4.314654919008429
 40
4.314654919008429
 10
999.262887977967
 20
-293.3156507712833
 30
0.0
 10
996.7828204622704
 20
-293.3156507712833
 30
0.0
 10
994.8601507666026
 20
-295.3688503361986
 30
0.0
 10
994.8601507666026
 20
-297.9512250467105
 30
0.0
  0
LINE
  5
D3
330
1F
100
AcDbEntity
  8
FISHER & PAYKEL
 62
   250
420
  1316376
370
     9
100
AcDbLine
 10
994.8601507666026
 20
-297.9512250467105
 30
0.0
 11
994.8601507666026
 21
-297.9935590583582
 31
0.0
  0
SPLINE
  5
D4
330
1F
100
AcDbEntity
  8
FISHER & PAYKEL
 62
   250
420
  1316376
370
     9
100
AcDbSpline
210
0.0
220
0.0
230
1.0
 70
     8
 71
     3
 72
     8
 73
     4
 74
     0
 42
0.000000001
 43
0.0000000001
 40
4.32665491900843
 40
4.32665491900843
 40
4.32665491900843
 40
4.32665491900843
 40
5.32665491900843
 40
5.32665491900843
 40
5.32665491900843
 40
5.32665491900843
 10
994.8601507666026
 20
-297.9935590583582
 30
0.0
 10
994.8601507666026
 20
-300.5971007746937
 30
0.0
 10
996.8463214797421
 20
-302.6644116768248
 30
0.0
 10
999.3475560012625
 20
-302.6644116768248
 30
0.0
  0
SPLINE
  5
D5
330
1F
100
AcDbEntity
  8
FISHER & PAYKEL
 62
   250
420
  1316376
370
     9
100
AcDbSpline
210
0.0
220
0.0
230
1.0
 70
     8
 71
     3
 72
     8
 73
     4
 74
     0
 42
0.000000001
 43
0.0000000001
 40
5.32665491900843
 40
5.32665491900843
 40
5.32665491900843
 40
5.32665491900843
 40
6.32665491900843
 40
6.32665491900843
 40
6.32665491900843
 40
6.32665491900843
 10
999.3475560012625
 20
-302.6644116768248
 30
0.0
 10
1000.885691757797
 20
-302.6644116768248
 30
0.0
 10
1002.081627586845
 20
-301.8847602956457
 30
0.0
 10
1003.002392340184
 20
-300.8687440161
 30
0.0
  0
LINE
  5
D6
330
1F
100
AcDbEntity
  8
FISHER & PAYKEL
 62
   250
420
  1316376
370
     9
100
AcDbLine
 10
1003.002392340184
 20
-300.8687440161
 30
0.0
 11
1003.729126206802
 21
-301.5037541908162
 31
0.0
  0
SPLINE
  5
D7
330
1F
100
AcDbEntity
  8
FISHER & PAYKEL
 62
   250
420
  1316376
370
     9
100
AcDbSpline
210
0.0
220
0.0
230
1.0
 70
     8
 71
     3
 72
     8
 73
     4
 74
     0
 42
0.000000001
 43
0.0000000001
 40
6.600216612233169
 40
6.600216612233169
 40
6.600216612233169
 40
6.600216612233169
 40
7.600216612233169
 40
7.600216612233169
 40
7.600216612233169
 40
7.600216612233169
 10
1003.729126206802
 20
-301.5037541908162
 30
0.0
 10
1002.621386235354
 20
-302.7526075344242
 30
0.0
 10
1001.291392702754
 20
-303.6416217790265
 30
0.0
 10
999.2840549837906
 20
-303.6416217790265
 30
0.0
  0
SPLINE
  5
D8
330
1F
100
AcDbEntity
  8
FISHER & PAYKEL
 62
   250
420
  1316376
370
     9
100
AcDbSpline
210
0.0
220
0.0
230
1.0
 70
     8
 71
     3
 72
     8
 73
     4
 74
     0
 42
0.000000001
 43
0.0000000001
 40
7.600216612233169
 40
7.600216612233169
 40
7.600216612233169
 40
7.600216612233169
 40
8.600216612233169
 40
8.600216612233169
 40
8.600216612233169
 40
8.600216612233169
 10
999.2840549837906
 20
-303.6416217790265
 30
0.0
 10
996.1442824532503
 20
-303.6416217790265
 30
0.0
 10
993.7277159550256
 20
-301.0592470685149
 30
0.0
 10
993.7277159550256
 20
-298.0358930700058
 30
0.0
  0
LINE
  5
D9
330
1F
100
AcDbEntity
  8
FISHER & PAYKEL
 62
   250
420
  1316376
370
     9
100
AcDbLine
 10
1006.643470125319
 20
-287.9413479926036
 30
0.0
 11
1007.6912369136
 21
-287.9413479926036
 31
0.0
  0
LINE
  5
DA
330
1F
100
AcDbEntity
  8
FISHER & PAYKEL
 62
   250
420
  1316376
370
     9
100
AcDbLine
 10
1007.6912369136
 20
-287.9413479926036
 30
0.0
 11
1007.6912369136
 21
-294.6089548271218
 31
0.0
  0
SPLINE
  5
DB
330
1F
100
AcDbEntity
  8
FISHER & PAYKEL
 62
   250
420
  1316376
370
     9
100
AcDbSpline
210
0.0
220
0.0
230
1.0
 70
     8
 71
     3
 72
     8
 73
     4
 74
     0
 42
0.000000001
 43
0.0000000001
 40
2.187000000000012
 40
2.187000000000012
 40
2.187000000000012
 40
2.187000000000012
 40
3.187000000000012
 40
3.187000000000012
 40
3.187000000000012
 40
3.187000000000012
 10
1007.6912369136
 20
-294.6089548271218
 30
0.0
 10
1008.41797078022
 20
-293.3354066433858
 30
0.0
 10
1009.635073615092
 20
-292.344085203968
 30
0.0
 10
1011.621244328232
 20
-292.344085203968
 30
0.0
  0
SPLINE
  5
DC
330
1F
100
AcDbEntity
  8
FISHER & PAYKEL
 62
   250
420
  1316376
370
     9
100
AcDbSpline
210
0.0
220
0.0
230
1.0
 70
     8
 71
     3
 72
     8
 73
     4
 74
     0
 42
0.000000001
 43
0.0000000001
 40
3.187000000000012
 40
3.187000000000012
 40
3.187000000000012
 40
3.187000000000012
 40
4.187000000000012
 40
4.187000000000012
 40
4.187000000000012
 40
4.187000000000012
 10
1011.621244328232
 20
-292.344085203968
 30
0.0
 10
1014.380010753942
 20
-292.344085203968
 30
0.0
 10
1015.978119693645
 20
-294.2032538821643
 30
0.0
 10
1015.978119693645
 20
-296.7891564269801
 30
0.0
  0
LINE
  5
DD
330
1F
100
AcDbEntity
  8
FISHER & PAYKEL
 62
   250
420
  1316376
370
     9
100
AcDbLine
 10
1015.978119693645
 20
-296.7891564269801
 30
0.0
 11
1015.978119693645
 21
-303.3862065754186
 31
0.0
  0
LINE
  5
DE
330
1F
100
AcDbEntity
  8
FISHER & PAYKEL
 62
   250
420
  1316376
370
     9
100
AcDbLine
 10
1015.978119693645
 20
-303.3862065754186
 30
0.0
 11
1014.933880739667
 21
-303.3862065754186
 31
0.0
  0
LINE
  5
DF
330
1F
100
AcDbEntity
  8
FISHER & PAYKEL
 62
   250
420
  1316376
370
     9
100
AcDbLine
 10
1014.933880739667
 20
-303.3862065754186
 30
0.0
 11
1014.933880739667
 21
-296.979659479395
 31
0.0
  0
SPLINE
  5
E0
330
1F
100
AcDbEntity
  8
FISHER & PAYKEL
 62
   250
420
  1316376
370
     9
100
AcDbSpline
210
0.0
220
0.0
230
1.0
 70
     8
 71
     3
 72
     8
 73
     4
 74
     0
 42
0.000000001
 43
0.0000000001
 40
8.168999999999983
 40
8.168999999999983
 40
8.168999999999983
 40
8.168999999999983
 40
9.168999999999983
 40
9.168999999999983
 40
9.168999999999983
 40
9.168999999999983
 10
1014.933880739667
 20
-296.979659479395
 30
0.0
 10
1014.933880739667
 20
-294.7571238678888
 30
0.0
 10
1013.670916058843
 20
-293.2966004660418
 30
0.0
 10
1011.473075287465
 20
-293.2966004660418
 30
0.0
  0
SPLINE
  5
E1
330
1F
100
AcDbEntity
  8
FISHER & PAYKEL
 62
   250
420
  1316376
370
     9
100
AcDbSpline
210
0.0
220
0.0
230
1.0
 70
     8
 71
     3
 72
     8
 73
     4
 74
     0
 42
0.000000001
 43
0.0000000001
 40
9.168999999999983
 40
9.168999999999983
 40
9.168999999999983
 40
9.168999999999983
 40
10.16899999999998
 40
10.16899999999998
 40
10.16899999999998
 40
10.16899999999998
 10
1011.473075287465
 20
-293.2966004660418
 30
0.0
 10
1009.338735533558
 20
-293.2966004660418
 30
0.0
 10
1007.6912369136
 20
-294.9052929086558
 30
0.0
 10
1007.6912369136
 20
-297.1454676916817
 30
0.0
  0
LINE
  5
E2
330
1F
100
AcDbEntity
  8
FISHER & PAYKEL
 62
   250
420
  1316376
370
     9
100
AcDbLine
 10
1007.6912369136
 20
-297.1454676916817
 30
0.0
 11
1007.6912369136
 21
-303.3862065754186
 31
0.0
  0
LINE
  5
E3
330
1F
100
AcDbEntity
  8
FISHER & PAYKEL
 62
   250
420
  1316376
370
     9
100
AcDbLine
 10
1007.6912369136
 20
-303.3862065754186
 30
0.0
 11
1006.643470125319
 21
-303.3862065754186
 31
0.0
  0
LINE
  5
E4
330
1F
100
AcDbEntity
  8
FISHER & PAYKEL
 62
   250
420
  1316376
370
     9
100
AcDbLine
 10
1006.643470125319
 20
-303.3862065754186
 30
0.0
 11
1006.643470125319
 21
-287.9413479926036
 31
0.0
  0
LINE
  5
E5
330
1F
100
AcDbEntity
  8
FISHER & PAYKEL
 62
   250
420
  1316376
370
     9
100
AcDbLine
 10
1018.961609164518
 20
-298.0136677138908
 30
0.0
 11
1018.961609164518
 21
-297.9713337022431
 31
0.0
  0
SPLINE
  5
E6
330
1F
100
AcDbEntity
  8
FISHER & PAYKEL
 62
   250
420
  1316376
370
     9
100
AcDbSpline
210
0.0
220
0.0
230
1.0
 70
     8
 71
     3
 72
     8
 73
     4
 74
     0
 42
0.000000001
 43
0.0000000001
 40
2.012
 40
2.012
 40
2.012
 40
2.012
 40
3.012
 40
3.012
 40
3.012
 40
3.012
 10
1018.961609164518
 20
-297.9713337022431
 30
0.0
 10
1018.961609164518
 20
-294.8386168403108
 30
0.0
 10
1021.18061694172
 20
-292.3444379873986
 30
0.0
 10
1024.129886419846
 20
-292.3444379873986
 30
0.0
  0
SPLINE
  5
E7
330
1F
100
AcDbEntity
  8
FISHER & PAYKEL
 62
   250
420
  1316376
370
     9
100
AcDbSpline
210
0.0
220
0.0
230
1.0
 70
     8
 71
     3
 72
     8
 73
     4
 74
     0
 42
0.000000001
 43
0.0000000001
 40
3.012
 40
3.012
 40
3.012
 40
3.012
 40
4.012
 40
4.012
 40
4.012
 40
4.012
 10
1024.129886419846
 20
-292.3444379873986
 30
0.0
 10
1027.192046595699
 20
-292.3444379873986
 30
0.0
 10
1029.132355462887
 20
-294.7962828286632
 30
0.0
 10
1029.132355462887
 20
-297.9960285423708
 30
0.0
  0
SPLINE
  5
E8
330
1F
100
AcDbEntity
  8
FISHER & PAYKEL
 62
   250
420
  1316376
370
     9
100
AcDbSpline
210
0.0
220
0.0
230
1.0
 70
     8
 71
     3
 72
     8
 73
     4
 74
     0
 42
0.000000001
 43
0.0000000001
 40
4.012
 40
4.012
 40
4.012
 40
4.012
 40
5.012
 40
5.012
 40
5.012
 40
5.012
 10
1029.132355462887
 20
-297.9960285423708
 30
0.0
 10
1029.132355462887
 20
-298.1830037604816
 30
0.0
 10
1029.132355462887
 20
-298.2465047779533
 30
0.0
 10
1029.111188457062
 20
-298.4158408245444
 30
0.0
  0
LINE
  5
E9
330
1F
100
AcDbEntity
  8
FISHER & PAYKEL
 62
   250
420
  1316376
370
     9
100
AcDbLine
 10
1029.111188457062
 20
-298.4158408245444
 30
0.0
 11
1020.072876970271
 21
-298.4158408245444
 31
0.0
  0
SPLINE
  5
EA
330
1F
100
AcDbEntity
  8
FISHER & PAYKEL
 62
   250
420
  1316376
370
     9
100
AcDbSpline
210
0.0
220
0.0
230
1.0
 70
     8
 71
     3
 72
     8
 73
     4
 74
     0
 42
0.000000001
 43
0.0000000001
 40
7.574000000000012
 40
7.574000000000012
 40
7.574000000000012
 40
7.574000000000012
 40
8.574000000000012
 40
8.574000000000012
 40
8.574000000000012
 40
8.574000000000012
 10
1020.072876970271
 20
-298.4158408245444
 30
0.0
 10
1020.26690785699
 20
-301.1005227298715
 30
0.0
 10
1022.207216724178
 20
-302.6668811608376
 30
0.0
 10
1024.345084312389
 20
-302.6668811608376
 30
0.0
  0
SPLINE
  5
EB
330
1F
100
AcDbEntity
  8
FISHER & PAYKEL
 62
   250
420
  1316376
370
     9
100
AcDbSpline
210
0.0
220
0.0
230
1.0
 70
     8
 71
     3
 72
     8
 73
     4
 74
     0
 42
0.000000001
 43
0.0000000001
 40
8.574000000000012
 40
8.574000000000012
 40
8.574000000000012
 40
8.574000000000012
 40
9.574000000000012
 40
9.574000000000012
 40
9.574000000000012
 40
9.574000000000012
 10
1024.345084312389
 20
-302.6668811608376
 30
0.0
 10
1026.03138910969
 20
-302.6668811608376
 30
0.0
 10
1027.192046595699
 20
-301.9295637913062
 30
0.0
 10
1028.084588674605
 20
-300.9735206949281
 30
0.0
  0
LINE
  5
EC
330
1F
100
AcDbEntity
  8
FISHER & PAYKEL
 62
   250
420
  1316376
370
     9
100
AcDbLine
 10
1028.084588674605
 20
-300.9735206949281
 30
0.0
 11
1028.811322541224
 21
-301.6120587039484
 31
0.0
  0
SPLINE
  5
ED
330
1F
100
AcDbEntity
  8
FISHER & PAYKEL
 62
   250
420
  1316376
370
     9
100
AcDbSpline
210
0.0
220
0.0
230
1.0
 70
     8
 71
     3
 72
     8
 73
     4
 74
     0
 42
0.000000001
 43
0.0000000001
 40
9.848220714024357
 40
9.848220714024357
 40
9.848220714024357
 40
9.848220714024357
 40
10.84822071402436
 40
10.84822071402436
 40
10.84822071402436
 40
10.84822071402436
 10
1028.811322541224
 20
-301.6120587039484
 30
0.0
 10
1027.700054735471
 20
-302.7938831957808
 30
0.0
 10
1026.398283877304
 20
-303.6405634287355
 30
0.0
 10
1024.302750300741
 20
-303.6405634287355
 30
0.0
  0
SPLINE
  5
EE
330
1F
100
AcDbEntity
  8
FISHER & PAYKEL
 62
   250
420
  1316376
370
     9
100
AcDbSpline
210
0.0
220
0.0
230
1.0
 70
     8
 71
     3
 72
     8
 73
     4
 74
     0
 42
0.000000001
 43
0.0000000001
 40
10.84822071402436
 40
10.84822071402436
 40
10.84822071402436
 40
10.84822071402436
 40
11.84822071402436
 40
11.84822071402436
 40
11.84822071402436
 40
11.84822071402436
 10
1024.302750300741
 20
-303.6405634287355
 30
0.0
 10
1021.441676680215
 20
-303.6405634287355
 30
0.0
 10
1018.961609164518
 20
-301.3792216398856
 30
0.0
 10
1018.961609164518
 20
-298.0136677138908
 30
0.0
  0
SPLINE
  5
EF
330
1F
100
AcDbEntity
  8
FISHER & PAYKEL
 62
   250
420
  1316376
370
     9
100
AcDbSpline
210
0.0
220
0.0
230
1.0
 70
     8
 71
     3
 72
     8
 73
     4
 74
     0
 42
0.000000001
 43
0.0000000001
 40
0.0
 40
0.0
 40
0.0
 40
0.0
 40
1.0
 40
1.0
 40
1.0
 40
1.0
 10
1027.99992065131
 20
-297.4844925682942
 30
0.0
 10
1027.851751610543
 20
-295.3078188027398
 30
0.0
 10
1026.592314764022
 20
-293.2969532494724
 30
0.0
 10
1024.091080242502
 20
-293.2969532494724
 30
0.0
  0
SPLINE
  5
F0
330
1F
100
AcDbEntity
  8
FISHER & PAYKEL
 62
   250
420
  1316376
370
     9
100
AcDbSpline
210
0.0
220
0.0
230
1.0
 70
     8
 71
     3
 72
     8
 73
     4
 74
     0
 42
0.000000001
 43
0.0000000001
 40
1.0
 40
1.0
 40
1.0
 40
1.0
 40
2.0
 40
2.0
 40
2.0
 40
2.0
 10
1024.091080242502
 20
-293.2969532494724
 30
0.0
 10
1021.932045648468
 20
-293.2969532494724
 30
0.0
 10
1020.26690785699
 20
-295.0926209101972
 30
0.0
 10
1020.072876970271
 20
-297.4844925682942
 30
0.0
  0
LINE
  5
F1
330
1F
100
AcDbEntity
  8
FISHER & PAYKEL
 62
   250
420
  1316376
370
     9
100
AcDbLine
 10
1020.072876970271
 20
-297.4844925682942
 30
0.0
 11
1027.99992065131
 21
-297.4844925682942
 31
0.0
  0
LINE
  5
F2
330
1F
100
AcDbEntity
  8
FISHER & PAYKEL
 62
   250
420
  1316376
370
     9
100
AcDbLine
 10
1031.214130485664
 20
-302.032223769552
 30
0.0
 11
1031.835029323164
 21
-301.2102383767253
 31
0.0
  0
SPLINE
  5
F3
330
1F
100
AcDbEntity
  8
FISHER & PAYKEL
 62
   250
420
  1316376
370
     9
100
AcDbSpline
210
0.0
220
0.0
230
1.0
 70
     8
 71
     3
 72
     8
 73
     4
 74
     0
 42
0.000000001
 43
0.0000000001
 40
0.2920017123236627
 40
0.2920017123236627
 40
0.2920017123236627
 40
0.2920017123236627
 40
1.292001712323663
 40
1.292001712323663
 40
1.292001712323663
 40
1.292001712323663
 10
1031.835029323164
 20
-301.2102383767253
 30
0.0
 10
1033.034492986516
 20
-302.1168917928476
 30
0.0
 10
1034.357430850508
 20
-302.6248999326203
 30
0.0
 10
1035.747397566276
 20
-302.6248999326203
 30
0.0
  0
SPLINE
  5
F4
330
1F
100
AcDbEntity
  8
FISHER & PAYKEL
 62
   250
420
  1316376
370
     9
100
AcDbSpline
210
0.0
220
0.0
230
1.0
 70
     8
 71
     3
 72
     8
 73
     4
 74
     0
 42
0.000000001
 43
0.0000000001
 40
1.292001712323663
 40
1.292001712323663
 40
1.292001712323663
 40
1.292001712323663
 40
2.292001712323663
 40
2.292001712323663
 40
2.292001712323663
 40
2.292001712323663
 10
1035.747397566276
 20
-302.6248999326203
 30
0.0
 10
1037.222032305338
 20
-302.6248999326203
 30
0.0
 10
1038.372106288435
 20
-301.8205537113133
 30
0.0
 10
1038.372106288435
 20
-300.5717003677053
 30
0.0
  0
LINE
  5
F5
330
1F
100
AcDbEntity
  8
FISHER & PAYKEL
 62
   250
420
  1316376
370
     9
100
AcDbLine
 10
1038.372106288435
 20
-300.5717003677053
 30
0.0
 11
1038.372106288435
 21
-300.5293663560576
 31
0.0
  0
SPLINE
  5
F6
330
1F
100
AcDbEntity
  8
FISHER & PAYKEL
 62
   250
420
  1316376
370
     9
100
AcDbSpline
210
0.0
220
0.0
230
1.0
 70
     8
 71
     3
 72
     8
 73
     4
 74
     0
 42
0.000000001
 43
0.0000000001
 40
2.304001712323663
 40
2.304001712323663
 40
2.304001712323663
 40
2.304001712323663
 40
3.304001712323663
 40
3.304001712323663
 40
3.304001712323663
 40
3.304001712323663
 10
1038.372106288435
 20
-300.5293663560576
 30
0.0
 10
1038.372106288435
 20
-299.2628738409294
 30
0.0
 10
1037.010362247099
 20
-298.7971997128045
 30
0.0
 10
1035.489865662085
 20
-298.3738595963271
 30
0.0
  0
SPLINE
  5
F7
330
1F
100
AcDbEntity
  8
FISHER & PAYKEL
 62
   250
420
  1316376
370
     9
100
AcDbSpline
210
0.0
220
0.0
230
1.0
 70
     8
 71
     3
 72
     8
 73
     4
 74
     0
 42
0.000000001
 43
0.0000000001
 40
3.304001712323663
 40
3.304001712323663
 40
3.304001712323663
 40
3.304001712323663
 40
4.304001712323663
 40
4.304001712323663
 40
4.304001712323663
 40
4.304001712323663
 10
1035.489865662085
 20
-298.3738595963271
 30
0.0
 10
1033.715365007184
 20
-297.8623236222502
 30
0.0
 10
1031.750361299868
 20
-297.3366763109575
 30
0.0
 10
1031.750361299868
 20
-295.4104787809856
 30
0.0
  0
LINE
  5
F8
330
1F
100
AcDbEntity
  8
FISHER & PAYKEL
 62
   250
420
  1316376
370
     9
100
AcDbLine
 10
1031.750361299868
 20
-295.4104787809856
 30
0.0
 11
1031.750361299868
 21
-295.368144769338
 31
0.0
  0
SPLINE
  5
F9
330
1F
100
AcDbEntity
  8
FISHER & PAYKEL
 62
   250
420
  1316376
370
     9
100
AcDbSpline
210
0.0
220
0.0
230
1.0
 70
     8
 71
     3
 72
     8
 73
     4
 74
     0
 42
0.000000001
 43
0.0000000001
 40
4.316001712323663
 40
4.316001712323663
 40
4.316001712323663
 40
4.316001712323663
 40
5.316001712323663
 40
5.316001712323663
 40
5.316001712323663
 40
5.316001712323663
 10
1031.750361299868
 20
-295.368144769338
 30
0.0
 10
1031.750361299868
 20
-293.632450291781
 30
0.0
 10
1033.224996038931
 20
-292.3871247824768
 30
0.0
 10
1035.341696621318
 20
-292.3871247824768
 30
0.0
  0
SPLINE
  5
FA
330
1F
100
AcDbEntity
  8
FISHER & PAYKEL
 62
   250
420
  1316376
370
     9
100
AcDbSpline
210
0.0
220
0.0
230
1.0
 70
     8
 71
     3
 72
     8
 73
     4
 74
     0
 42
0.000000001
 43
0.0000000001
 40
5.316001712323663
 40
5.316001712323663
 40
5.316001712323663
 40
5.316001712323663
 40
6.316001712323663
 40
6.316001712323663
 40
6.316001712323663
 40
6.316001712323663
 10
1035.341696621318
 20
-292.3871247824768
 30
0.0
 10
1036.643467479485
 20
-292.3871247824768
 30
0.0
 10
1038.118102218548
 20
-292.8492710762978
 30
0.0
 10
1039.208203018477
 20
-293.5724771086132
 30
0.0
  0
LINE
  5
FB
330
1F
100
AcDbEntity
  8
FISHER & PAYKEL
 62
   250
420
  1316376
370
     9
100
AcDbLine
 10
1039.208203018477
 20
-293.5724771086132
 30
0.0
 11
1038.650805198449
 21
-294.4403243473919
 31
0.0
  0
SPLINE
  5
FC
330
1F
100
AcDbEntity
  8
FISHER & PAYKEL
 62
   250
420
  1316376
370
     9
100
AcDbSpline
210
0.0
220
0.0
230
1.0
 70
     8
 71
     3
 72
     8
 73
     4
 74
     0
 42
0.000000001
 43
0.0000000001
 40
6.608371341389377
 40
6.608371341389377
 40
6.608371341389377
 40
6.608371341389377
 40
7.608371341389377
 40
7.608371341389377
 40
7.608371341389377
 40
7.608371341389377
 10
1038.650805198449
 20
-294.4403243473919
 30
0.0
 10
1037.648900256119
 20
-293.7841471668519
 30
0.0
 10
1036.449436592767
 20
-293.3572792160705
 30
0.0
 10
1035.295834775366
 20
-293.3572792160705
 30
0.0
  0
SPLINE
  5
FD
330
1F
100
AcDbEntity
  8
FISHER & PAYKEL
 62
   250
420
  1316376
370
     9
100
AcDbSpline
210
0.0
220
0.0
230
1.0
 70
     8
 71
     3
 72
     8
 73
     4
 74
     0
 42
0.000000001
 43
0.0000000001
 40
7.608371341389377
 40
7.608371341389377
 40
7.608371341389377
 40
7.608371341389377
 40
8.608371341389377
 40
8.608371341389377
 40
8.608371341389377
 40
8.608371341389377
 10
1035.295834775366
 20
-293.3572792160705
 30
0.0
 10
1033.800033030479
 20
-293.3572792160705
 30
0.0
 10
1032.819295093973
 20
-294.1651532716814
 30
0.0
 10
1032.819295093973
 20
-295.2411427343948
 30
0.0
  0
LINE
  5
FE
330
1F
100
AcDbEntity
  8
FISHER & PAYKEL
 62
   250
420
  1316376
370
     9
100
AcDbLine
 10
1032.819295093973
 20
-295.2411427343948
 30
0.0
 11
1032.819295093973
 21
-295.2870045803465
 31
0.0
  0
SPLINE
  5
FF
330
1F
100
AcDbEntity
  8
FISHER & PAYKEL
 62
   250
420
  1316376
370
     9
100
AcDbSpline
210
0.0
220
0.0
230
1.0
 70
     8
 71
     3
 72
     8
 73
     4
 74
     0
 42
0.000000001
 43
0.0000000001
 40
8.62137134138941
 40
8.62137134138941
 40
8.62137134138941
 40
8.62137134138941
 40
9.62137134138941
 40
9.62137134138941
 40
9.62137134138941
 40
9.62137134138941
 10
1032.819295093973
 20
-295.2870045803465
 30
0.0
 10
1032.819295093973
 20
-296.4935239123067
 30
0.0
 10
1034.293929833036
 20
-296.9345032003041
 30
0.0
 10
1035.849704761091
 20
-297.3790103226052
 30
0.0
  0
SPLINE
  5
100
330
1F
100
AcDbEntity
  8
FISHER & PAYKEL
 62
   250
420
  1316376
370
     9
100
AcDbSpline
210
0.0
220
0.0
230
1.0
 70
     8
 71
     3
 72
     8
 73
     4
 74
     0
 42
0.000000001
 43
0.0000000001
 40
9.62137134138941
 40
9.62137134138941
 40
9.62137134138941
 40
9.62137134138941
 40
10.62137134138941
 40
10.62137134138941
 40
10.62137134138941
 40
10.62137134138941
 10
1035.849704761091
 20
-297.3790103226052
 30
0.0
 10
1037.606566244472
 20
-297.8623236222502
 30
0.0
 10
1039.44104008254
 20
-298.5008616312703
 30
0.0
 10
1039.44104008254
 20
-300.4058921554183
 30
0.0
  0
LINE
  5
101
330
1F
100
AcDbEntity
  8
FISHER & PAYKEL
 62
   250
420
  1316376
370
     9
100
AcDbLine
 10
1039.44104008254
 20
-300.4058921554183
 30
0.0
 11
1039.44104008254
 21
-300.448226167066
 31
0.0
  0
SPLINE
  5
102
330
1F
100
AcDbEntity
  8
FISHER & PAYKEL
 62
   250
420
  1316376
370
     9
100
AcDbSpline
210
0.0
220
0.0
230
1.0
 70
     8
 71
     3
 72
     8
 73
     4
 74
     0
 42
0.000000001
 43
0.0000000001
 40
10.63337134138941
 40
10.63337134138941
 40
10.63337134138941
 40
10.63337134138941
 40
11.63337134138941
 40
11.63337134138941
 40
11.63337134138941
 40
11.63337134138941
 10
1039.44104008254
 20
-300.448226167066
 30
0.0
 10
1039.44104008254
 20
-302.370895862734
 30
0.0
 10
1037.775902291062
 20
-303.5985822005182
 30
0.0
 10
1035.683896548804
 20
-303.5985822005182
 30
0.0
  0
SPLINE
  5
103
330
1F
100
AcDbEntity
  8
FISHER & PAYKEL
 62
   250
420
  1316376
370
     9
100
AcDbSpline
210
0.0
220
0.0
230
1.0
 70
     8
 71
     3
 72
     8
 73
     4
 74
     0
 42
0.000000001
 43
0.0000000001
 40
11.63337134138941
 40
11.63337134138941
 40
11.63337134138941
 40
11.63337134138941
 40
12.63337134138941
 40
12.63337134138941
 40
12.63337134138941
 40
12.63337134138941
 10
1035.683896548804
 20
-303.5985822005182
 30
0.0
 10
1034.099899323972
 20
-303.5985822005182
 30
0.0
 10
1032.371260961648
 20
-302.9635723285985
 30
0.0
 10
1031.214130485664
 20
-302.032223769552
 30
0.0
  0
POLYLINE
  5
104
330
1F
100
AcDbEntity
  8
FISHER & PAYKEL
 62
   250
420
  1316376
370
     9
100
AcDb2dPolyline
 66
     1
 10
0.0
 20
0.0
 30
0.0
  0
VERTEX
  5
105
330
104
100
AcDbEntity
  8
FISHER & PAYKEL
 62
   250
420
  1316376
370
     9
100
AcDbVertex
100
AcDb2dVertex
 10
452.2979323366215
 20
-263.7322906484164
 30
0.0
  0
VERTEX
  5
106
330
104
100
AcDbEntity
  8
FISHER & PAYKEL
 62
   250
420
  1316376
370
     9
100
AcDbVertex
100
AcDb2dVertex
 10
452.2979323366215
 20
-303.7344038212211
 30
0.0
  0
SEQEND
  5
107
330
104
100
AcDbEntity
  8
FISHER & PAYKEL
 62
   250
420
  1316376
370
     9
  0
POLYLINE
  5
108
330
1F
100
AcDbEntity
  8
FISHER & PAYKEL
 62
   250
420
  1316376
370
     9
100
AcDb2dPolyline
 66
     1
 10
0.0
 20
0.0
 30
0.0
 70
     1
  0
VERTEX
  5
109
330
108
100
AcDbEntity
  8
FISHER & PAYKEL
 62
   250
420
  1316376
370
     9
100
AcDbVertex
100
AcDb2dVertex
 10
452.2965212029
 20
-303.7329926874997
 30
0.0
  0
VERTEX
  5
10A
330
108
100
AcDbEntity
  8
FISHER & PAYKEL
 62
   250
420
  1316376
370
     9
100
AcDbVertex
100
AcDb2dVertex
 10
579.2985561461023
 20
-303.7329926874997
 30
0.0
  0
VERTEX
  5
10B
330
108
100
AcDbEntity
  8
FISHER & PAYKEL
 62
   250
420
  1316376
370
     9
100
AcDbVertex
100
AcDb2dVertex
 10
579.2985561461023
 20
-288.7326412269858
 30
0.0
  0
VERTEX
  5
10C
330
108
100
AcDbEntity
  8
FISHER & PAYKEL
 62
   250
420
  1316376
370
     9
100
AcDbVertex
100
AcDb2dVertex
 10
452.2965212029
 20
-288.7326412269858
 30
0.0
  0
SEQEND
  5
10D
330
108
100
AcDbEntity
  8
FISHER & PAYKEL
 62
   250
420
  1316376
370
     9
  0
POLYLINE
  5
10E
330
1F
100
AcDbEntity
  8
FISHER & PAYKEL
 62
   250
420
  1316376
370
     9
100
AcDb2dPolyline
 66
     1
 10
0.0
 20
0.0
 30
0.0
 70
     1
  0
VERTEX
  5
10F
330
10E
100
AcDbEntity
  8
FISHER & PAYKEL
 62
   250
420
  1316376
370
     9
100
AcDbVertex
100
AcDb2dVertex
 10
579.2985561461023
 20
-288.7326412269858
 30
0.0
  0
VERTEX
  5
110
330
10E
100
AcDbEntity
  8
FISHER & PAYKEL
 62
   250
420
  1316376
370
     9
100
AcDbVertex
100
AcDb2dVertex
 10
706.3005910893048
 20
-288.7326412269858
 30
0.0
  0
VERTEX
  5
111
330
10E
100
AcDbEntity
  8
FISHER & PAYKEL
 62
   250
420
  1316376
370
     9
100
AcDbVertex
100
AcDb2dVertex
 10
706.3005910893048
 20
-273.7322897664721
 30
0.0
  0
VERTEX
  5
112
330
10E
100
AcDbEntity
  8
FISHER & PAYKEL
 62
   250
420
  1316376
370
     9
100
AcDbVertex
100
AcDb2dVertex
 10
579.2985561461023
 20
-273.7322897664721
 30
0.0
  0
SEQEND
  5
113
330
10E
100
AcDbEntity
  8
FISHER & PAYKEL
 62
   250
420
  1316376
370
     9
  0
POLYLINE
  5
114
330
1F
100
AcDbEntity
  8
FISHER & PAYKEL
 62
   250
420
  1316376
370
     9
100
AcDb2dPolyline
 66
     1
 10
0.0
 20
0.0
 30
0.0
 70
     1
  0
VERTEX
  5
115
330
114
100
AcDbEntity
  8
FISHER & PAYKEL
 62
   250
420
  1316376
370
     9
100
AcDbVertex
100
AcDb2dVertex
 10
706.3005910893048
 20
-303.7329926874997
 30
0.0
  0
VERTEX
  5
116
330
114
100
AcDbEntity
  8
FISHER & PAYKEL
 62
   250
420
  1316376
370
     9
100
AcDbVertex
100
AcDb2dVertex
 10
960.3046609757093
 20
-303.7329926874997
 30
0.0
  0
VERTEX
  5
117
330
114
100
AcDbEntity
  8
FISHER & PAYKEL
 62
   250
420
  1316376
370
     9
100
AcDbVertex
100
AcDb2dVertex
 10
960.3046609757093
 20
-288.7326412269858
 30
0.0
  0
VERTEX
  5
118
330
114
100
AcDbEntity
  8
FISHER & PAYKEL
 62
   250
420
  1316376
370
     9
100
AcDbVertex
100
AcDb2dVertex
 10
706.3005910893048
 20
-288.7326412269858
 30
0.0
  0
SEQEND
  5
119
330
114
100
AcDbEntity
  8
FISHER & PAYKEL
 62
   250
420
  1316376
370
     9
  0
POLYLINE
  5
11A
330
1F
100
AcDbEntity
  8
FISHER & PAYKEL
 62
   250
420
  1316376
370
     9
100
AcDb2dPolyline
 66
     1
 10
0.0
 20
0.0
 30
0.0
 70
     1
  0
VERTEX
  5
11B
330
11A
100
AcDbEntity
  8
FISHER & PAYKEL
 62
   250
420
  1316376
370
     9
100
AcDbVertex
100
AcDb2dVertex
 10
452.2965212029
 20
-303.7329926874997
 30
0.0
  0
VERTEX
  5
11C
330
11A
100
AcDbEntity
  8
FISHER & PAYKEL
 62
   250
420
  1316376
370
     9
100
AcDbVertex
100
AcDb2dVertex
 10
960.3046609757093
 20
-303.7329926874997
 30
0.0
  0
VERTEX
  5
11D
330
11A
100
AcDbEntity
  8
FISHER & PAYKEL
 62
   250
420
  1316376
370
     9
100
AcDbVertex
100
AcDb2dVertex
 10
960.3046609757093
 20
-273.7322897664721
 30
0.0
  0
VERTEX
  5
11E
330
11A
100
AcDbEntity
  8
FISHER & PAYKEL
 62
   250
420
  1316376
370
     9
100
AcDbVertex
100
AcDb2dVertex
 10
452.2965212029
 20
-273.7322897664721
 30
0.0
  0
SEQEND
  5
11F
330
11A
100
AcDbEntity
  8
FISHER & PAYKEL
 62
   250
420
  1316376
370
     9
  0
POLYLINE
  5
120
330
1F
100
AcDbEntity
  8
FISHER & PAYKEL
 62
   250
420
  1316376
370
     9
100
AcDb2dPolyline
 66
     1
 10
0.0
 20
0.0
 30
0.0
  0
VERTEX
  5
121
330
120
100
AcDbEntity
  8
FISHER & PAYKEL
 62
   250
420
  1316376
370
     9
100
AcDbVertex
100
AcDb2dVertex
 10
960.3060721094307
 20
-263.7322906484164
 30
0.0
  0
VERTEX
  5
122
330
120
100
AcDbEntity
  8
FISHER & PAYKEL
 62
   250
420
  1316376
370
     9
100
AcDbVertex
100
AcDb2dVertex
 10
960.3060721094307
 20
-303.7344038212211
 30
0.0
  0
SEQEND
  5
123
330
120
100
AcDbEntity
  8
FISHER & PAYKEL
 62
   250
420
  1316376
370
     9
  0
POLYLINE
  5
124
330
1F
100
AcDbEntity
  8
FISHER & PAYKEL
 62
   250
420
  1316376
370
     9
100
AcDb2dPolyline
 66
     1
 10
0.0
 20
0.0
 30
0.0
  0
VERTEX
  5
125
330
124
100
AcDbEntity
  8
FISHER & PAYKEL
 62
   250
420
  1316376
370
     9
100
AcDbVertex
100
AcDb2dVertex
 10
706.3020022230262
 20
-263.7322906484164
 30
0.0
  0
VERTEX
  5
126
330
124
100
AcDbEntity
  8
FISHER & PAYKEL
 62
   250
420
  1316376
370
     9
100
AcDbVertex
100
AcDb2dVertex
 10
706.3020022230262
 20
-303.7344038212211
 30
0.0
  0
SEQEND
  5
127
330
124
100
AcDbEntity
  8
FISHER & PAYKEL
 62
   250
420
  1316376
370
     9
  0
POLYLINE
  5
128
330
1F
100
AcDbEntity
  8
FISHER & PAYKEL
 62
   250
420
  1316376
370
     9
100
AcDb2dPolyline
 66
     1
 10
0.0
 20
0.0
 30
0.0
  0
VERTEX
  5
129
330
128
100
AcDbEntity
  8
FISHER & PAYKEL
 62
   250
420
  1316376
370
     9
100
AcDbVertex
100
AcDb2dVertex
 10
579.2999672798239
 20
-263.7322906484164
 30
0.0
  0
VERTEX
  5
12A
330
128
100
AcDbEntity
  8
FISHER & PAYKEL
 62
   250
420
  1316376
370
     9
100
AcDbVertex
100
AcDb2dVertex
 10
579.2999672798239
 20
-303.7344038212211
 30
0.0
  0
SEQEND
  5
12B
330
128
100
AcDbEntity
  8
FISHER & PAYKEL
 62
   250
420
  1316376
370
     9
  0
POLYLINE
  5
12C
330
1F
100
AcDbEntity
  8
FISHER & PAYKEL
100
AcDb2dPolyline
 66
     1
 10
0.0
 20
0.0
 30
0.0
  0
VERTEX
  5
12D
330
12C
100
AcDbEntity
  8
FISHER & PAYKEL
100
AcDbVertex
100
AcDb2dVertex
 10
452.2965212029
 20
-180.272936754248
 30
0.0
  0
VERTEX
  5
12E
330
12C
100
AcDbEntity
  8
FISHER & PAYKEL
100
AcDbVertex
100
AcDb2dVertex
 10
852.2965212029001
 20
-180.2729367542481
 30
0.0
  0
SEQEND
  5
12F
330
12C
100
AcDbEntity
  8
FISHER & PAYKEL
  0
POLYLINE
  5
130
330
1F
100
AcDbEntity
  8
FISHER & PAYKEL
 62
   250
420
  1316376
370
     9
100
AcDb2dPolyline
 66
     1
 10
0.0
 20
0.0
 30
0.0
 70
     1
  0
VERTEX
  5
131
330
130
100
AcDbEntity
  8
FISHER & PAYKEL
 62
   250
420
  1316376
370
     9
100
AcDbVertex
100
AcDb2dVertex
 10
537.407658125836
 20
-131.8975101838683
 30
0.0
  0
VERTEX
  5
132
330
130
100
AcDbEntity
  8
FISHER & PAYKEL
 62
   250
420
  1316376
370
     9
100
AcDbVertex
100
AcDb2dVertex
 10
534.5254174994861
 20
-132.8711924517664
 30
0.0
  0
VERTEX
  5
133
330
130
100
AcDbEntity
  8
FISHER & PAYKEL
 62
   250
420
  1316376
370
     9
100
AcDbVertex
100
AcDb2dVertex
 10
534.225551583648
 20
-132.0033452129877
 30
0.0
  0
VERTEX
  5
134
330
130
100
AcDbEntity
  8
FISHER & PAYKEL
 62
   250
420
  1316376
370
     9
100
AcDbVertex
100
AcDb2dVertex
 10
537.6404951898985
 20
-130.7544918693796
 30
0.0
  0
VERTEX
  5
135
330
130
100
AcDbEntity
  8
FISHER & PAYKEL
 62
   250
420
  1316376
370
     9
100
AcDbVertex
100
AcDb2dVertex
 10
538.4977589257651
 20
-130.7544918693796
 30
0.0
  0
VERTEX
  5
136
330
130
100
AcDbEntity
  8
FISHER & PAYKEL
 62
   250
420
  1316376
370
     9
100
AcDbVertex
100
AcDb2dVertex
 10
538.4977589257651
 20
-145.6701753065978
 30
0.0
  0
VERTEX
  5
137
330
130
100
AcDbEntity
  8
FISHER & PAYKEL
 62
   250
420
  1316376
370
     9
100
AcDbVertex
100
AcDb2dVertex
 10
537.407658125836
 20
-145.6701753065978
 30
0.0
  0
SEQEND
  5
138
330
130
100
AcDbEntity
  8
FISHER & PAYKEL
 62
   250
420
  1316376
370
     9
  0
LINE
  5
139
330
1F
100
AcDbEntity
  8
FISHER & PAYKEL
 62
   250
420
  1316376
370
     9
100
AcDbLine
 10
542.1017944507089
 20
-138.3072323307657
 30
0.0
 11
542.1017944507089
 21
-138.2648983191181
 31
0.0
  0
SPLINE
  5
13A
330
1F
100
AcDbEntity
  8
FISHER & PAYKEL
 62
   250
420
  1316376
370
     9
100
AcDbSpline
210
0.0
220
0.0
230
1.0
 70
     8
 71
     3
 72
     8
 73
     4
 74
     0
 42
0.000000001
 43
0.0000000001
 40
2.012
 40
2.012
 40
2.012
 40
2.012
 40
3.012
 40
3.012
 40
3.012
 40
3.012
 10
542.1017944507089
 20
-138.2648983191181
 30
0.0
 10
542.1017944507089
 20
-134.1831940294159
 30
0.0
 10
544.5183609489338
 20
-130.6059700451821
 30
0.0
 10
548.3213663286219
 20
-130.6059700451821
 30
0.0
  0
SPLINE
  5
13B
330
1F
100
AcDbEntity
  8
FISHER & PAYKEL
 62
   250
420
  1316376
370
     9
100
AcDbSpline
210
0.0
220
0.0
230
1.0
 70
     8
 71
     3
 72
     8
 73
     4
 74
     0
 42
0.000000001
 43
0.0000000001
 40
3.012
 40
3.012
 40
3.012
 40
3.012
 40
4.012
 40
4.012
 40
4.012
 40
4.012
 10
548.3213663286219
 20
-130.6059700451821
 30
0.0
 10
552.12437170831
 20
-130.6059700451821
 30
0.0
 10
554.4986041948871
 20
-134.1373321834639
 30
0.0
 10
554.4986041948871
 20
-138.2225643074704
 30
0.0
  0
LINE
  5
13C
330
1F
100
AcDbEntity
  8
FISHER & PAYKEL
 62
   250
420
  1316376
370
     9
100
AcDbLine
 10
554.4986041948871
 20
-138.2225643074704
 30
0.0
 11
554.4986041948871
 21
-138.2648983191181
 31
0.0
  0
SPLINE
  5
13D
330
1F
100
AcDbEntity
  8
FISHER & PAYKEL
 62
   250
420
  1316376
370
     9
100
AcDbSpline
210
0.0
220
0.0
230
1.0
 70
     8
 71
     3
 72
     8
 73
     4
 74
     0
 42
0.000000001
 43
0.0000000001
 40
4.024000000000001
 40
4.024000000000001
 40
4.024000000000001
 40
4.024000000000001
 40
5.024000000000001
 40
5.024000000000001
 40
5.024000000000001
 40
5.024000000000001
 10
554.4986041948871
 20
-138.2648983191181
 30
0.0
 10
554.4986041948871
 20
-142.3501304431244
 30
0.0
 10
552.0855655309663
 20
-145.9238265930541
 30
0.0
 10
548.279032316974
 20
-145.9238265930541
 30
0.0
  0
SPLINE
  5
13E
330
1F
100
AcDbEntity
  8
FISHER & PAYKEL
 62
   250
420
  1316376
370
     9
100
AcDbSpline
210
0.0
220
0.0
230
1.0
 70
     8
 71
     3
 72
     8
 73
     4
 74
     0
 42
0.000000001
 43
0.0000000001
 40
5.024000000000001
 40
5.024000000000001
 40
5.024000000000001
 40
5.024000000000001
 40
6.024000000000001
 40
6.024000000000001
 40
6.024000000000001
 40
6.024000000000001
 10
548.279032316974
 20
-145.9238265930541
 30
0.0
 10
544.472499102982
 20
-145.9238265930541
 30
0.0
 10
542.1017944507089
 20
-142.3889366204681
 30
0.0
 10
542.1017944507089
 20
-138.3072323307657
 30
0.0
  0
LINE
  5
13F
330
1F
100
AcDbEntity
  8
FISHER & PAYKEL
 62
   250
420
  1316376
370
     9
100
AcDbLine
 10
553.3450023774863
 20
-138.3072323307657
 30
0.0
 11
553.3450023774863
 21
-138.2648983191181
 31
0.0
  0
SPLINE
  5
140
330
1F
100
AcDbEntity
  8
FISHER & PAYKEL
 62
   250
420
  1316376
370
     9
100
AcDbSpline
210
0.0
220
0.0
230
1.0
 70
     8
 71
     3
 72
     8
 73
     4
 74
     0
 42
0.000000001
 43
0.0000000001
 40
0.0120000000000005
 40
0.0120000000000005
 40
0.0120000000000005
 40
0.0120000000000005
 40
1.012
 40
1.012
 40
1.012
 40
1.012
 10
553.3450023774863
 20
-138.2648983191181
 30
0.0
 10
553.3450023774863
 20
-134.8182042041316
 30
0.0
 10
551.3764708358667
 20
-131.6008193189037
 30
0.0
 10
548.279032316974
 20
-131.6008193189037
 30
0.0
  0
SPLINE
  5
141
330
1F
100
AcDbEntity
  8
FISHER & PAYKEL
 62
   250
420
  1316376
370
     9
100
AcDbSpline
210
0.0
220
0.0
230
1.0
 70
     8
 71
     3
 72
     8
 73
     4
 74
     0
 42
0.000000001
 43
0.0000000001
 40
1.012
 40
1.012
 40
1.012
 40
1.012
 40
2.012
 40
2.012
 40
2.012
 40
2.012
 10
548.279032316974
 20
-131.6008193189037
 30
0.0
 10
545.1815937980816
 20
-131.6008193189037
 30
0.0
 10
543.2589241024136
 20
-134.7758701924839
 30
0.0
 10
543.2589241024136
 20
-138.2225643074704
 30
0.0
  0
LINE
  5
142
330
1F
100
AcDbEntity
  8
FISHER & PAYKEL
 62
   250
420
  1316376
370
     9
100
AcDbLine
 10
543.2589241024136
 20
-138.2225643074704
 30
0.0
 11
543.2589241024136
 21
-138.2648983191181
 31
0.0
  0
SPLINE
  5
143
330
1F
100
AcDbEntity
  8
FISHER & PAYKEL
 62
   250
420
  1316376
370
     9
100
AcDbSpline
210
0.0
220
0.0
230
1.0
 70
     8
 71
     3
 72
     8
 73
     4
 74
     0
 42
0.000000001
 43
0.0000000001
 40
2.024000000000001
 40
2.024000000000001
 40
2.024000000000001
 40
2.024000000000001
 40
3.024000000000001
 40
3.024000000000001
 40
3.024000000000001
 40
3.024000000000001
 10
543.2589241024136
 20
-138.2648983191181
 30
0.0
 10
543.2589241024136
 20
-141.6904254282805
 30
0.0
 10
545.2239278097293
 20
-144.9289773193324
 30
0.0
 10
548.3213663286219
 20
-144.9289773193324
 30
0.0
  0
SPLINE
  5
144
330
1F
100
AcDbEntity
  8
FISHER & PAYKEL
 62
   250
420
  1316376
370
     9
100
AcDbSpline
210
0.0
220
0.0
230
1.0
 70
     8
 71
     3
 72
     8
 73
     4
 74
     0
 42
0.000000001
 43
0.0000000001
 40
3.024000000000001
 40
3.024000000000001
 40
3.024000000000001
 40
3.024000000000001
 40
4.024000000000001
 40
4.024000000000001
 40
4.024000000000001
 40
4.024000000000001
 10
548.3213663286219
 20
-144.9289773193324
 30
0.0
 10
551.4223326818183
 20
-144.9289773193324
 30
0.0
 10
553.3450023774863
 20
-141.736287274232
 30
0.0
 10
553.3450023774863
 20
-138.3072323307657
 30
0.0
  0
LINE
  5
145
330
1F
100
AcDbEntity
  8
FISHER & PAYKEL
 62
   250
420
  1316376
370
     9
100
AcDbLine
 10
557.2365563982041
 20
-138.3072323307657
 30
0.0
 11
557.2365563982041
 21
-138.2648983191181
 31
0.0
  0
SPLINE
  5
146
330
1F
100
AcDbEntity
  8
FISHER & PAYKEL
 62
   250
420
  1316376
370
     9
100
AcDbSpline
210
0.0
220
0.0
230
1.0
 70
     8
 71
     3
 72
     8
 73
     4
 74
     0
 42
0.000000001
 43
0.0000000001
 40
2.012
 40
2.012
 40
2.012
 40
2.012
 40
3.012
 40
3.012
 40
3.012
 40
3.012
 10
557.2365563982041
 20
-138.2648983191181
 30
0.0
 10
557.2365563982041
 20
-134.1831940294159
 30
0.0
 10
559.6531228964288
 20
-130.6059700451821
 30
0.0
 10
563.4596561104211
 20
-130.6059700451821
 30
0.0
  0
SPLINE
  5
147
330
1F
100
AcDbEntity
  8
FISHER & PAYKEL
 62
   250
420
  1316376
370
     9
100
AcDbSpline
210
0.0
220
0.0
230
1.0
 70
     8
 71
     3
 72
     8
 73
     4
 74
     0
 42
0.000000001
 43
0.0000000001
 40
3.012
 40
3.012
 40
3.012
 40
3.012
 40
4.012
 40
4.012
 40
4.012
 40
4.012
 10
563.4596561104211
 20
-130.6059700451821
 30
0.0
 10
567.2626614901092
 20
-130.6059700451821
 30
0.0
 10
569.6333661423821
 20
-134.1373321834639
 30
0.0
 10
569.6333661423821
 20
-138.2225643074704
 30
0.0
  0
LINE
  5
148
330
1F
100
AcDbEntity
  8
FISHER & PAYKEL
 62
   250
420
  1316376
370
     9
100
AcDbLine
 10
569.6333661423821
 20
-138.2225643074704
 30
0.0
 11
569.6333661423821
 21
-138.2648983191181
 31
0.0
  0
SPLINE
  5
149
330
1F
100
AcDbEntity
  8
FISHER & PAYKEL
 62
   250
420
  1316376
370
     9
100
AcDbSpline
210
0.0
220
0.0
230
1.0
 70
     8
 71
     3
 72
     8
 73
     4
 74
     0
 42
0.000000001
 43
0.0000000001
 40
4.024000000000001
 40
4.024000000000001
 40
4.024000000000001
 40
4.024000000000001
 40
5.024000000000001
 40
5.024000000000001
 40
5.024000000000001
 40
5.024000000000001
 10
569.6333661423821
 20
-138.2648983191181
 30
0.0
 10
569.6333661423821
 20
-142.3501304431244
 30
0.0
 10
567.2203274784613
 20
-145.9238265930541
 30
0.0
 10
563.4137942644693
 20
-145.9238265930541
 30
0.0
  0
SPLINE
  5
14A
330
1F
100
AcDbEntity
  8
FISHER & PAYKEL
 62
   250
420
  1316376
370
     9
100
AcDbSpline
210
0.0
220
0.0
230
1.0
 70
     8
 71
     3
 72
     8
 73
     4
 74
     0
 42
0.000000001
 43
0.0000000001
 40
5.024000000000001
 40
5.024000000000001
 40
5.024000000000001
 40
5.024000000000001
 40
6.024000000000001
 40
6.024000000000001
 40
6.024000000000001
 40
6.024000000000001
 10
563.4137942644693
 20
-145.9238265930541
 30
0.0
 10
559.6107888847812
 20
-145.9238265930541
 30
0.0
 10
557.2365563982041
 20
-142.3889366204681
 30
0.0
 10
557.2365563982041
 20
-138.3072323307657
 30
0.0
  0
LINE
  5
14B
330
1F
100
AcDbEntity
  8
FISHER & PAYKEL
 62
   250
420
  1316376
370
     9
100
AcDbLine
 10
568.4797643249815
 20
-138.3072323307657
 30
0.0
 11
568.4797643249815
 21
-138.2648983191181
 31
0.0
  0
SPLINE
  5
14C
330
1F
100
AcDbEntity
  8
FISHER & PAYKEL
 62
   250
420
  1316376
370
     9
100
AcDbSpline
210
0.0
220
0.0
230
1.0
 70
     8
 71
     3
 72
     8
 73
     4
 74
     0
 42
0.000000001
 43
0.0000000001
 40
0.0120000000000005
 40
0.0120000000000005
 40
0.0120000000000005
 40
0.0120000000000005
 40
1.012
 40
1.012
 40
1.012
 40
1.012
 10
568.4797643249815
 20
-138.2648983191181
 30
0.0
 10
568.4797643249815
 20
-134.8182042041316
 30
0.0
 10
566.5147606176658
 20
-131.6008193189037
 30
0.0
 10
563.4137942644693
 20
-131.6008193189037
 30
0.0
  0
SPLINE
  5
14D
330
1F
100
AcDbEntity
  8
FISHER & PAYKEL
 62
   250
420
  1316376
370
     9
100
AcDbSpline
210
0.0
220
0.0
230
1.0
 70
     8
 71
     3
 72
     8
 73
     4
 74
     0
 42
0.000000001
 43
0.0000000001
 40
1.012
 40
1.012
 40
1.012
 40
1.012
 40
2.012
 40
2.012
 40
2.012
 40
2.012
 10
563.4137942644693
 20
-131.6008193189037
 30
0.0
 10
560.3198835798808
 20
-131.6008193189037
 30
0.0
 10
558.3936860499089
 20
-134.7758701924839
 30
0.0
 10
558.3936860499089
 20
-138.2225643074704
 30
0.0
  0
LINE
  5
14E
330
1F
100
AcDbEntity
  8
FISHER & PAYKEL
 62
   250
420
  1316376
370
     9
100
AcDbLine
 10
558.3936860499089
 20
-138.2225643074704
 30
0.0
 11
558.3936860499089
 21
-138.2648983191181
 31
0.0
  0
SPLINE
  5
14F
330
1F
100
AcDbEntity
  8
FISHER & PAYKEL
 62
   250
420
  1316376
370
     9
100
AcDbSpline
210
0.0
220
0.0
230
1.0
 70
     8
 71
     3
 72
     8
 73
     4
 74
     0
 42
0.000000001
 43
0.0000000001
 40
2.024000000000001
 40
2.024000000000001
 40
2.024000000000001
 40
2.024000000000001
 40
3.024000000000001
 40
3.024000000000001
 40
3.024000000000001
 40
3.024000000000001
 10
558.3936860499089
 20
-138.2648983191181
 30
0.0
 10
558.3936860499089
 20
-141.6904254282805
 30
0.0
 10
560.3586897572245
 20
-144.9289773193324
 30
0.0
 10
563.4596561104211
 20
-144.9289773193324
 30
0.0
  0
SPLINE
  5
150
330
1F
100
AcDbEntity
  8
FISHER & PAYKEL
 62
   250
420
  1316376
370
     9
100
AcDbSpline
210
0.0
220
0.0
230
1.0
 70
     8
 71
     3
 72
     8
 73
     4
 74
     0
 42
0.000000001
 43
0.0000000001
 40
3.024000000000001
 40
3.024000000000001
 40
3.024000000000001
 40
3.024000000000001
 40
4.024000000000001
 40
4.024000000000001
 40
4.024000000000001
 40
4.024000000000001
 10
563.4596561104211
 20
-144.9289773193324
 30
0.0
 10
566.5570946293135
 20
-144.9289773193324
 30
0.0
 10
568.4797643249815
 20
-141.736287274232
 30
0.0
 10
568.4797643249815
 20
-138.3072323307657
 30
0.0
  0
LINE
  5
151
330
1F
100
AcDbEntity
  8
FISHER & PAYKEL
 62
   250
420
  1316376
370
     9
100
AcDbLine
 10
631.887646970958
 20
-144.8443092960364
 30
0.0
 11
637.4651530055469
 21
-139.8488959216039
 31
0.0
  0
SPLINE
  5
152
330
1F
100
AcDbEntity
  8
FISHER & PAYKEL
 62
   250
420
  1316376
370
     9
100
AcDbSpline
210
0.0
220
0.0
230
1.0
 70
     8
 71
     3
 72
     8
 73
     4
 74
     0
 42
0.000000001
 43
0.0000000001
 40
2.122408301906088
 40
2.122408301906088
 40
2.122408301906088
 40
2.122408301906088
 40
3.122408301906088
 40
3.122408301906088
 40
3.122408301906088
 40
3.122408301906088
 10
637.4651530055469
 20
-139.8488959216039
 30
0.0
 10
639.9205256811154
 20
-137.6298881444019
 30
0.0
 10
640.7777894169819
 20
-136.3598677949702
 30
0.0
 10
640.7777894169819
 20
-134.7970371983077
 30
0.0
  0
SPLINE
  5
153
330
1F
100
AcDbEntity
  8
FISHER & PAYKEL
 62
   250
420
  1316376
370
     9
100
AcDbSpline
210
0.0
220
0.0
230
1.0
 70
     8
 71
     3
 72
     8
 73
     4
 74
     0
 42
0.000000001
 43
0.0000000001
 40
3.122408301906088
 40
3.122408301906088
 40
3.122408301906088
 40
3.122408301906088
 40
4.122408301906088
 40
4.122408301906088
 40
4.122408301906088
 40
4.122408301906088
 10
640.7777894169819
 20
-134.7970371983077
 30
0.0
 10
640.7777894169819
 20
-132.8708396683359
 30
0.0
 10
639.1937918144961
 20
-131.6219863247278
 30
0.0
 10
637.3981241537713
 20
-131.6219863247278
 30
0.0
  0
SPLINE
  5
154
330
1F
100
AcDbEntity
  8
FISHER & PAYKEL
 62
   250
420
  1316376
370
     9
100
AcDbSpline
210
0.0
220
0.0
230
1.0
 70
     8
 71
     3
 72
     8
 73
     4
 74
     0
 42
0.000000001
 43
0.0000000001
 40
4.122408301906088
 40
4.122408301906088
 40
4.122408301906088
 40
4.122408301906088
 40
5.122408301906088
 40
5.122408301906088
 40
5.122408301906088
 40
5.122408301906088
 10
637.3981241537713
 20
-131.6219863247278
 30
0.0
 10
635.4966214639271
 20
-131.6219863247278
 30
0.0
 10
634.2618794575349
 20
-132.5956685926259
 30
0.0
 10
633.0200817825348
 20
-134.3736970818303
 30
0.0
  0
LINE
  5
155
330
1F
100
AcDbEntity
  8
FISHER & PAYKEL
 62
   250
420
  1316376
370
     9
100
AcDbLine
 10
633.0200817825348
 20
-134.3736970818303
 30
0.0
 11
632.1875128867957
 21
-133.819827096106
 31
0.0
  0
SPLINE
  5
156
330
1F
100
AcDbEntity
  8
FISHER & PAYKEL
 62
   250
420
  1316376
370
     9
100
AcDbSpline
210
0.0
220
0.0
230
1.0
 70
     8
 71
     3
 72
     8
 73
     4
 74
     0
 42
0.000000001
 43
0.0000000001
 40
5.405860237867048
 40
5.405860237867048
 40
5.405860237867048
 40
5.405860237867048
 40
6.405860237867048
 40
6.405860237867048
 40
6.405860237867048
 40
6.405860237867048
 10
632.1875128867957
 20
-133.819827096106
 30
0.0
 10
633.4892837449638
 20
-131.8548233887901
 30
0.0
 10
634.8792504607311
 20
-130.6483040568299
 30
0.0
 10
637.5074870171945
 20
-130.6483040568299
 30
0.0
  0
SPLINE
  5
157
330
1F
100
AcDbEntity
  8
FISHER & PAYKEL
 62
   250
420
  1316376
370
     9
100
AcDbSpline
210
0.0
220
0.0
230
1.0
 70
     8
 71
     3
 72
     8
 73
     4
 74
     0
 42
0.000000001
 43
0.0000000001
 40
6.405860237867048
 40
6.405860237867048
 40
6.405860237867048
 40
6.405860237867048
 40
7.405860237867048
 40
7.405860237867048
 40
7.405860237867048
 40
7.405860237867048
 10
637.5074870171945
 20
-130.6483040568299
 30
0.0
 10
640.0510555503627
 20
-130.6483040568299
 30
0.0
 10
641.9560860745105
 20
-132.4051655402108
 30
0.0
 10
641.9560860745105
 20
-134.7088413407083
 30
0.0
  0
LINE
  5
158
330
1F
100
AcDbEntity
  8
FISHER & PAYKEL
 62
   250
420
  1316376
370
     9
100
AcDbLine
 10
641.9560860745105
 20
-134.7088413407083
 30
0.0
 11
641.9560860745105
 21
-134.7547031866601
 31
0.0
  0
SPLINE
  5
159
330
1F
100
AcDbEntity
  8
FISHER & PAYKEL
 62
   250
420
  1316376
370
     9
100
AcDbSpline
210
0.0
220
0.0
230
1.0
 70
     8
 71
     3
 72
     8
 73
     4
 74
     0
 42
0.000000001
 43
0.0000000001
 40
7.418860237867025
 40
7.418860237867025
 40
7.418860237867025
 40
7.418860237867025
 40
8.418860237867026
 40
8.418860237867026
 40
8.418860237867026
 40
8.418860237867026
 10
641.9560860745105
 20
-134.7547031866601
 30
0.0
 10
641.9560860745105
 20
-136.7832079114474
 30
0.0
 10
640.8412904344536
 20
-138.1378962841749
 30
0.0
 10
638.2130538779902
 20
-140.508600936448
 30
0.0
  0
LINE
  5
15A
330
1F
100
AcDbEntity
  8
FISHER & PAYKEL
 62
   250
420
  1316376
370
     9
100
AcDbLine
 10
638.2130538779902
 20
-140.508600936448
 30
0.0
 11
633.6409806200347
 21
-144.6114722319741
 31
0.0
  0
LINE
  5
15B
330
1F
100
AcDbEntity
  8
FISHER & PAYKEL
 62
   250
420
  1316376
370
     9
100
AcDbLine
 10
633.6409806200347
 20
-144.6114722319741
 30
0.0
 11
642.1042551152777
 21
-144.6114722319741
 31
0.0
  0
LINE
  5
15C
330
1F
100
AcDbEntity
  8
FISHER & PAYKEL
 62
   250
420
  1316376
370
     9
100
AcDbLine
 10
642.1042551152777
 20
-144.6114722319741
 30
0.0
 11
642.1042551152777
 21
-145.6698225231675
 31
0.0
  0
LINE
  5
15D
330
1F
100
AcDbEntity
  8
FISHER & PAYKEL
 62
   250
420
  1316376
370
     9
100
AcDbLine
 10
642.1042551152777
 20
-145.6698225231675
 30
0.0
 11
631.8876469709578
 21
-145.6698225231675
 31
0.0
  0
LINE
  5
15E
330
1F
100
AcDbEntity
  8
FISHER & PAYKEL
 62
   250
420
  1316376
370
     9
100
AcDbLine
 10
631.8876469709578
 20
-145.6698225231675
 30
0.0
 11
631.887646970958
 21
-144.8443092960364
 31
0.0
  0
LINE
  5
15F
330
1F
100
AcDbEntity
  8
FISHER & PAYKEL
 62
   250
420
  1316376
370
     9
100
AcDbLine
 10
644.8224514464926
 20
-138.3072323307657
 30
0.0
 11
644.8224514464926
 21
-138.2648983191181
 31
0.0
  0
SPLINE
  5
160
330
1F
100
AcDbEntity
  8
FISHER & PAYKEL
 62
   250
420
  1316376
370
     9
100
AcDbSpline
210
0.0
220
0.0
230
1.0
 70
     8
 71
     3
 72
     8
 73
     4
 74
     0
 42
0.000000001
 43
0.0000000001
 40
2.012
 40
2.012
 40
2.012
 40
2.012
 40
3.012
 40
3.012
 40
3.012
 40
3.012
 10
644.8224514464926
 20
-138.2648983191181
 30
0.0
 10
644.8224514464926
 20
-134.1831940294159
 30
0.0
 10
647.2390179447173
 20
-130.6059700451821
 30
0.0
 10
651.0455511587095
 20
-130.6059700451821
 30
0.0
  0
SPLINE
  5
161
330
1F
100
AcDbEntity
  8
FISHER & PAYKEL
 62
   250
420
  1316376
370
     9
100
AcDbSpline
210
0.0
220
0.0
230
1.0
 70
     8
 71
     3
 72
     8
 73
     4
 74
     0
 42
0.000000001
 43
0.0000000001
 40
3.012
 40
3.012
 40
3.012
 40
3.012
 40
4.012
 40
4.012
 40
4.012
 40
4.012
 10
651.0455511587095
 20
-130.6059700451821
 30
0.0
 10
654.8485565383974
 20
-130.6059700451821
 30
0.0
 10
657.2192611906707
 20
-134.1373321834639
 30
0.0
 10
657.2192611906707
 20
-138.2225643074704
 30
0.0
  0
LINE
  5
162
330
1F
100
AcDbEntity
  8
FISHER & PAYKEL
 62
   250
420
  1316376
370
     9
100
AcDbLine
 10
657.2192611906707
 20
-138.2225643074704
 30
0.0
 11
657.2192611906707
 21
-138.2648983191181
 31
0.0
  0
SPLINE
  5
163
330
1F
100
AcDbEntity
  8
FISHER & PAYKEL
 62
   250
420
  1316376
370
     9
100
AcDbSpline
210
0.0
220
0.0
230
1.0
 70
     8
 71
     3
 72
     8
 73
     4
 74
     0
 42
0.000000001
 43
0.0000000001
 40
4.024000000000001
 40
4.024000000000001
 40
4.024000000000001
 40
4.024000000000001
 40
5.024000000000001
 40
5.024000000000001
 40
5.024000000000001
 40
5.024000000000001
 10
657.2192611906707
 20
-138.2648983191181
 30
0.0
 10
657.2192611906707
 20
-142.3501304431244
 30
0.0
 10
654.8062225267497
 20
-145.9238265930541
 30
0.0
 10
650.9996893127579
 20
-145.9238265930541
 30
0.0
  0
SPLINE
  5
164
330
1F
100
AcDbEntity
  8
FISHER & PAYKEL
 62
   250
420
  1316376
370
     9
100
AcDbSpline
210
0.0
220
0.0
230
1.0
 70
     8
 71
     3
 72
     8
 73
     4
 74
     0
 42
0.000000001
 43
0.0000000001
 40
5.024000000000001
 40
5.024000000000001
 40
5.024000000000001
 40
5.024000000000001
 40
6.024000000000001
 40
6.024000000000001
 40
6.024000000000001
 40
6.024000000000001
 10
650.9996893127579
 20
-145.9238265930541
 30
0.0
 10
647.1966839330696
 20
-145.9238265930541
 30
0.0
 10
644.8224514464926
 20
-142.3889366204681
 30
0.0
 10
644.8224514464926
 20
-138.3072323307657
 30
0.0
  0
LINE
  5
165
330
1F
100
AcDbEntity
  8
FISHER & PAYKEL
 62
   250
420
  1316376
370
     9
100
AcDbLine
 10
656.0656593732699
 20
-138.3072323307657
 30
0.0
 11
656.0656593732699
 21
-138.2648983191181
 31
0.0
  0
SPLINE
  5
166
330
1F
100
AcDbEntity
  8
FISHER & PAYKEL
 62
   250
420
  1316376
370
     9
100
AcDbSpline
210
0.0
220
0.0
230
1.0
 70
     8
 71
     3
 72
     8
 73
     4
 74
     0
 42
0.000000001
 43
0.0000000001
 40
0.0120000000000005
 40
0.0120000000000005
 40
0.0120000000000005
 40
0.0120000000000005
 40
1.012
 40
1.012
 40
1.012
 40
1.012
 10
656.0656593732699
 20
-138.2648983191181
 30
0.0
 10
656.0656593732699
 20
-134.8182042041316
 30
0.0
 10
654.1006556659543
 20
-131.6008193189037
 30
0.0
 10
650.9996893127579
 20
-131.6008193189037
 30
0.0
  0
SPLINE
  5
167
330
1F
100
AcDbEntity
  8
FISHER & PAYKEL
 62
   250
420
  1316376
370
     9
100
AcDbSpline
210
0.0
220
0.0
230
1.0
 70
     8
 71
     3
 72
     8
 73
     4
 74
     0
 42
0.000000001
 43
0.0000000001
 40
1.012
 40
1.012
 40
1.012
 40
1.012
 40
2.012
 40
2.012
 40
2.012
 40
2.012
 10
650.9996893127579
 20
-131.6008193189037
 30
0.0
 10
647.9057786281692
 20
-131.6008193189037
 30
0.0
 10
645.9795810981973
 20
-134.7758701924839
 30
0.0
 10
645.9795810981973
 20
-138.2225643074704
 30
0.0
  0
LINE
  5
168
330
1F
100
AcDbEntity
  8
FISHER & PAYKEL
 62
   250
420
  1316376
370
     9
100
AcDbLine
 10
645.9795810981973
 20
-138.2225643074704
 30
0.0
 11
645.9795810981973
 21
-138.2648983191181
 31
0.0
  0
SPLINE
  5
169
330
1F
100
AcDbEntity
  8
FISHER & PAYKEL
 62
   250
420
  1316376
370
     9
100
AcDbSpline
210
0.0
220
0.0
230
1.0
 70
     8
 71
     3
 72
     8
 73
     4
 74
     0
 42
0.000000001
 43
0.0000000001
 40
2.024000000000001
 40
2.024000000000001
 40
2.024000000000001
 40
2.024000000000001
 40
3.024000000000001
 40
3.024000000000001
 40
3.024000000000001
 40
3.024000000000001
 10
645.9795810981973
 20
-138.2648983191181
 30
0.0
 10
645.9795810981973
 20
-141.6904254282805
 30
0.0
 10
647.9445848055127
 20
-144.9289773193324
 30
0.0
 10
651.0455511587095
 20
-144.9289773193324
 30
0.0
  0
SPLINE
  5
16A
330
1F
100
AcDbEntity
  8
FISHER & PAYKEL
 62
   250
420
  1316376
370
     9
100
AcDbSpline
210
0.0
220
0.0
230
1.0
 70
     8
 71
     3
 72
     8
 73
     4
 74
     0
 42
0.000000001
 43
0.0000000001
 40
3.024000000000001
 40
3.024000000000001
 40
3.024000000000001
 40
3.024000000000001
 40
4.024000000000001
 40
4.024000000000001
 40
4.024000000000001
 40
4.024000000000001
 10
651.0455511587095
 20
-144.9289773193324
 30
0.0
 10
654.1429896776019
 20
-144.9289773193324
 30
0.0
 10
656.0656593732699
 20
-141.736287274232
 30
0.0
 10
656.0656593732699
 20
-138.3072323307657
 30
0.0
  0
LINE
  5
16B
330
1F
100
AcDbEntity
  8
FISHER & PAYKEL
 62
   250
420
  1316376
370
     9
100
AcDbLine
 10
659.9603884448613
 20
-138.3072323307657
 30
0.0
 11
659.9603884448613
 21
-138.2648983191181
 31
0.0
  0
SPLINE
  5
16C
330
1F
100
AcDbEntity
  8
FISHER & PAYKEL
 62
   250
420
  1316376
370
     9
100
AcDbSpline
210
0.0
220
0.0
230
1.0
 70
     8
 71
     3
 72
     8
 73
     4
 74
     0
 42
0.000000001
 43
0.0000000001
 40
2.012
 40
2.012
 40
2.012
 40
2.012
 40
3.012
 40
3.012
 40
3.012
 40
3.012
 10
659.9603884448613
 20
-138.2648983191181
 30
0.0
 10
659.9603884448613
 20
-134.1831940294159
 30
0.0
 10
662.3769549430863
 20
-130.6059700451821
 30
0.0
 10
666.1834881570785
 20
-130.6059700451821
 30
0.0
  0
SPLINE
  5
16D
330
1F
100
AcDbEntity
  8
FISHER & PAYKEL
 62
   250
420
  1316376
370
     9
100
AcDbSpline
210
0.0
220
0.0
230
1.0
 70
     8
 71
     3
 72
     8
 73
     4
 74
     0
 42
0.000000001
 43
0.0000000001
 40
3.012
 40
3.012
 40
3.012
 40
3.012
 40
4.012
 40
4.012
 40
4.012
 40
4.012
 10
666.1834881570785
 20
-130.6059700451821
 30
0.0
 10
669.9864935367664
 20
-130.6059700451821
 30
0.0
 10
672.3571981890395
 20
-134.1373321834639
 30
0.0
 10
672.3571981890395
 20
-138.2225643074704
 30
0.0
  0
LINE
  5
16E
330
1F
100
AcDbEntity
  8
FISHER & PAYKEL
 62
   250
420
  1316376
370
     9
100
AcDbLine
 10
672.3571981890395
 20
-138.2225643074704
 30
0.0
 11
672.3571981890395
 21
-138.2648983191181
 31
0.0
  0
SPLINE
  5
16F
330
1F
100
AcDbEntity
  8
FISHER & PAYKEL
 62
   250
420
  1316376
370
     9
100
AcDbSpline
210
0.0
220
0.0
230
1.0
 70
     8
 71
     3
 72
     8
 73
     4
 74
     0
 42
0.000000001
 43
0.0000000001
 40
4.024000000000001
 40
4.024000000000001
 40
4.024000000000001
 40
4.024000000000001
 40
5.024000000000001
 40
5.024000000000001
 40
5.024000000000001
 40
5.024000000000001
 10
672.3571981890395
 20
-138.2648983191181
 30
0.0
 10
672.3571981890395
 20
-142.3501304431244
 30
0.0
 10
669.9441595251187
 20
-145.9238265930541
 30
0.0
 10
666.1376263111267
 20
-145.9238265930541
 30
0.0
  0
SPLINE
  5
170
330
1F
100
AcDbEntity
  8
FISHER & PAYKEL
 62
   250
420
  1316376
370
     9
100
AcDbSpline
210
0.0
220
0.0
230
1.0
 70
     8
 71
     3
 72
     8
 73
     4
 74
     0
 42
0.000000001
 43
0.0000000001
 40
5.024000000000001
 40
5.024000000000001
 40
5.024000000000001
 40
5.024000000000001
 40
6.024000000000001
 40
6.024000000000001
 40
6.024000000000001
 40
6.024000000000001
 10
666.1376263111267
 20
-145.9238265930541
 30
0.0
 10
662.3346209314384
 20
-145.9238265930541
 30
0.0
 10
659.9603884448613
 20
-142.3889366204681
 30
0.0
 10
659.9603884448613
 20
-138.3072323307657
 30
0.0
  0
LINE
  5
171
330
1F
100
AcDbEntity
  8
FISHER & PAYKEL
 62
   250
420
  1316376
370
     9
100
AcDbLine
 10
671.2035963716389
 20
-138.3072323307657
 30
0.0
 11
671.2035963716389
 21
-138.2648983191181
 31
0.0
  0
SPLINE
  5
172
330
1F
100
AcDbEntity
  8
FISHER & PAYKEL
 62
   250
420
  1316376
370
     9
100
AcDbSpline
210
0.0
220
0.0
230
1.0
 70
     8
 71
     3
 72
     8
 73
     4
 74
     0
 42
0.000000001
 43
0.0000000001
 40
0.0120000000000005
 40
0.0120000000000005
 40
0.0120000000000005
 40
0.0120000000000005
 40
1.012
 40
1.012
 40
1.012
 40
1.012
 10
671.2035963716389
 20
-138.2648983191181
 30
0.0
 10
671.2035963716389
 20
-134.8182042041316
 30
0.0
 10
669.238592664323
 20
-131.6008193189037
 30
0.0
 10
666.1376263111267
 20
-131.6008193189037
 30
0.0
  0
SPLINE
  5
173
330
1F
100
AcDbEntity
  8
FISHER & PAYKEL
 62
   250
420
  1316376
370
     9
100
AcDbSpline
210
0.0
220
0.0
230
1.0
 70
     8
 71
     3
 72
     8
 73
     4
 74
     0
 42
0.000000001
 43
0.0000000001
 40
1.012
 40
1.012
 40
1.012
 40
1.012
 40
2.012
 40
2.012
 40
2.012
 40
2.012
 10
666.1376263111267
 20
-131.6008193189037
 30
0.0
 10
663.0437156265382
 20
-131.6008193189037
 30
0.0
 10
661.1175180965663
 20
-134.7758701924839
 30
0.0
 10
661.1175180965663
 20
-138.2225643074704
 30
0.0
  0
LINE
  5
174
330
1F
100
AcDbEntity
  8
FISHER & PAYKEL
 62
   250
420
  1316376
370
     9
100
AcDbLine
 10
661.1175180965663
 20
-138.2225643074704
 30
0.0
 11
661.1175180965663
 21
-138.2648983191181
 31
0.0
  0
SPLINE
  5
175
330
1F
100
AcDbEntity
  8
FISHER & PAYKEL
 62
   250
420
  1316376
370
     9
100
AcDbSpline
210
0.0
220
0.0
230
1.0
 70
     8
 71
     3
 72
     8
 73
     4
 74
     0
 42
0.000000001
 43
0.0000000001
 40
2.024000000000001
 40
2.024000000000001
 40
2.024000000000001
 40
2.024000000000001
 40
3.024000000000001
 40
3.024000000000001
 40
3.024000000000001
 40
3.024000000000001
 10
661.1175180965663
 20
-138.2648983191181
 30
0.0
 10
661.1175180965663
 20
-141.6904254282805
 30
0.0
 10
663.0825218038817
 20
-144.9289773193324
 30
0.0
 10
666.1834881570785
 20
-144.9289773193324
 30
0.0
  0
SPLINE
  5
176
330
1F
100
AcDbEntity
  8
FISHER & PAYKEL
 62
   250
420
  1316376
370
     9
100
AcDbSpline
210
0.0
220
0.0
230
1.0
 70
     8
 71
     3
 72
     8
 73
     4
 74
     0
 42
0.000000001
 43
0.0000000001
 40
3.024000000000001
 40
3.024000000000001
 40
3.024000000000001
 40
3.024000000000001
 40
4.024000000000001
 40
4.024000000000001
 40
4.024000000000001
 40
4.024000000000001
 10
666.1834881570785
 20
-144.9289773193324
 30
0.0
 10
669.2809266759707
 20
-144.9289773193324
 30
0.0
 10
671.2035963716389
 20
-141.736287274232
 30
0.0
 10
671.2035963716389
 20
-138.3072323307657
 30
0.0
  0
POLYLINE
  5
177
330
1F
100
AcDbEntity
  8
FISHER & PAYKEL
 62
   250
420
  1316376
370
     9
100
AcDb2dPolyline
 66
     1
 10
0.0
 20
0.0
 30
0.0
 70
     1
  0
VERTEX
  5
178
330
177
100
AcDbEntity
  8
FISHER & PAYKEL
 62
   250
420
  1316376
370
     9
100
AcDbVertex
100
AcDb2dVertex
 10
839.5853637833493
 20
-142.052028444438
 30
0.0
  0
VERTEX
  5
179
330
177
100
AcDbEntity
  8
FISHER & PAYKEL
 62
   250
420
  1316376
370
     9
100
AcDbVertex
100
AcDb2dVertex
 10
831.4854562214161
 20
-142.052028444438
 30
0.0
  0
VERTEX
  5
17A
330
177
100
AcDbEntity
  8
FISHER & PAYKEL
 62
   250
420
  1316376
370
     9
100
AcDbVertex
100
AcDb2dVertex
 10
831.1009222822827
 20
-141.2265152173071
 30
0.0
  0
VERTEX
  5
17B
330
177
100
AcDbEntity
  8
FISHER & PAYKEL
 62
   250
420
  1316376
370
     9
100
AcDbVertex
100
AcDb2dVertex
 10
839.6488648008208
 20
-130.7559030031008
 30
0.0
  0
VERTEX
  5
17C
330
177
100
AcDbEntity
  8
FISHER & PAYKEL
 62
   250
420
  1316376
370
     9
100
AcDbVertex
100
AcDb2dVertex
 10
840.6542975774546
 20
-130.7559030031008
 30
0.0
  0
VERTEX
  5
17D
330
177
100
AcDbEntity
  8
FISHER & PAYKEL
 62
   250
420
  1316376
370
     9
100
AcDbVertex
100
AcDb2dVertex
 10
840.6542975774546
 20
-141.0995131823641
 30
0.0
  0
VERTEX
  5
17E
330
177
100
AcDbEntity
  8
FISHER & PAYKEL
 62
   250
420
  1316376
370
     9
100
AcDbVertex
100
AcDb2dVertex
 10
843.0885032471992
 20
-141.0995131823641
 30
0.0
  0
VERTEX
  5
17F
330
177
100
AcDbEntity
  8
FISHER & PAYKEL
 62
   250
420
  1316376
370
     9
100
AcDbVertex
100
AcDb2dVertex
 10
843.0885032471992
 20
-142.052028444438
 30
0.0
  0
VERTEX
  5
180
330
177
100
AcDbEntity
  8
FISHER & PAYKEL
 62
   250
420
  1316376
370
     9
100
AcDbVertex
100
AcDb2dVertex
 10
840.6542975774546
 20
-142.052028444438
 30
0.0
  0
VERTEX
  5
181
330
177
100
AcDbEntity
  8
FISHER & PAYKEL
 62
   250
420
  1316376
370
     9
100
AcDbVertex
100
AcDb2dVertex
 10
840.6542975774546
 20
-145.6680586060153
 30
0.0
  0
VERTEX
  5
182
330
177
100
AcDbEntity
  8
FISHER & PAYKEL
 62
   250
420
  1316376
370
     9
100
AcDbVertex
100
AcDb2dVertex
 10
839.5853637833493
 20
-145.6680586060153
 30
0.0
  0
SEQEND
  5
183
330
177
100
AcDbEntity
  8
FISHER & PAYKEL
 62
   250
420
  1316376
370
     9
  0
POLYLINE
  5
184
330
1F
100
AcDbEntity
  8
FISHER & PAYKEL
 62
   250
420
  1316376
370
     9
100
AcDb2dPolyline
 66
     1
 10
0.0
 20
0.0
 30
0.0
 70
     1
  0
VERTEX
  5
185
330
184
100
AcDbEntity
  8
FISHER & PAYKEL
 62
   250
420
  1316376
370
     9
100
AcDbVertex
100
AcDb2dVertex
 10
839.5853637833493
 20
-141.0995131823641
 30
0.0
  0
VERTEX
  5
186
330
184
100
AcDbEntity
  8
FISHER & PAYKEL
 62
   250
420
  1316376
370
     9
100
AcDbVertex
100
AcDb2dVertex
 10
839.5853637833493
 20
-132.343428439891
 30
0.0
  0
VERTEX
  5
187
330
184
100
AcDbEntity
  8
FISHER & PAYKEL
 62
   250
420
  1316376
370
     9
100
AcDbVertex
100
AcDb2dVertex
 10
832.4485549864021
 20
-141.0995131823641
 30
0.0
  0
SEQEND
  5
188
330
184
100
AcDbEntity
  8
FISHER & PAYKEL
 62
   250
420
  1316376
370
     9
  0
LINE
  5
189
330
1F
100
AcDbEntity
  8
FISHER & PAYKEL
 62
   250
420
  1316376
370
     9
100
AcDbLine
 10
845.6161965259994
 20
-138.3072323307657
 30
0.0
 11
845.6161965259994
 21
-138.2648983191181
 31
0.0
  0
SPLINE
  5
18A
330
1F
100
AcDbEntity
  8
FISHER & PAYKEL
 62
   250
420
  1316376
370
     9
100
AcDbSpline
210
0.0
220
0.0
230
1.0
 70
     8
 71
     3
 72
     8
 73
     4
 74
     0
 42
0.000000001
 43
0.0000000001
 40
2.012
 40
2.012
 40
2.012
 40
2.012
 40
3.012
 40
3.012
 40
3.012
 40
3.012
 10
845.6161965259994
 20
-138.2648983191181
 30
0.0
 10
845.6161965259994
 20
-134.1831940294159
 30
0.0
 10
848.0327630242241
 20
-130.6059700451821
 30
0.0
 10
851.8357684039124
 20
-130.6059700451821
 30
0.0
  0
SPLINE
  5
18B
330
1F
100
AcDbEntity
  8
FISHER & PAYKEL
 62
   250
420
  1316376
370
     9
100
AcDbSpline
210
0.0
220
0.0
230
1.0
 70
     8
 71
     3
 72
     8
 73
     4
 74
     0
 42
0.000000001
 43
0.0000000001
 40
3.012
 40
3.012
 40
3.012
 40
3.012
 40
4.012
 40
4.012
 40
4.012
 40
4.012
 10
851.8357684039124
 20
-130.6059700451821
 30
0.0
 10
855.6387737836003
 20
-130.6059700451821
 30
0.0
 10
858.0130062701776
 20
-134.1373321834639
 30
0.0
 10
858.0130062701776
 20
-138.2225643074704
 30
0.0
  0
LINE
  5
18C
330
1F
100
AcDbEntity
  8
FISHER & PAYKEL
 62
   250
420
  1316376
370
     9
100
AcDbLine
 10
858.0130062701776
 20
-138.2225643074704
 30
0.0
 11
858.0130062701776
 21
-138.2648983191181
 31
0.0
  0
SPLINE
  5
18D
330
1F
100
AcDbEntity
  8
FISHER & PAYKEL
 62
   250
420
  1316376
370
     9
100
AcDbSpline
210
0.0
220
0.0
230
1.0
 70
     8
 71
     3
 72
     8
 73
     4
 74
     0
 42
0.000000001
 43
0.0000000001
 40
4.024000000000001
 40
4.024000000000001
 40
4.024000000000001
 40
4.024000000000001
 40
5.024000000000001
 40
5.024000000000001
 40
5.024000000000001
 40
5.024000000000001
 10
858.0130062701776
 20
-138.2648983191181
 30
0.0
 10
858.0130062701776
 20
-142.3501304431244
 30
0.0
 10
855.5999676062565
 20
-145.9238265930541
 30
0.0
 10
851.7934343922648
 20
-145.9238265930541
 30
0.0
  0
SPLINE
  5
18E
330
1F
100
AcDbEntity
  8
FISHER & PAYKEL
 62
   250
420
  1316376
370
     9
100
AcDbSpline
210
0.0
220
0.0
230
1.0
 70
     8
 71
     3
 72
     8
 73
     4
 74
     0
 42
0.000000001
 43
0.0000000001
 40
5.024000000000001
 40
5.024000000000001
 40
5.024000000000001
 40
5.024000000000001
 40
6.024000000000001
 40
6.024000000000001
 40
6.024000000000001
 40
6.024000000000001
 10
851.7934343922648
 20
-145.9238265930541
 30
0.0
 10
847.9869011782725
 20
-145.9238265930541
 30
0.0
 10
845.6161965259994
 20
-142.3889366204681
 30
0.0
 10
845.6161965259994
 20
-138.3072323307657
 30
0.0
  0
LINE
  5
18F
330
1F
100
AcDbEntity
  8
FISHER & PAYKEL
 62
   250
420
  1316376
370
     9
100
AcDbLine
 10
856.8594044527767
 20
-138.3072323307657
 30
0.0
 11
856.8594044527767
 21
-138.2648983191181
 31
0.0
  0
SPLINE
  5
190
330
1F
100
AcDbEntity
  8
FISHER & PAYKEL
 62
   250
420
  1316376
370
     9
100
AcDbSpline
210
0.0
220
0.0
230
1.0
 70
     8
 71
     3
 72
     8
 73
     4
 74
     0
 42
0.000000001
 43
0.0000000001
 40
0.0120000000000005
 40
0.0120000000000005
 40
0.0120000000000005
 40
0.0120000000000005
 40
1.012
 40
1.012
 40
1.012
 40
1.012
 10
856.8594044527767
 20
-138.2648983191181
 30
0.0
 10
856.8594044527767
 20
-134.8182042041316
 30
0.0
 10
854.8908729111572
 20
-131.6008193189037
 30
0.0
 10
851.7934343922648
 20
-131.6008193189037
 30
0.0
  0
SPLINE
  5
191
330
1F
100
AcDbEntity
  8
FISHER & PAYKEL
 62
   250
420
  1316376
370
     9
100
AcDbSpline
210
0.0
220
0.0
230
1.0
 70
     8
 71
     3
 72
     8
 73
     4
 74
     0
 42
0.000000001
 43
0.0000000001
 40
1.012
 40
1.012
 40
1.012
 40
1.012
 40
2.012
 40
2.012
 40
2.012
 40
2.012
 10
851.7934343922648
 20
-131.6008193189037
 30
0.0
 10
848.6959958733719
 20
-131.6008193189037
 30
0.0
 10
846.7733261777041
 20
-134.7758701924839
 30
0.0
 10
846.7733261777041
 20
-138.2225643074704
 30
0.0
  0
LINE
  5
192
330
1F
100
AcDbEntity
  8
FISHER & PAYKEL
 62
   250
420
  1316376
370
     9
100
AcDbLine
 10
846.7733261777041
 20
-138.2225643074704
 30
0.0
 11
846.7733261777041
 21
-138.2648983191181
 31
0.0
  0
SPLINE
  5
193
330
1F
100
AcDbEntity
  8
FISHER & PAYKEL
 62
   250
420
  1316376
370
     9
100
AcDbSpline
210
0.0
220
0.0
230
1.0
 70
     8
 71
     3
 72
     8
 73
     4
 74
     0
 42
0.000000001
 43
0.0000000001
 40
2.024000000000001
 40
2.024000000000001
 40
2.024000000000001
 40
2.024000000000001
 40
3.024000000000001
 40
3.024000000000001
 40
3.024000000000001
 40
3.024000000000001
 10
846.7733261777041
 20
-138.2648983191181
 30
0.0
 10
846.7733261777041
 20
-141.6904254282805
 30
0.0
 10
848.7383298850198
 20
-144.9289773193324
 30
0.0
 10
851.8357684039124
 20
-144.9289773193324
 30
0.0
  0
SPLINE
  5
194
330
1F
100
AcDbEntity
  8
FISHER & PAYKEL
 62
   250
420
  1316376
370
     9
100
AcDbSpline
210
0.0
220
0.0
230
1.0
 70
     8
 71
     3
 72
     8
 73
     4
 74
     0
 42
0.000000001
 43
0.0000000001
 40
3.024000000000001
 40
3.024000000000001
 40
3.024000000000001
 40
3.024000000000001
 40
4.024000000000001
 40
4.024000000000001
 40
4.024000000000001
 40
4.024000000000001
 10
851.8357684039124
 20
-144.9289773193324
 30
0.0
 10
854.9367347571088
 20
-144.9289773193324
 30
0.0
 10
856.8594044527767
 20
-141.736287274232
 30
0.0
 10
856.8594044527767
 20
-138.3072323307657
 30
0.0
  0
LINE
  5
195
330
1F
100
AcDbEntity
  8
FISHER & PAYKEL
 62
   250
420
  1316376
370
     9
100
AcDbLine
 10
860.7541335243682
 20
-138.3072323307657
 30
0.0
 11
860.7541335243682
 21
-138.2648983191181
 31
0.0
  0
SPLINE
  5
196
330
1F
100
AcDbEntity
  8
FISHER & PAYKEL
 62
   250
420
  1316376
370
     9
100
AcDbSpline
210
0.0
220
0.0
230
1.0
 70
     8
 71
     3
 72
     8
 73
     4
 74
     0
 42
0.000000001
 43
0.0000000001
 40
2.012
 40
2.012
 40
2.012
 40
2.012
 40
3.012
 40
3.012
 40
3.012
 40
3.012
 10
860.7541335243682
 20
-138.2648983191181
 30
0.0
 10
860.7541335243682
 20
-134.1831940294159
 30
0.0
 10
863.1707000225931
 20
-130.6059700451821
 30
0.0
 10
866.9737054022814
 20
-130.6059700451821
 30
0.0
  0
SPLINE
  5
197
330
1F
100
AcDbEntity
  8
FISHER & PAYKEL
 62
   250
420
  1316376
370
     9
100
AcDbSpline
210
0.0
220
0.0
230
1.0
 70
     8
 71
     3
 72
     8
 73
     4
 74
     0
 42
0.000000001
 43
0.0000000001
 40
3.012
 40
3.012
 40
3.012
 40
3.012
 40
4.012
 40
4.012
 40
4.012
 40
4.012
 10
866.9737054022814
 20
-130.6059700451821
 30
0.0
 10
870.7767107819693
 20
-130.6059700451821
 30
0.0
 10
873.1509432685464
 20
-134.1373321834639
 30
0.0
 10
873.1509432685464
 20
-138.2225643074704
 30
0.0
  0
LINE
  5
198
330
1F
100
AcDbEntity
  8
FISHER & PAYKEL
 62
   250
420
  1316376
370
     9
100
AcDbLine
 10
873.1509432685464
 20
-138.2225643074704
 30
0.0
 11
873.1509432685464
 21
-138.2648983191181
 31
0.0
  0
SPLINE
  5
199
330
1F
100
AcDbEntity
  8
FISHER & PAYKEL
 62
   250
420
  1316376
370
     9
100
AcDbSpline
210
0.0
220
0.0
230
1.0
 70
     8
 71
     3
 72
     8
 73
     4
 74
     0
 42
0.000000001
 43
0.0000000001
 40
4.024000000000001
 40
4.024000000000001
 40
4.024000000000001
 40
4.024000000000001
 40
5.024000000000001
 40
5.024000000000001
 40
5.024000000000001
 40
5.024000000000001
 10
873.1509432685464
 20
-138.2648983191181
 30
0.0
 10
873.1509432685464
 20
-142.3501304431244
 30
0.0
 10
870.7379046046256
 20
-145.9238265930541
 30
0.0
 10
866.9313713906336
 20
-145.9238265930541
 30
0.0
  0
SPLINE
  5
19A
330
1F
100
AcDbEntity
  8
FISHER & PAYKEL
 62
   250
420
  1316376
370
     9
100
AcDbSpline
210
0.0
220
0.0
230
1.0
 70
     8
 71
     3
 72
     8
 73
     4
 74
     0
 42
0.000000001
 43
0.0000000001
 40
5.024000000000001
 40
5.024000000000001
 40
5.024000000000001
 40
5.024000000000001
 40
6.024000000000001
 40
6.024000000000001
 40
6.024000000000001
 40
6.024000000000001
 10
866.9313713906336
 20
-145.9238265930541
 30
0.0
 10
863.1248381766413
 20
-145.9238265930541
 30
0.0
 10
860.7541335243682
 20
-142.3889366204681
 30
0.0
 10
860.7541335243682
 20
-138.3072323307657
 30
0.0
  0
LINE
  5
19B
330
1F
100
AcDbEntity
  8
FISHER & PAYKEL
 62
   250
420
  1316376
370
     9
100
AcDbLine
 10
871.9973414511455
 20
-138.3072323307657
 30
0.0
 11
871.9973414511455
 21
-138.2648983191181
 31
0.0
  0
SPLINE
  5
19C
330
1F
100
AcDbEntity
  8
FISHER & PAYKEL
 62
   250
420
  1316376
370
     9
100
AcDbSpline
210
0.0
220
0.0
230
1.0
 70
     8
 71
     3
 72
     8
 73
     4
 74
     0
 42
0.000000001
 43
0.0000000001
 40
0.0120000000000005
 40
0.0120000000000005
 40
0.0120000000000005
 40
0.0120000000000005
 40
1.012
 40
1.012
 40
1.012
 40
1.012
 10
871.9973414511455
 20
-138.2648983191181
 30
0.0
 10
871.9973414511455
 20
-134.8182042041316
 30
0.0
 10
870.028809909526
 20
-131.6008193189037
 30
0.0
 10
866.9313713906336
 20
-131.6008193189037
 30
0.0
  0
SPLINE
  5
19D
330
1F
100
AcDbEntity
  8
FISHER & PAYKEL
 62
   250
420
  1316376
370
     9
100
AcDbSpline
210
0.0
220
0.0
230
1.0
 70
     8
 71
     3
 72
     8
 73
     4
 74
     0
 42
0.000000001
 43
0.0000000001
 40
1.012
 40
1.012
 40
1.012
 40
1.012
 40
2.012
 40
2.012
 40
2.012
 40
2.012
 10
866.9313713906336
 20
-131.6008193189037
 30
0.0
 10
863.8339328717409
 20
-131.6008193189037
 30
0.0
 10
861.9112631760731
 20
-134.7758701924839
 30
0.0
 10
861.9112631760731
 20
-138.2225643074704
 30
0.0
  0
LINE
  5
19E
330
1F
100
AcDbEntity
  8
FISHER & PAYKEL
 62
   250
420
  1316376
370
     9
100
AcDbLine
 10
861.9112631760731
 20
-138.2225643074704
 30
0.0
 11
861.9112631760731
 21
-138.2648983191181
 31
0.0
  0
SPLINE
  5
19F
330
1F
100
AcDbEntity
  8
FISHER & PAYKEL
 62
   250
420
  1316376
370
     9
100
AcDbSpline
210
0.0
220
0.0
230
1.0
 70
     8
 71
     3
 72
     8
 73
     4
 74
     0
 42
0.000000001
 43
0.0000000001
 40
2.024000000000001
 40
2.024000000000001
 40
2.024000000000001
 40
2.024000000000001
 40
3.024000000000001
 40
3.024000000000001
 40
3.024000000000001
 40
3.024000000000001
 10
861.9112631760731
 20
-138.2648983191181
 30
0.0
 10
861.9112631760731
 20
-141.6904254282805
 30
0.0
 10
863.8762668833886
 20
-144.9289773193324
 30
0.0
 10
866.9737054022814
 20
-144.9289773193324
 30
0.0
  0
SPLINE
  5
1A0
330
1F
100
AcDbEntity
  8
FISHER & PAYKEL
 62
   250
420
  1316376
370
     9
100
AcDbSpline
210
0.0
220
0.0
230
1.0
 70
     8
 71
     3
 72
     8
 73
     4
 74
     0
 42
0.000000001
 43
0.0000000001
 40
3.024000000000001
 40
3.024000000000001
 40
3.024000000000001
 40
3.024000000000001
 40
4.024000000000001
 40
4.024000000000001
 40
4.024000000000001
 40
4.024000000000001
 10
866.9737054022814
 20
-144.9289773193324
 30
0.0
 10
870.0746717554778
 20
-144.9289773193324
 30
0.0
 10
871.9973414511455
 20
-141.736287274232
 30
0.0
 10
871.9973414511455
 20
-138.3072323307657
 30
0.0
  0
LINE
  5
1A1
330
1F
100
AcDbEntity
  8
FISHER & PAYKEL
 62
   250
420
  1316376
370
     9
100
AcDbLine
 10
446.0991923199902
 20
-138.3072323307657
 30
0.0
 11
446.0991923199902
 21
-138.2648983191181
 31
0.0
  0
SPLINE
  5
1A2
330
1F
100
AcDbEntity
  8
FISHER & PAYKEL
 62
   250
420
  1316376
370
     9
100
AcDbSpline
210
0.0
220
0.0
230
1.0
 70
     8
 71
     3
 72
     8
 73
     4
 74
     0
 42
0.000000001
 43
0.0000000001
 40
2.012
 40
2.012
 40
2.012
 40
2.012
 40
3.012
 40
3.012
 40
3.012
 40
3.012
 10
446.0991923199902
 20
-138.2648983191181
 30
0.0
 10
446.0991923199902
 20
-134.1831940294159
 30
0.0
 10
448.5157588182149
 20
-130.6059700451821
 30
0.0
 10
452.322292032207
 20
-130.6059700451821
 30
0.0
  0
SPLINE
  5
1A3
330
1F
100
AcDbEntity
  8
FISHER & PAYKEL
 62
   250
420
  1316376
370
     9
100
AcDbSpline
210
0.0
220
0.0
230
1.0
 70
     8
 71
     3
 72
     8
 73
     4
 74
     0
 42
0.000000001
 43
0.0000000001
 40
3.012
 40
3.012
 40
3.012
 40
3.012
 40
4.012
 40
4.012
 40
4.012
 40
4.012
 10
452.322292032207
 20
-130.6059700451821
 30
0.0
 10
456.1252974118954
 20
-130.6059700451821
 30
0.0
 10
458.4960020641684
 20
-134.1373321834639
 30
0.0
 10
458.4960020641684
 20
-138.2225643074704
 30
0.0
  0
LINE
  5
1A4
330
1F
100
AcDbEntity
  8
FISHER & PAYKEL
 62
   250
420
  1316376
370
     9
100
AcDbLine
 10
458.4960020641684
 20
-138.2225643074704
 30
0.0
 11
458.4960020641684
 21
-138.2648983191181
 31
0.0
  0
SPLINE
  5
1A5
330
1F
100
AcDbEntity
  8
FISHER & PAYKEL
 62
   250
420
  1316376
370
     9
100
AcDbSpline
210
0.0
220
0.0
230
1.0
 70
     8
 71
     3
 72
     8
 73
     4
 74
     0
 42
0.000000001
 43
0.0000000001
 40
4.024000000000001
 40
4.024000000000001
 40
4.024000000000001
 40
4.024000000000001
 40
5.024000000000001
 40
5.024000000000001
 40
5.024000000000001
 40
5.024000000000001
 10
458.4960020641684
 20
-138.2648983191181
 30
0.0
 10
458.4960020641684
 20
-142.3501304431244
 30
0.0
 10
456.0829634002475
 20
-145.9238265930541
 30
0.0
 10
452.2764301862554
 20
-145.9238265930541
 30
0.0
  0
SPLINE
  5
1A6
330
1F
100
AcDbEntity
  8
FISHER & PAYKEL
 62
   250
420
  1316376
370
     9
100
AcDbSpline
210
0.0
220
0.0
230
1.0
 70
     8
 71
     3
 72
     8
 73
     4
 74
     0
 42
0.000000001
 43
0.0000000001
 40
5.024000000000001
 40
5.024000000000001
 40
5.024000000000001
 40
5.024000000000001
 40
6.024000000000001
 40
6.024000000000001
 40
6.024000000000001
 40
6.024000000000001
 10
452.2764301862554
 20
-145.9238265930541
 30
0.0
 10
448.4734248065673
 20
-145.9238265930541
 30
0.0
 10
446.0991923199902
 20
-142.3889366204681
 30
0.0
 10
446.0991923199902
 20
-138.3072323307657
 30
0.0
  0
LINE
  5
1A7
330
1F
100
AcDbEntity
  8
FISHER & PAYKEL
 62
   250
420
  1316376
370
     9
100
AcDbLine
 10
457.3424002467677
 20
-138.3072323307657
 30
0.0
 11
457.3424002467677
 21
-138.2648983191181
 31
0.0
  0
SPLINE
  5
1A8
330
1F
100
AcDbEntity
  8
FISHER & PAYKEL
 62
   250
420
  1316376
370
     9
100
AcDbSpline
210
0.0
220
0.0
230
1.0
 70
     8
 71
     3
 72
     8
 73
     4
 74
     0
 42
0.000000001
 43
0.0000000001
 40
0.0120000000000005
 40
0.0120000000000005
 40
0.0120000000000005
 40
0.0120000000000005
 40
1.012
 40
1.012
 40
1.012
 40
1.012
 10
457.3424002467677
 20
-138.2648983191181
 30
0.0
 10
457.3424002467677
 20
-134.8182042041316
 30
0.0
 10
455.377396539452
 20
-131.6008193189037
 30
0.0
 10
452.2764301862554
 20
-131.6008193189037
 30
0.0
  0
SPLINE
  5
1A9
330
1F
100
AcDbEntity
  8
FISHER & PAYKEL
 62
   250
420
  1316376
370
     9
100
AcDbSpline
210
0.0
220
0.0
230
1.0
 70
     8
 71
     3
 72
     8
 73
     4
 74
     0
 42
0.000000001
 43
0.0000000001
 40
1.012
 40
1.012
 40
1.012
 40
1.012
 40
2.012
 40
2.012
 40
2.012
 40
2.012
 10
452.2764301862554
 20
-131.6008193189037
 30
0.0
 10
449.1825195016669
 20
-131.6008193189037
 30
0.0
 10
447.2563219716949
 20
-134.7758701924839
 30
0.0
 10
447.2563219716949
 20
-138.2225643074704
 30
0.0
  0
LINE
  5
1AA
330
1F
100
AcDbEntity
  8
FISHER & PAYKEL
 62
   250
420
  1316376
370
     9
100
AcDbLine
 10
447.2563219716949
 20
-138.2225643074704
 30
0.0
 11
447.2563219716949
 21
-138.2648983191181
 31
0.0
  0
SPLINE
  5
1AB
330
1F
100
AcDbEntity
  8
FISHER & PAYKEL
 62
   250
420
  1316376
370
     9
100
AcDbSpline
210
0.0
220
0.0
230
1.0
 70
     8
 71
     3
 72
     8
 73
     4
 74
     0
 42
0.000000001
 43
0.0000000001
 40
2.024000000000001
 40
2.024000000000001
 40
2.024000000000001
 40
2.024000000000001
 40
3.024000000000001
 40
3.024000000000001
 40
3.024000000000001
 40
3.024000000000001
 10
447.2563219716949
 20
-138.2648983191181
 30
0.0
 10
447.2563219716949
 20
-141.6904254282805
 30
0.0
 10
449.2213256790107
 20
-144.9289773193324
 30
0.0
 10
452.322292032207
 20
-144.9289773193324
 30
0.0
  0
SPLINE
  5
1AC
330
1F
100
AcDbEntity
  8
FISHER & PAYKEL
 62
   250
420
  1316376
370
     9
100
AcDbSpline
210
0.0
220
0.0
230
1.0
 70
     8
 71
     3
 72
     8
 73
     4
 74
     0
 42
0.000000001
 43
0.0000000001
 40
3.024000000000001
 40
3.024000000000001
 40
3.024000000000001
 40
3.024000000000001
 40
4.024000000000001
 40
4.024000000000001
 40
4.024000000000001
 40
4.024000000000001
 10
452.322292032207
 20
-144.9289773193324
 30
0.0
 10
455.4197305510997
 20
-144.9289773193324
 30
0.0
 10
457.3424002467677
 20
-141.736287274232
 30
0.0
 10
457.3424002467677
 20
-138.3072323307657
 30
0.0
  0
POLYLINE
  5
1AD
330
1F
100
AcDbEntity
  8
FISHER & PAYKEL
 62
   250
420
  1316376
370
     9
100
AcDb2dPolyline
 66
     1
 10
0.0
 20
0.0
 30
0.0
 70
     1
  0
VERTEX
  5
1AE
330
1AD
100
AcDbEntity
  8
FISHER & PAYKEL
 62
   250
420
  1316376
370
     9
100
AcDbVertex
100
AcDb2dVertex
 10
867.3017939925512
 20
-180.1138327500552
 30
0.0
  0
VERTEX
  5
1AF
330
1AD
100
AcDbEntity
  8
FISHER & PAYKEL
 62
   250
420
  1316376
370
     9
100
AcDbVertex
100
AcDb2dVertex
 10
868.3495607808327
 20
-180.1138327500552
 30
0.0
  0
VERTEX
  5
1B0
330
1AD
100
AcDbEntity
  8
FISHER & PAYKEL
 62
   250
420
  1316376
370
     9
100
AcDbVertex
100
AcDb2dVertex
 10
874.3539347662031
 20
-188.8734453268322
 30
0.0
  0
VERTEX
  5
1B1
330
1AD
100
AcDbEntity
  8
FISHER & PAYKEL
 62
   250
420
  1316376
370
     9
100
AcDbVertex
100
AcDb2dVertex
 10
880.3583087515735
 20
-180.1138327500552
 30
0.0
  0
VERTEX
  5
1B2
330
1AD
100
AcDbEntity
  8
FISHER & PAYKEL
 62
   250
420
  1316376
370
     9
100
AcDbVertex
100
AcDb2dVertex
 10
881.4060755398548
 20
-180.1138327500552
 30
0.0
  0
VERTEX
  5
1B3
330
1AD
100
AcDbEntity
  8
FISHER & PAYKEL
 62
   250
420
  1316376
370
     9
100
AcDbVertex
100
AcDb2dVertex
 10
881.4060755398548
 20
-194.9236811581542
 30
0.0
  0
VERTEX
  5
1B4
330
1AD
100
AcDbEntity
  8
FISHER & PAYKEL
 62
   250
420
  1316376
370
     9
100
AcDbVertex
100
AcDb2dVertex
 10
880.2983355684057
 20
-194.9236811581542
 30
0.0
  0
VERTEX
  5
1B5
330
1AD
100
AcDbEntity
  8
FISHER & PAYKEL
 62
   250
420
  1316376
370
     9
100
AcDbVertex
100
AcDb2dVertex
 10
880.2983355684057
 20
-182.0611972858509
 30
0.0
  0
VERTEX
  5
1B6
330
1AD
100
AcDbEntity
  8
FISHER & PAYKEL
 62
   250
420
  1316376
370
     9
100
AcDbVertex
100
AcDb2dVertex
 10
874.3786296063308
 20
-190.5879727985654
 30
0.0
  0
VERTEX
  5
1B7
330
1AD
100
AcDbEntity
  8
FISHER & PAYKEL
 62
   250
420
  1316376
370
     9
100
AcDbVertex
100
AcDb2dVertex
 10
874.2904337487314
 20
-190.5879727985654
 30
0.0
  0
VERTEX
  5
1B8
330
1AD
100
AcDbEntity
  8
FISHER & PAYKEL
 62
   250
420
  1316376
370
     9
100
AcDbVertex
100
AcDb2dVertex
 10
868.3742556209604
 20
-182.0611972858509
 30
0.0
  0
VERTEX
  5
1B9
330
1AD
100
AcDbEntity
  8
FISHER & PAYKEL
 62
   250
420
  1316376
370
     9
100
AcDbVertex
100
AcDb2dVertex
 10
868.3742556209604
 20
-194.9236811581542
 30
0.0
  0
VERTEX
  5
1BA
330
1AD
100
AcDbEntity
  8
FISHER & PAYKEL
 62
   250
420
  1316376
370
     9
100
AcDbVertex
100
AcDb2dVertex
 10
867.3017939925512
 20
-194.9236811581542
 30
0.0
  0
SEQEND
  5
1BB
330
1AD
100
AcDbEntity
  8
FISHER & PAYKEL
 62
   250
420
  1316376
370
     9
  0
POLYLINE
  5
1BC
330
1F
100
AcDbEntity
  8
FISHER & PAYKEL
 62
   250
420
  1316376
370
     9
100
AcDb2dPolyline
 66
     1
 10
0.0
 20
0.0
 30
0.0
 70
     1
  0
VERTEX
  5
1BD
330
1BC
100
AcDbEntity
  8
FISHER & PAYKEL
 62
   250
420
  1316376
370
     9
100
AcDbVertex
100
AcDb2dVertex
 10
885.5985538267018
 20
-179.9053377426902
 30
0.0
  0
VERTEX
  5
1BE
330
1BC
100
AcDbEntity
  8
FISHER & PAYKEL
 62
   250
420
  1316376
370
     9
100
AcDbVertex
100
AcDb2dVertex
 10
886.9038525191738
 20
-179.9053377426902
 30
0.0
  0
VERTEX
  5
1BF
330
1BC
100
AcDbEntity
  8
FISHER & PAYKEL
 62
   250
420
  1316376
370
     9
100
AcDbVertex
100
AcDb2dVertex
 10
886.9038525191738
 20
-181.3199992985855
 30
0.0
  0
VERTEX
  5
1C0
330
1BC
100
AcDbEntity
  8
FISHER & PAYKEL
 62
   250
420
  1316376
370
     9
100
AcDbVertex
100
AcDb2dVertex
 10
885.5985538267018
 20
-181.3199992985855
 30
0.0
  0
SEQEND
  5
1C1
330
1BC
100
AcDbEntity
  8
FISHER & PAYKEL
 62
   250
420
  1316376
370
     9
  0
POLYLINE
  5
1C2
330
1F
100
AcDbEntity
  8
FISHER & PAYKEL
 62
   250
420
  1316376
370
     9
100
AcDb2dPolyline
 66
     1
 10
0.0
 20
0.0
 30
0.0
 70
     1
  0
VERTEX
  5
1C3
330
1C2
100
AcDbEntity
  8
FISHER & PAYKEL
 62
   250
420
  1316376
370
     9
100
AcDbVertex
100
AcDb2dVertex
 10
885.7290836959492
 20
-184.1352110731594
 30
0.0
  0
VERTEX
  5
1C4
330
1C2
100
AcDbEntity
  8
FISHER & PAYKEL
 62
   250
420
  1316376
370
     9
100
AcDbVertex
100
AcDb2dVertex
 10
886.7768504842306
 20
-184.1352110731594
 30
0.0
  0
VERTEX
  5
1C5
330
1C2
100
AcDbEntity
  8
FISHER & PAYKEL
 62
   250
420
  1316376
370
     9
100
AcDbVertex
100
AcDb2dVertex
 10
886.7768504842306
 20
-194.926856209028
 30
0.0
  0
VERTEX
  5
1C6
330
1C2
100
AcDbEntity
  8
FISHER & PAYKEL
 62
   250
420
  1316376
370
     9
100
AcDbVertex
100
AcDb2dVertex
 10
885.7290836959492
 20
-194.926856209028
 30
0.0
  0
SEQEND
  5
1C7
330
1C2
100
AcDbEntity
  8
FISHER & PAYKEL
 62
   250
420
  1316376
370
     9
  0
POLYLINE
  5
1C8
330
1F
100
AcDbEntity
  8
FISHER & PAYKEL
 62
   250
420
  1316376
370
     9
100
AcDb2dPolyline
 66
     1
 10
0.0
 20
0.0
 30
0.0
 70
     1
  0
VERTEX
  5
1C9
330
1C8
100
AcDbEntity
  8
FISHER & PAYKEL
 62
   250
420
  1316376
370
     9
100
AcDbVertex
100
AcDb2dVertex
 10
891.0208351519159
 20
-179.4784697919087
 30
0.0
  0
VERTEX
  5
1CA
330
1C8
100
AcDbEntity
  8
FISHER & PAYKEL
 62
   250
420
  1316376
370
     9
100
AcDbVertex
100
AcDb2dVertex
 10
892.0686019401974
 20
-179.4784697919087
 30
0.0
  0
VERTEX
  5
1CB
330
1C8
100
AcDbEntity
  8
FISHER & PAYKEL
 62
   250
420
  1316376
370
     9
100
AcDbVertex
100
AcDb2dVertex
 10
892.0686019401974
 20
-194.9233283747236
 30
0.0
  0
VERTEX
  5
1CC
330
1C8
100
AcDbEntity
  8
FISHER & PAYKEL
 62
   250
420
  1316376
370
     9
100
AcDbVertex
100
AcDb2dVertex
 10
891.0208351519159
 20
-194.9233283747236
 30
0.0
  0
SEQEND
  5
1CD
330
1C8
100
AcDbEntity
  8
FISHER & PAYKEL
 62
   250
420
  1316376
370
     9
  0
POLYLINE
  5
1CE
330
1F
100
AcDbEntity
  8
FISHER & PAYKEL
 62
   250
420
  1316376
370
     9
100
AcDb2dPolyline
 66
     1
 10
0.0
 20
0.0
 30
0.0
 70
     1
  0
VERTEX
  5
1CF
330
1CE
100
AcDbEntity
  8
FISHER & PAYKEL
 62
   250
420
  1316376
370
     9
100
AcDbVertex
100
AcDb2dVertex
 10
896.3161144421865
 20
-179.4784697919087
 30
0.0
  0
VERTEX
  5
1D0
330
1CE
100
AcDbEntity
  8
FISHER & PAYKEL
 62
   250
420
  1316376
370
     9
100
AcDbVertex
100
AcDb2dVertex
 10
897.3638812304682
 20
-179.4784697919087
 30
0.0
  0
VERTEX
  5
1D1
330
1CE
100
AcDbEntity
  8
FISHER & PAYKEL
 62
   250
420
  1316376
370
     9
100
AcDbVertex
100
AcDb2dVertex
 10
897.3638812304682
 20
-194.9233283747236
 30
0.0
  0
VERTEX
  5
1D2
330
1CE
100
AcDbEntity
  8
FISHER & PAYKEL
 62
   250
420
  1316376
370
     9
100
AcDbVertex
100
AcDb2dVertex
 10
896.3161144421865
 20
-194.9233283747236
 30
0.0
  0
SEQEND
  5
1D3
330
1CE
100
AcDbEntity
  8
FISHER & PAYKEL
 62
   250
420
  1316376
370
     9
  0
POLYLINE
  5
1D4
330
1F
100
AcDbEntity
  8
FISHER & PAYKEL
 62
   250
420
  1316376
370
     9
100
AcDb2dPolyline
 66
     1
 10
0.0
 20
0.0
 30
0.0
 70
     1
  0
VERTEX
  5
1D5
330
1D4
100
AcDbEntity
  8
FISHER & PAYKEL
 62
   250
420
  1316376
370
     9
100
AcDbVertex
100
AcDb2dVertex
 10
901.4843916975142
 20
-179.9053377426902
 30
0.0
  0
VERTEX
  5
1D6
330
1D4
100
AcDbEntity
  8
FISHER & PAYKEL
 62
   250
420
  1316376
370
     9
100
AcDbVertex
100
AcDb2dVertex
 10
902.786162555682
 20
-179.9053377426902
 30
0.0
  0
VERTEX
  5
1D7
330
1D4
100
AcDbEntity
  8
FISHER & PAYKEL
 62
   250
420
  1316376
370
     9
100
AcDbVertex
100
AcDb2dVertex
 10
902.786162555682
 20
-181.3199992985855
 30
0.0
  0
VERTEX
  5
1D8
330
1D4
100
AcDbEntity
  8
FISHER & PAYKEL
 62
   250
420
  1316376
370
     9
100
AcDbVertex
100
AcDb2dVertex
 10
901.4843916975142
 20
-181.3199992985855
 30
0.0
  0
SEQEND
  5
1D9
330
1D4
100
AcDbEntity
  8
FISHER & PAYKEL
 62
   250
420
  1316376
370
     9
  0
POLYLINE
  5
1DA
330
1F
100
AcDbEntity
  8
FISHER & PAYKEL
 62
   250
420
  1316376
370
     9
100
AcDb2dPolyline
 66
     1
 10
0.0
 20
0.0
 30
0.0
 70
     1
  0
VERTEX
  5
1DB
330
1DA
100
AcDbEntity
  8
FISHER & PAYKEL
 62
   250
420
  1316376
370
     9
100
AcDbVertex
100
AcDb2dVertex
 10
901.6113937324574
 20
-184.1352110731594
 30
0.0
  0
VERTEX
  5
1DC
330
1DA
100
AcDbEntity
  8
FISHER & PAYKEL
 62
   250
420
  1316376
370
     9
100
AcDbVertex
100
AcDb2dVertex
 10
902.6591605207389
 20
-184.1352110731594
 30
0.0
  0
VERTEX
  5
1DD
330
1DA
100
AcDbEntity
  8
FISHER & PAYKEL
 62
   250
420
  1316376
370
     9
100
AcDbVertex
100
AcDb2dVertex
 10
902.6591605207389
 20
-194.926856209028
 30
0.0
  0
VERTEX
  5
1DE
330
1DA
100
AcDbEntity
  8
FISHER & PAYKEL
 62
   250
420
  1316376
370
     9
100
AcDbVertex
100
AcDb2dVertex
 10
901.6113937324574
 20
-194.926856209028
 30
0.0
  0
SEQEND
  5
1DF
330
1DA
100
AcDbEntity
  8
FISHER & PAYKEL
 62
   250
420
  1316376
370
     9
  0
LINE
  5
1E0
330
1F
100
AcDbEntity
  8
FISHER & PAYKEL
 62
   250
420
  1316376
370
     9
100
AcDbLine
 10
906.7556817145178
 20
-184.1345055062988
 30
0.0
 11
907.8034485027993
 21
-184.1345055062988
 31
0.0
  0
LINE
  5
1E1
330
1F
100
AcDbEntity
  8
FISHER & PAYKEL
 62
   250
420
  1316376
370
     9
100
AcDbLine
 10
907.8034485027993
 20
-184.1345055062988
 30
0.0
 11
907.8034485027993
 21
-186.0607030362706
 31
0.0
  0
SPLINE
  5
1E2
330
1F
100
AcDbEntity
  8
FISHER & PAYKEL
 62
   250
420
  1316376
370
     9
100
AcDbSpline
210
0.0
220
0.0
230
1.0
 70
     8
 71
     3
 72
     8
 73
     4
 74
     0
 42
0.000000001
 43
0.0000000001
 40
0.8430000000000177
 40
0.8430000000000177
 40
0.8430000000000177
 40
0.8430000000000177
 40
1.843000000000018
 40
1.843000000000018
 40
1.843000000000018
 40
1.843000000000018
 10
907.8034485027993
 20
-186.0607030362706
 30
0.0
 10
908.5090153635949
 20
-184.9423795619094
 30
0.0
 10
909.4897533001003
 20
-183.8805014364124
 30
0.0
 10
911.4371178358963
 20
-183.8805014364124
 30
0.0
  0
SPLINE
  5
1E3
330
1F
100
AcDbEntity
  8
FISHER & PAYKEL
 62
   250
420
  1316376
370
     9
100
AcDbSpline
210
0.0
220
0.0
230
1.0
 70
     8
 71
     3
 72
     8
 73
     4
 74
     0
 42
0.000000001
 43
0.0000000001
 40
1.843000000000018
 40
1.843000000000018
 40
1.843000000000018
 40
1.843000000000018
 40
2.843000000000018
 40
2.843000000000018
 40
2.843000000000018
 40
2.843000000000018
 10
911.4371178358963
 20
-183.8805014364124
 30
0.0
 10
913.3386205257405
 20
-183.8805014364124
 30
0.0
 10
914.5133893489651
 20
-184.9600187334294
 30
0.0
 10
915.1131211806412
 20
-186.2088720770379
 30
0.0
  0
SPLINE
  5
1E4
330
1F
100
AcDbEntity
  8
FISHER & PAYKEL
 62
   250
420
  1316376
370
     9
100
AcDbSpline
210
0.0
220
0.0
230
1.0
 70
     8
 71
     3
 72
     8
 73
     4
 74
     0
 42
0.000000001
 43
0.0000000001
 40
2.843000000000018
 40
2.843000000000018
 40
2.843000000000018
 40
2.843000000000018
 40
3.843000000000018
 40
3.843000000000018
 40
3.843000000000018
 40
3.843000000000018
 10
915.1131211806412
 20
-186.2088720770379
 30
0.0
 10
915.8151602071327
 20
-185.002352745077
 30
0.0
 10
916.9899290303574
 20
-183.8805014364124
 30
0.0
 10
919.0431285952725
 20
-183.8805014364124
 30
0.0
  0
SPLINE
  5
1E5
330
1F
100
AcDbEntity
  8
FISHER & PAYKEL
 62
   250
420
  1316376
370
     9
100
AcDbSpline
210
0.0
220
0.0
230
1.0
 70
     8
 71
     3
 72
     8
 73
     4
 74
     0
 42
0.000000001
 43
0.0000000001
 40
3.843000000000018
 40
3.843000000000018
 40
3.843000000000018
 40
3.843000000000018
 40
4.843000000000018
 40
4.843000000000018
 40
4.843000000000018
 40
4.843000000000018
 10
919.0431285952725
 20
-183.8805014364124
 30
0.0
 10
921.6325589743922
 20
-183.8805014364124
 30
0.0
 10
923.2341957483982
 20
-185.6761690971372
 30
0.0
 10
923.2341957483982
 20
-188.385545842592
 30
0.0
  0
LINE
  5
1E6
330
1F
100
AcDbEntity
  8
FISHER & PAYKEL
 62
   250
420
  1316376
370
     9
100
AcDbLine
 10
923.2341957483982
 20
-188.385545842592
 30
0.0
 11
923.2341957483982
 21
-194.926150642167
 31
0.0
  0
LINE
  5
1E7
330
1F
100
AcDbEntity
  8
FISHER & PAYKEL
 62
   250
420
  1316376
370
     9
100
AcDbLine
 10
923.2341957483982
 20
-194.926150642167
 30
0.0
 11
922.1864289601169
 21
-194.926150642167
 31
0.0
  0
LINE
  5
1E8
330
1F
100
AcDbEntity
  8
FISHER & PAYKEL
 62
   250
420
  1316376
370
     9
100
AcDbLine
 10
922.1864289601169
 20
-194.926150642167
 30
0.0
 11
922.1864289601169
 21
-188.5125478775352
 31
0.0
  0
SPLINE
  5
1E9
330
1F
100
AcDbEntity
  8
FISHER & PAYKEL
 62
   250
420
  1316376
370
     9
100
AcDbSpline
210
0.0
220
0.0
230
1.0
 70
     8
 71
     3
 72
     8
 73
     4
 74
     0
 42
0.000000001
 43
0.0000000001
 40
8.812000000000069
 40
8.812000000000069
 40
8.812000000000069
 40
8.812000000000069
 40
9.812000000000069
 40
9.812000000000069
 40
9.812000000000069
 40
9.812000000000069
 10
922.1864289601169
 20
-188.5125478775352
 30
0.0
 10
922.1864289601169
 20
-186.1877050712138
 30
0.0
 10
920.9657982909405
 20
-184.8330166984862
 30
0.0
 10
918.9584605719772
 20
-184.8330166984862
 30
0.0
  0
SPLINE
  5
1EA
330
1F
100
AcDbEntity
  8
FISHER & PAYKEL
 62
   250
420
  1316376
370
     9
100
AcDbSpline
210
0.0
220
0.0
230
1.0
 70
     8
 71
     3
 72
     8
 73
     4
 74
     0
 42
0.000000001
 43
0.0000000001
 40
9.812000000000069
 40
9.812000000000069
 40
9.812000000000069
 40
9.812000000000069
 40
10.81200000000007
 40
10.81200000000007
 40
10.81200000000007
 40
10.81200000000007
 10
918.9584605719772
 20
-184.8330166984862
 30
0.0
 10
917.1204588996047
 20
-184.8330166984862
 30
0.0
 10
915.5152942912948
 20
-186.2300390828615
 30
0.0
 10
915.5152942912948
 20
-188.6395499124784
 30
0.0
  0
LINE
  5
1EB
330
1F
100
AcDbEntity
  8
FISHER & PAYKEL
 62
   250
420
  1316376
370
     9
100
AcDbLine
 10
915.5152942912948
 20
-188.6395499124784
 30
0.0
 11
915.5152942912948
 21
-194.926150642167
 31
0.0
  0
LINE
  5
1EC
330
1F
100
AcDbEntity
  8
FISHER & PAYKEL
 62
   250
420
  1316376
370
     9
100
AcDbLine
 10
915.5152942912948
 20
-194.926150642167
 30
0.0
 11
914.4710553373172
 21
-194.926150642167
 31
0.0
  0
LINE
  5
1ED
330
1F
100
AcDbEntity
  8
FISHER & PAYKEL
 62
   250
420
  1316376
370
     9
100
AcDbLine
 10
914.4710553373172
 20
-194.926150642167
 30
0.0
 11
914.4710553373172
 21
-188.4525746943676
 31
0.0
  0
SPLINE
  5
1EE
330
1F
100
AcDbEntity
  8
FISHER & PAYKEL
 62
   250
420
  1316376
370
     9
100
AcDbSpline
210
0.0
220
0.0
230
1.0
 70
     8
 71
     3
 72
     8
 73
     4
 74
     0
 42
0.000000001
 43
0.0000000001
 40
14.72500000000014
 40
14.72500000000014
 40
14.72500000000014
 40
14.72500000000014
 40
15.72500000000014
 40
15.72500000000014
 40
15.72500000000014
 40
15.72500000000014
 10
914.4710553373172
 20
-188.4525746943676
 30
0.0
 10
914.4710553373172
 20
-186.2088720770379
 30
0.0
 10
913.2327854966211
 20
-184.8330166984862
 30
0.0
 10
911.2854209608251
 20
-184.8330166984862
 30
0.0
  0
SPLINE
  5
1EF
330
1F
100
AcDbEntity
  8
FISHER & PAYKEL
 62
   250
420
  1316376
370
     9
100
AcDbSpline
210
0.0
220
0.0
230
1.0
 70
     8
 71
     3
 72
     8
 73
     4
 74
     0
 42
0.000000001
 43
0.0000000001
 40
15.72500000000014
 40
15.72500000000014
 40
15.72500000000014
 40
15.72500000000014
 40
16.72500000000014
 40
16.72500000000014
 40
16.72500000000014
 40
16.72500000000014
 10
911.2854209608251
 20
-184.8330166984862
 30
0.0
 10
909.3415842593336
 20
-184.8330166984862
 30
0.0
 10
907.8034485027993
 20
-186.5263771643957
 30
0.0
 10
907.8034485027993
 20
-188.7030509299501
 30
0.0
  0
LINE
  5
1F0
330
1F
100
AcDbEntity
  8
FISHER & PAYKEL
 62
   250
420
  1316376
370
     9
100
AcDbLine
 10
907.8034485027993
 20
-188.7030509299501
 30
0.0
 11
907.8034485027993
 21
-194.926150642167
 31
0.0
  0
LINE
  5
1F1
330
1F
100
AcDbEntity
  8
FISHER & PAYKEL
 62
   250
420
  1316376
370
     9
100
AcDbLine
 10
907.8034485027993
 20
-194.926150642167
 30
0.0
 11
906.7556817145178
 21
-194.926150642167
 31
0.0
  0
LINE
  5
1F2
330
1F
100
AcDbEntity
  8
FISHER & PAYKEL
 62
   250
420
  1316376
370
     9
100
AcDbLine
 10
906.7556817145178
 20
-194.926150642167
 30
0.0
 11
906.7556817145178
 21
-184.1345055062988
 31
0.0
  0
LINE
  5
1F3
330
1F
100
AcDbEntity
  8
FISHER & PAYKEL
 62
   250
420
  1316376
370
     9
100
AcDbLine
 10
926.2914169562255
 20
-189.5490255960439
 30
0.0
 11
926.2914169562255
 21
-189.5102194187001
 31
0.0
  0
SPLINE
  5
1F4
330
1F
100
AcDbEntity
  8
FISHER & PAYKEL
 62
   250
420
  1316376
370
     9
100
AcDbSpline
210
0.0
220
0.0
230
1.0
 70
     8
 71
     3
 72
     8
 73
     4
 74
     0
 42
0.000000001
 43
0.0000000001
 40
2.010999999999967
 40
2.010999999999967
 40
2.010999999999967
 40
2.010999999999967
 40
3.010999999999967
 40
3.010999999999967
 40
3.010999999999967
 40
3.010999999999967
 10
926.2914169562255
 20
-189.5102194187001
 30
0.0
 10
926.2914169562255
 20
-186.3775025567676
 30
0.0
 10
928.5139525677314
 20
-183.8797958695517
 30
0.0
 10
931.463222045857
 20
-183.8797958695517
 30
0.0
  0
SPLINE
  5
1F5
330
1F
100
AcDbEntity
  8
FISHER & PAYKEL
 62
   250
420
  1316376
370
     9
100
AcDbSpline
210
0.0
220
0.0
230
1.0
 70
     8
 71
     3
 72
     8
 73
     4
 74
     0
 42
0.000000001
 43
0.0000000001
 40
3.010999999999967
 40
3.010999999999967
 40
3.010999999999967
 40
3.010999999999967
 40
4.010999999999967
 40
4.010999999999967
 40
4.010999999999967
 40
4.010999999999967
 10
931.463222045857
 20
-183.8797958695517
 30
0.0
 10
934.5218543874059
 20
-183.8797958695517
 30
0.0
 10
936.4621632545936
 20
-186.3351685451199
 30
0.0
 10
936.4621632545936
 20
-189.5313864245239
 30
0.0
  0
SPLINE
  5
1F6
330
1F
100
AcDbEntity
  8
FISHER & PAYKEL
 62
   250
420
  1316376
370
     9
100
AcDbSpline
210
0.0
220
0.0
230
1.0
 70
     8
 71
     3
 72
     8
 73
     4
 74
     0
 42
0.000000001
 43
0.0000000001
 40
4.010999999999967
 40
4.010999999999967
 40
4.010999999999967
 40
4.010999999999967
 40
5.010999999999967
 40
5.010999999999967
 40
5.010999999999967
 40
5.010999999999967
 10
936.4621632545936
 20
-189.5313864245239
 30
0.0
 10
936.4621632545936
 20
-189.7183616426347
 30
0.0
 10
936.4621632545936
 20
-189.7853904944103
 30
0.0
 10
936.4409962487696
 20
-189.9547265410012
 30
0.0
  0
LINE
  5
1F7
330
1F
100
AcDbEntity
  8
FISHER & PAYKEL
 62
   250
420
  1316376
370
     9
100
AcDbLine
 10
936.4409962487696
 20
-189.9547265410012
 30
0.0
 11
927.4026847619784
 21
-189.9547265410012
 31
0.0
  0
SPLINE
  5
1F8
330
1F
100
AcDbEntity
  8
FISHER & PAYKEL
 62
   250
420
  1316376
370
     9
100
AcDbSpline
210
0.0
220
0.0
230
1.0
 70
     8
 71
     3
 72
     8
 73
     4
 74
     0
 42
0.000000001
 43
0.0000000001
 40
7.572999999999979
 40
7.572999999999979
 40
7.572999999999979
 40
7.572999999999979
 40
8.572999999999979
 40
8.572999999999979
 40
8.572999999999979
 40
8.572999999999979
 10
927.4026847619784
 20
-189.9547265410012
 30
0.0
 10
927.5967156486972
 20
-192.6358806120246
 30
0.0
 10
929.5370245158852
 20
-194.2057668772946
 30
0.0
 10
931.6784199383994
 20
-194.2057668772946
 30
0.0
  0
SPLINE
  5
1F9
330
1F
100
AcDbEntity
  8
FISHER & PAYKEL
 62
   250
420
  1316376
370
     9
100
AcDbSpline
210
0.0
220
0.0
230
1.0
 70
     8
 71
     3
 72
     8
 73
     4
 74
     0
 42
0.000000001
 43
0.0000000001
 40
8.572999999999979
 40
8.572999999999979
 40
8.572999999999979
 40
8.572999999999979
 40
9.572999999999979
 40
9.572999999999979
 40
9.572999999999979
 40
9.572999999999979
 10
931.6784199383994
 20
-194.2057668772946
 30
0.0
 10
933.364724735701
 20
-194.2057668772946
 30
0.0
 10
934.5218543874059
 20
-193.4649216734593
 30
0.0
 10
935.4143964663122
 20
-192.5124064113853
 30
0.0
  0
LINE
  5
1FA
330
1F
100
AcDbEntity
  8
FISHER & PAYKEL
 62
   250
420
  1316376
370
     9
100
AcDbLine
 10
935.4143964663122
 20
-192.5124064113853
 30
0.0
 11
936.1411303329317
 21
-193.1474165861015
 31
0.0
  0
SPLINE
  5
1FB
330
1F
100
AcDbEntity
  8
FISHER & PAYKEL
 62
   250
420
  1316376
370
     9
100
AcDbSpline
210
0.0
220
0.0
230
1.0
 70
     8
 71
     3
 72
     8
 73
     4
 74
     0
 42
0.000000001
 43
0.0000000001
 40
9.84656169322476
 40
9.84656169322476
 40
9.84656169322476
 40
9.84656169322476
 40
10.84656169322476
 40
10.84656169322476
 40
10.84656169322476
 40
10.84656169322476
 10
936.1411303329317
 20
-193.1474165861015
 30
0.0
 10
935.0333903614826
 20
-194.3327689122378
 30
0.0
 10
933.7280916690108
 20
-195.1794491451925
 30
0.0
 10
931.6325580924479
 20
-195.1794491451925
 30
0.0
  0
SPLINE
  5
1FC
330
1F
100
AcDbEntity
  8
FISHER & PAYKEL
 62
   250
420
  1316376
370
     9
100
AcDbSpline
210
0.0
220
0.0
230
1.0
 70
     8
 71
     3
 72
     8
 73
     4
 74
     0
 42
0.000000001
 43
0.0000000001
 40
10.84656169322476
 40
10.84656169322476
 40
10.84656169322476
 40
10.84656169322476
 40
11.84656169322476
 40
11.84656169322476
 40
11.84656169322476
 40
11.84656169322476
 10
931.6325580924479
 20
-195.1794491451925
 30
0.0
 10
928.7714844719221
 20
-195.1794491451925
 30
0.0
 10
926.2914169562255
 20
-192.9145795220387
 30
0.0
 10
926.2914169562255
 20
-189.5490255960439
 30
0.0
  0
SPLINE
  5
1FD
330
1F
100
AcDbEntity
  8
FISHER & PAYKEL
 62
   250
420
  1316376
370
     9
100
AcDbSpline
210
0.0
220
0.0
230
1.0
 70
     8
 71
     3
 72
     8
 73
     4
 74
     0
 42
0.000000001
 43
0.0000000001
 40
0.0
 40
0.0
 40
0.0
 40
0.0
 40
1.0
 40
1.0
 40
1.0
 40
1.0
 10
935.3297284430166
 20
-189.0198504504471
 30
0.0
 10
935.1815594022498
 20
-186.8431766848927
 30
0.0
 10
933.9221225557296
 20
-184.8323111316255
 30
0.0
 10
931.4208880342092
 20
-184.8323111316255
 30
0.0
  0
SPLINE
  5
1FE
330
1F
100
AcDbEntity
  8
FISHER & PAYKEL
 62
   250
420
  1316376
370
     9
100
AcDbSpline
210
0.0
220
0.0
230
1.0
 70
     8
 71
     3
 72
     8
 73
     4
 74
     0
 42
0.000000001
 43
0.0000000001
 40
1.0
 40
1.0
 40
1.0
 40
1.0
 40
2.0
 40
2.0
 40
2.0
 40
2.0
 10
931.4208880342092
 20
-184.8323111316255
 30
0.0
 10
929.2618534401747
 20
-184.8323111316255
 30
0.0
 10
927.5967156486972
 20
-186.6279787923503
 30
0.0
 10
927.4026847619784
 20
-189.0198504504471
 30
0.0
  0
LINE
  5
1FF
330
1F
100
AcDbEntity
  8
FISHER & PAYKEL
 62
   250
420
  1316376
370
     9
100
AcDbLine
 10
927.4026847619784
 20
-189.0198504504471
 30
0.0
 11
935.3297284430166
 21
-189.0198504504471
 31
0.0
  0
LINE
  5
200
330
1F
100
AcDbEntity
  8
FISHER & PAYKEL
 62
   250
420
  1316376
370
     9
100
AcDbLine
 10
940.0633765120945
 20
-192.1515089620883
 30
0.0
 11
940.0633765120945
 21
-185.0852568512208
 31
0.0
  0
LINE
  5
201
330
1F
100
AcDbEntity
  8
FISHER & PAYKEL
 62
   250
420
  1316376
370
     9
100
AcDbLine
 10
940.0633765120945
 20
-185.0852568512208
 30
0.0
 11
938.4829067439123
 21
-185.0852568512208
 31
0.0
  0
LINE
  5
202
330
1F
100
AcDbEntity
  8
FISHER & PAYKEL
 62
   250
420
  1316376
370
     9
100
AcDbLine
 10
938.4829067439123
 20
-185.0852568512208
 30
0.0
 11
938.4829067439123
 21
-184.1362694234505
 31
0.0
  0
LINE
  5
203
330
1F
100
AcDbEntity
  8
FISHER & PAYKEL
 62
   250
420
  1316376
370
     9
100
AcDbLine
 10
938.4829067439123
 20
-184.1362694234505
 30
0.0
 11
940.0633765120945
 21
-184.1362694234505
 31
0.0
  0
LINE
  5
204
330
1F
100
AcDbEntity
  8
FISHER & PAYKEL
 62
   250
420
  1316376
370
     9
100
AcDbLine
 10
940.0633765120945
 20
-184.1362694234505
 30
0.0
 11
940.0633765120945
 21
-180.6860474741603
 31
0.0
  0
LINE
  5
205
330
1F
100
AcDbEntity
  8
FISHER & PAYKEL
 62
   250
420
  1316376
370
     9
100
AcDbLine
 10
940.0633765120945
 20
-180.6860474741603
 30
0.0
 11
941.1111433003759
 21
-180.6860474741603
 31
0.0
  0
LINE
  5
206
330
1F
100
AcDbEntity
  8
FISHER & PAYKEL
 62
   250
420
  1316376
370
     9
100
AcDbLine
 10
941.1111433003759
 20
-180.6860474741603
 30
0.0
 11
941.1111433003759
 21
-184.1362694234505
 31
0.0
  0
LINE
  5
207
330
1F
100
AcDbEntity
  8
FISHER & PAYKEL
 62
   250
420
  1316376
370
     9
100
AcDbLine
 10
941.1111433003759
 20
-184.1362694234505
 30
0.0
 11
944.9353156858876
 21
-184.1362694234505
 31
0.0
  0
LINE
  5
208
330
1F
100
AcDbEntity
  8
FISHER & PAYKEL
 62
   250
420
  1316376
370
     9
100
AcDbLine
 10
944.9353156858876
 20
-184.1362694234505
 30
0.0
 11
944.9353156858876
 21
-185.0852568512208
 31
0.0
  0
LINE
  5
209
330
1F
100
AcDbEntity
  8
FISHER & PAYKEL
 62
   250
420
  1316376
370
     9
100
AcDbLine
 10
944.9353156858876
 20
-185.0852568512208
 30
0.0
 11
941.1111433003759
 21
-185.0852568512208
 31
0.0
  0
LINE
  5
20A
330
1F
100
AcDbEntity
  8
FISHER & PAYKEL
 62
   250
420
  1316376
370
     9
100
AcDbLine
 10
941.1111433003759
 20
-185.0852568512208
 30
0.0
 11
941.1111433003759
 21
-192.045673932969
 31
0.0
  0
SPLINE
  5
20B
330
1F
100
AcDbEntity
  8
FISHER & PAYKEL
 62
   250
420
  1316376
370
     9
100
AcDbSpline
210
0.0
220
0.0
230
1.0
 70
     8
 71
     3
 72
     8
 73
     4
 74
     0
 42
0.000000001
 43
0.0000000001
 40
9.830999999999904
 40
9.830999999999904
 40
9.830999999999904
 40
9.830999999999904
 40
10.8309999999999
 40
10.8309999999999
 40
10.8309999999999
 40
10.8309999999999
 10
941.1111433003759
 20
-192.045673932969
 30
0.0
 10
941.1111433003759
 20
-193.5908653581113
 30
0.0
 10
942.031908053714
 20
-194.1376796752278
 30
0.0
 10
943.291344900234
 20
-194.1376796752278
 30
0.0
  0
SPLINE
  5
20C
330
1F
100
AcDbEntity
  8
FISHER & PAYKEL
 62
   250
420
  1316376
370
     9
100
AcDbSpline
210
0.0
220
0.0
230
1.0
 70
     8
 71
     3
 72
     8
 73
     4
 74
     0
 42
0.000000001
 43
0.0000000001
 40
10.8309999999999
 40
10.8309999999999
 40
10.8309999999999
 40
10.8309999999999
 40
11.8309999999999
 40
11.8309999999999
 40
11.8309999999999
 40
11.8309999999999
 10
943.291344900234
 20
-194.1376796752278
 30
0.0
 10
943.8240478801345
 20
-194.1376796752278
 30
0.0
 10
944.2720828367399
 20
-194.0353724804123
 30
0.0
 10
944.89298167424
 20
-193.7602014047021
 30
0.0
  0
LINE
  5
20D
330
1F
100
AcDbEntity
  8
FISHER & PAYKEL
 62
   250
420
  1316376
370
     9
100
AcDbLine
 10
944.89298167424
 20
-193.7602014047021
 30
0.0
 11
944.89298167424
 21
-194.7303558382961
 31
0.0
  0
SPLINE
  5
20E
330
1F
100
AcDbEntity
  8
FISHER & PAYKEL
 62
   250
420
  1316376
370
     9
100
AcDbSpline
210
0.0
220
0.0
230
1.0
 70
     8
 71
     3
 72
     8
 73
     4
 74
     0
 42
0.000000001
 43
0.0000000001
 40
12.10599999999988
 40
12.10599999999988
 40
12.10599999999988
 40
12.10599999999988
 40
13.10599999999988
 40
13.10599999999988
 40
13.10599999999988
 40
13.10599999999988
 10
944.89298167424
 20
-194.7303558382961
 30
0.0
 10
944.3391116885155
 20
-194.9878877424864
 30
0.0
 10
943.8064087086145
 20
-195.1148897774295
 30
0.0
 10
943.1184810193392
 20
-195.1148897774295
 30
0.0
  0
SPLINE
  5
20F
330
1F
100
AcDbEntity
  8
FISHER & PAYKEL
 62
   250
420
  1316376
370
     9
100
AcDbSpline
210
0.0
220
0.0
230
1.0
 70
     8
 71
     3
 72
     8
 73
     4
 74
     0
 42
0.000000001
 43
0.0000000001
 40
13.10599999999988
 40
13.10599999999988
 40
13.10599999999988
 40
13.10599999999988
 40
14.10599999999988
 40
14.10599999999988
 40
14.10599999999988
 40
14.10599999999988
 10
943.1184810193392
 20
-195.1148897774295
 30
0.0
 10
941.4321762220377
 20
-195.1148897774295
 30
0.0
 10
940.0633765120945
 20
-194.2047085270032
 30
0.0
 10
940.0633765120945
 20
-192.1515089620883
 30
0.0
  0
LINE
  5
210
330
1F
100
AcDbEntity
  8
FISHER & PAYKEL
 62
   250
420
  1316376
370
     9
100
AcDbLine
 10
948.0041787469179
 20
-184.1345055062988
 30
0.0
 11
949.0519455351996
 21
-184.1345055062988
 31
0.0
  0
LINE
  5
211
330
1F
100
AcDbEntity
  8
FISHER & PAYKEL
 62
   250
420
  1316376
370
     9
100
AcDbLine
 10
949.0519455351996
 20
-184.1345055062988
 30
0.0
 11
949.0519455351996
 21
-187.2001935164557
 31
0.0
  0
SPLINE
  5
212
330
1F
100
AcDbEntity
  8
FISHER & PAYKEL
 62
   250
420
  1316376
370
     9
100
AcDbSpline
210
0.0
220
0.0
230
1.0
 70
     8
 71
     3
 72
     8
 73
     4
 74
     0
 42
0.000000001
 43
0.0000000001
 40
1.166000000000054
 40
1.166000000000054
 40
1.166000000000054
 40
1.166000000000054
 40
2.166000000000054
 40
2.166000000000054
 40
2.166000000000054
 40
2.166000000000054
 10
949.0519455351996
 20
-187.2001935164557
 30
0.0
 10
949.905681436762
 20
-185.2775238207875
 30
0.0
 10
951.7225161033107
 20
-183.8805014364124
 30
0.0
 10
953.8815506973451
 20
-183.9651694597077
 30
0.0
  0
LINE
  5
213
330
1F
100
AcDbEntity
  8
FISHER & PAYKEL
 62
   250
420
  1316376
370
     9
100
AcDbLine
 10
953.8815506973451
 20
-183.9651694597077
 30
0.0
 11
953.8815506973451
 21
-185.1046599398927
 31
0.0
  0
LINE
  5
214
330
1F
100
AcDbEntity
  8
FISHER & PAYKEL
 62
   250
420
  1316376
370
     9
100
AcDbLine
 10
953.8815506973451
 20
-185.1046599398927
 30
0.0
 11
953.7757156682258
 21
-185.1046599398927
 31
0.0
  0
SPLINE
  5
215
330
1F
100
AcDbEntity
  8
FISHER & PAYKEL
 62
   250
420
  1316376
370
     9
100
AcDbSpline
210
0.0
220
0.0
230
1.0
 70
     8
 71
     3
 72
     8
 73
     4
 74
     0
 42
0.000000001
 43
0.0000000001
 40
2.519000000000005
 40
2.519000000000005
 40
2.519000000000005
 40
2.519000000000005
 40
3.519000000000005
 40
3.519000000000005
 40
3.519000000000005
 40
3.519000000000005
 10
953.7757156682258
 20
-185.1046599398927
 30
0.0
 10
951.2533141408817
 20
-185.1046599398927
 30
0.0
 10
949.0519455351996
 20
-186.9920512925206
 30
0.0
 10
949.0519455351996
 20
-190.5022464249788
 30
0.0
  0
LINE
  5
216
330
1F
100
AcDbEntity
  8
FISHER & PAYKEL
 62
   250
420
  1316376
370
     9
100
AcDbLine
 10
949.0519455351996
 20
-190.5022464249788
 30
0.0
 11
949.0519455351996
 21
-194.926150642167
 31
0.0
  0
LINE
  5
217
330
1F
100
AcDbEntity
  8
FISHER & PAYKEL
 62
   250
420
  1316376
370
     9
100
AcDbLine
 10
949.0519455351996
 20
-194.926150642167
 30
0.0
 11
948.0041787469179
 21
-194.926150642167
 31
0.0
  0
LINE
  5
218
330
1F
100
AcDbEntity
  8
FISHER & PAYKEL
 62
   250
420
  1316376
370
     9
100
AcDbLine
 10
948.0041787469179
 20
-194.926150642167
 30
0.0
 11
948.0041787469179
 21
-184.1345055062988
 31
0.0
  0
LINE
  5
219
330
1F
100
AcDbEntity
  8
FISHER & PAYKEL
 62
   250
420
  1316376
370
     9
100
AcDbLine
 10
955.77493936829
 20
-189.5490255960439
 30
0.0
 11
955.77493936829
 21
-189.5102194187001
 31
0.0
  0
SPLINE
  5
21A
330
1F
100
AcDbEntity
  8
FISHER & PAYKEL
 62
   250
420
  1316376
370
     9
100
AcDbSpline
210
0.0
220
0.0
230
1.0
 70
     8
 71
     3
 72
     8
 73
     4
 74
     0
 42
0.000000001
 43
0.0000000001
 40
2.010999999999967
 40
2.010999999999967
 40
2.010999999999967
 40
2.010999999999967
 40
3.010999999999967
 40
3.010999999999967
 40
3.010999999999967
 40
3.010999999999967
 10
955.77493936829
 20
-189.5102194187001
 30
0.0
 10
955.77493936829
 20
-186.3775025567676
 30
0.0
 10
957.9974749797962
 20
-183.8797958695517
 30
0.0
 10
960.9467444579216
 20
-183.8797958695517
 30
0.0
  0
SPLINE
  5
21B
330
1F
100
AcDbEntity
  8
FISHER & PAYKEL
 62
   250
420
  1316376
370
     9
100
AcDbSpline
210
0.0
220
0.0
230
1.0
 70
     8
 71
     3
 72
     8
 73
     4
 74
     0
 42
0.000000001
 43
0.0000000001
 40
3.010999999999967
 40
3.010999999999967
 40
3.010999999999967
 40
3.010999999999967
 40
4.010999999999967
 40
4.010999999999967
 40
4.010999999999967
 40
4.010999999999967
 10
960.9467444579216
 20
-183.8797958695517
 30
0.0
 10
964.0053767994705
 20
-183.8797958695517
 30
0.0
 10
965.9456856666584
 20
-186.3351685451199
 30
0.0
 10
965.9456856666584
 20
-189.5313864245239
 30
0.0
  0
SPLINE
  5
21C
330
1F
100
AcDbEntity
  8
FISHER & PAYKEL
 62
   250
420
  1316376
370
     9
100
AcDbSpline
210
0.0
220
0.0
230
1.0
 70
     8
 71
     3
 72
     8
 73
     4
 74
     0
 42
0.000000001
 43
0.0000000001
 40
4.010999999999967
 40
4.010999999999967
 40
4.010999999999967
 40
4.010999999999967
 40
5.010999999999967
 40
5.010999999999967
 40
5.010999999999967
 40
5.010999999999967
 10
965.9456856666584
 20
-189.5313864245239
 30
0.0
 10
965.9456856666584
 20
-189.7183616426347
 30
0.0
 10
965.9456856666584
 20
-189.7853904944103
 30
0.0
 10
965.9245186608341
 20
-189.9547265410012
 30
0.0
  0
LINE
  5
21D
330
1F
100
AcDbEntity
  8
FISHER & PAYKEL
 62
   250
420
  1316376
370
     9
100
AcDbLine
 10
965.9245186608341
 20
-189.9547265410012
 30
0.0
 11
956.8862071740432
 21
-189.9547265410012
 31
0.0
  0
SPLINE
  5
21E
330
1F
100
AcDbEntity
  8
FISHER & PAYKEL
 62
   250
420
  1316376
370
     9
100
AcDbSpline
210
0.0
220
0.0
230
1.0
 70
     8
 71
     3
 72
     8
 73
     4
 74
     0
 42
0.000000001
 43
0.0000000001
 40
7.572999999999979
 40
7.572999999999979
 40
7.572999999999979
 40
7.572999999999979
 40
8.572999999999979
 40
8.572999999999979
 40
8.572999999999979
 40
8.572999999999979
 10
956.8862071740432
 20
-189.9547265410012
 30
0.0
 10
957.0802380607618
 20
-192.6358806120246
 30
0.0
 10
959.0205469279499
 20
-194.2057668772946
 30
0.0
 10
961.1619423504642
 20
-194.2057668772946
 30
0.0
  0
SPLINE
  5
21F
330
1F
100
AcDbEntity
  8
FISHER & PAYKEL
 62
   250
420
  1316376
370
     9
100
AcDbSpline
210
0.0
220
0.0
230
1.0
 70
     8
 71
     3
 72
     8
 73
     4
 74
     0
 42
0.000000001
 43
0.0000000001
 40
8.572999999999979
 40
8.572999999999979
 40
8.572999999999979
 40
8.572999999999979
 40
9.572999999999979
 40
9.572999999999979
 40
9.572999999999979
 40
9.572999999999979
 10
961.1619423504642
 20
-194.2057668772946
 30
0.0
 10
962.8482471477655
 20
-194.2057668772946
 30
0.0
 10
964.0053767994705
 20
-193.4649216734593
 30
0.0
 10
964.8979188783767
 20
-192.5124064113853
 30
0.0
  0
LINE
  5
220
330
1F
100
AcDbEntity
  8
FISHER & PAYKEL
 62
   250
420
  1316376
370
     9
100
AcDbLine
 10
964.8979188783767
 20
-192.5124064113853
 30
0.0
 11
965.6246527449962
 21
-193.1474165861015
 31
0.0
  0
SPLINE
  5
221
330
1F
100
AcDbEntity
  8
FISHER & PAYKEL
 62
   250
420
  1316376
370
     9
100
AcDbSpline
210
0.0
220
0.0
230
1.0
 70
     8
 71
     3
 72
     8
 73
     4
 74
     0
 42
0.000000001
 43
0.0000000001
 40
9.84656169322476
 40
9.84656169322476
 40
9.84656169322476
 40
9.84656169322476
 40
10.84656169322476
 40
10.84656169322476
 40
10.84656169322476
 40
10.84656169322476
 10
965.6246527449962
 20
-193.1474165861015
 30
0.0
 10
964.5169127735473
 20
-194.3327689122378
 30
0.0
 10
963.2116140810754
 20
-195.1794491451925
 30
0.0
 10
961.1160805045124
 20
-195.1794491451925
 30
0.0
  0
SPLINE
  5
222
330
1F
100
AcDbEntity
  8
FISHER & PAYKEL
 62
   250
420
  1316376
370
     9
100
AcDbSpline
210
0.0
220
0.0
230
1.0
 70
     8
 71
     3
 72
     8
 73
     4
 74
     0
 42
0.000000001
 43
0.0000000001
 40
10.84656169322476
 40
10.84656169322476
 40
10.84656169322476
 40
10.84656169322476
 40
11.84656169322476
 40
11.84656169322476
 40
11.84656169322476
 40
11.84656169322476
 10
961.1160805045124
 20
-195.1794491451925
 30
0.0
 10
958.2550068839867
 20
-195.1794491451925
 30
0.0
 10
955.77493936829
 20
-192.9145795220387
 30
0.0
 10
955.77493936829
 20
-189.5490255960439
 30
0.0
  0
SPLINE
  5
223
330
1F
100
AcDbEntity
  8
FISHER & PAYKEL
 62
   250
420
  1316376
370
     9
100
AcDbSpline
210
0.0
220
0.0
230
1.0
 70
     8
 71
     3
 72
     8
 73
     4
 74
     0
 42
0.000000001
 43
0.0000000001
 40
0.0
 40
0.0
 40
0.0
 40
0.0
 40
1.0
 40
1.0
 40
1.0
 40
1.0
 10
964.8132508550814
 20
-189.0198504504471
 30
0.0
 10
964.6650818143144
 20
-186.8431766848927
 30
0.0
 10
963.4056449677942
 20
-184.8323111316255
 30
0.0
 10
960.9044104462739
 20
-184.8323111316255
 30
0.0
  0
SPLINE
  5
224
330
1F
100
AcDbEntity
  8
FISHER & PAYKEL
 62
   250
420
  1316376
370
     9
100
AcDbSpline
210
0.0
220
0.0
230
1.0
 70
     8
 71
     3
 72
     8
 73
     4
 74
     0
 42
0.000000001
 43
0.0000000001
 40
1.0
 40
1.0
 40
1.0
 40
1.0
 40
2.0
 40
2.0
 40
2.0
 40
2.0
 10
960.9044104462739
 20
-184.8323111316255
 30
0.0
 10
958.7453758522392
 20
-184.8323111316255
 30
0.0
 10
957.0802380607618
 20
-186.6279787923503
 30
0.0
 10
956.8862071740432
 20
-189.0198504504471
 30
0.0
  0
LINE
  5
225
330
1F
100
AcDbEntity
  8
FISHER & PAYKEL
 62
   250
420
  1316376
370
     9
100
AcDbLine
 10
956.8862071740432
 20
-189.0198504504471
 30
0.0
 11
964.8132508550814
 21
-189.0198504504471
 31
0.0
  0
LINE
  5
226
330
1F
100
AcDbEntity
  8
FISHER & PAYKEL
 62
   250
420
  1316376
370
     9
100
AcDbLine
 10
968.0309885237396
 20
-193.5707567025785
 30
0.0
 11
968.651887361239
 21
-192.7452434754483
 31
0.0
  0
SPLINE
  5
227
330
1F
100
AcDbEntity
  8
FISHER & PAYKEL
 62
   250
420
  1316376
370
     9
100
AcDbSpline
210
0.0
220
0.0
230
1.0
 70
     8
 71
     3
 72
     8
 73
     4
 74
     0
 42
0.000000001
 43
0.0000000001
 40
0.292800273223734
 40
0.292800273223734
 40
0.292800273223734
 40
0.292800273223734
 40
1.292800273223734
 40
1.292800273223734
 40
1.292800273223734
 40
1.292800273223734
 10
968.651887361239
 20
-192.7452434754483
 30
0.0
 10
969.8478231902882
 20
-193.6518968915703
 30
0.0
 10
971.1742888885838
 20
-194.163432865647
 30
0.0
 10
972.5607277700467
 20
-194.163432865647
 30
0.0
  0
SPLINE
  5
228
330
1F
100
AcDbEntity
  8
FISHER & PAYKEL
 62
   250
420
  1316376
370
     9
100
AcDbSpline
210
0.0
220
0.0
230
1.0
 70
     8
 71
     3
 72
     8
 73
     4
 74
     0
 42
0.000000001
 43
0.0000000001
 40
1.292800273223734
 40
1.292800273223734
 40
1.292800273223734
 40
1.292800273223734
 40
2.292800273223734
 40
2.292800273223734
 40
2.292800273223734
 40
2.292800273223734
 10
972.5607277700467
 20
-194.163432865647
 30
0.0
 10
974.0353625091093
 20
-194.163432865647
 30
0.0
 10
975.1889643265104
 20
-193.3555588100361
 30
0.0
 10
975.1889643265104
 20
-192.1102333007319
 30
0.0
  0
LINE
  5
229
330
1F
100
AcDbEntity
  8
FISHER & PAYKEL
 62
   250
420
  1316376
370
     9
100
AcDbLine
 10
975.1889643265104
 20
-192.1102333007319
 30
0.0
 11
975.1889643265104
 21
-192.0678992890843
 31
0.0
  0
SPLINE
  5
22A
330
1F
100
AcDbEntity
  8
FISHER & PAYKEL
 62
   250
420
  1316376
370
     9
100
AcDbSpline
210
0.0
220
0.0
230
1.0
 70
     8
 71
     3
 72
     8
 73
     4
 74
     0
 42
0.000000001
 43
0.0000000001
 40
2.304800273223734
 40
2.304800273223734
 40
2.304800273223734
 40
2.304800273223734
 40
3.304800273223734
 40
3.304800273223734
 40
3.304800273223734
 40
3.304800273223734
 10
975.1889643265104
 20
-192.0678992890843
 30
0.0
 10
975.1889643265104
 20
-190.7978789396522
 30
0.0
 10
973.8236924508708
 20
-190.332204811527
 30
0.0
 10
972.3031958658562
 20
-189.9088646950496
 30
0.0
  0
SPLINE
  5
22B
330
1F
100
AcDbEntity
  8
FISHER & PAYKEL
 62
   250
420
  1316376
370
     9
100
AcDbSpline
210
0.0
220
0.0
230
1.0
 70
     8
 71
     3
 72
     8
 73
     4
 74
     0
 42
0.000000001
 43
0.0000000001
 40
3.304800273223734
 40
3.304800273223734
 40
3.304800273223734
 40
3.304800273223734
 40
4.304800273223734
 40
4.304800273223734
 40
4.304800273223734
 40
4.304800273223734
 10
972.3031958658562
 20
-189.9088646950496
 30
0.0
 10
970.5286952109554
 20
-189.4008565552768
 30
0.0
 10
968.56369150364
 20
-188.8752092439842
 30
0.0
 10
968.56369150364
 20
-186.9490117140123
 30
0.0
  0
LINE
  5
22C
330
1F
100
AcDbEntity
  8
FISHER & PAYKEL
 62
   250
420
  1316376
370
     9
100
AcDbLine
 10
968.56369150364
 20
-186.9490117140123
 30
0.0
 11
968.56369150364
 21
-186.9031498680607
 31
0.0
  0
SPLINE
  5
22D
330
1F
100
AcDbEntity
  8
FISHER & PAYKEL
 62
   250
420
  1316376
370
     9
100
AcDbSpline
210
0.0
220
0.0
230
1.0
 70
     8
 71
     3
 72
     8
 73
     4
 74
     0
 42
0.000000001
 43
0.0000000001
 40
4.317800273223711
 40
4.317800273223711
 40
4.317800273223711
 40
4.317800273223711
 40
5.317800273223711
 40
5.317800273223711
 40
5.317800273223711
 40
5.317800273223711
 10
968.56369150364
 20
-186.9031498680607
 30
0.0
 10
968.56369150364
 20
-185.1709832248076
 30
0.0
 10
970.0383262427029
 20
-183.9221298811993
 30
0.0
 10
972.1550268250892
 20
-183.9221298811993
 30
0.0
  0
SPLINE
  5
22E
330
1F
100
AcDbEntity
  8
FISHER & PAYKEL
 62
   250
420
  1316376
370
     9
100
AcDbSpline
210
0.0
220
0.0
230
1.0
 70
     8
 71
     3
 72
     8
 73
     4
 74
     0
 42
0.000000001
 43
0.0000000001
 40
5.317800273223711
 40
5.317800273223711
 40
5.317800273223711
 40
5.317800273223711
 40
6.317800273223711
 40
6.317800273223711
 40
6.317800273223711
 40
6.317800273223711
 10
972.1550268250892
 20
-183.9221298811993
 30
0.0
 10
973.4567976832573
 20
-183.9221298811993
 30
0.0
 10
974.9314324223199
 20
-184.3878040093242
 30
0.0
 10
976.0250610565533
 20
-185.1074822073357
 30
0.0
  0
LINE
  5
22F
330
1F
100
AcDbEntity
  8
FISHER & PAYKEL
 62
   250
420
  1316376
370
     9
100
AcDbLine
 10
976.0250610565533
 20
-185.1074822073357
 30
0.0
 11
975.464135402221
 21
-185.9753294461142
 31
0.0
  0
SPLINE
  5
230
330
1F
100
AcDbEntity
  8
FISHER & PAYKEL
 62
   250
420
  1316376
370
     9
100
AcDbSpline
210
0.0
220
0.0
230
1.0
 70
     8
 71
     3
 72
     8
 73
     4
 74
     0
 42
0.000000001
 43
0.0000000001
 40
6.610711522580898
 40
6.610711522580898
 40
6.610711522580898
 40
6.610711522580898
 40
7.610711522580898
 40
7.610711522580898
 40
7.610711522580898
 40
7.610711522580898
 10
975.464135402221
 20
-185.9753294461142
 30
0.0
 10
974.4622304598911
 20
-185.3191522655746
 30
0.0
 10
973.2627667965385
 20
-184.8958121490972
 30
0.0
 10
972.1126928134415
 20
-184.8958121490972
 30
0.0
  0
SPLINE
  5
231
330
1F
100
AcDbEntity
  8
FISHER & PAYKEL
 62
   250
420
  1316376
370
     9
100
AcDbSpline
210
0.0
220
0.0
230
1.0
 70
     8
 71
     3
 72
     8
 73
     4
 74
     0
 42
0.000000001
 43
0.0000000001
 40
7.610711522580898
 40
7.610711522580898
 40
7.610711522580898
 40
7.610711522580898
 40
8.610711522580898
 40
8.610711522580898
 40
8.610711522580898
 40
8.610711522580898
 10
972.1126928134415
 20
-184.8958121490972
 30
0.0
 10
970.613363234251
 20
-184.8958121490972
 30
0.0
 10
969.6326252977456
 20
-185.700158370404
 30
0.0
 10
969.6326252977456
 20
-186.7796756674212
 30
0.0
  0
LINE
  5
232
330
1F
100
AcDbEntity
  8
FISHER & PAYKEL
 62
   250
420
  1316376
370
     9
100
AcDbLine
 10
969.6326252977456
 20
-186.7796756674212
 30
0.0
 11
969.6326252977456
 21
-186.8220096790689
 31
0.0
  0
SPLINE
  5
233
330
1F
100
AcDbEntity
  8
FISHER & PAYKEL
 62
   250
420
  1316376
370
     9
100
AcDbSpline
210
0.0
220
0.0
230
1.0
 70
     8
 71
     3
 72
     8
 73
     4
 74
     0
 42
0.000000001
 43
0.0000000001
 40
8.622711522580898
 40
8.622711522580898
 40
8.622711522580898
 40
8.622711522580898
 40
9.622711522580898
 40
9.622711522580898
 40
9.622711522580898
 40
9.622711522580898
 10
969.6326252977456
 20
-186.8220096790689
 30
0.0
 10
969.6326252977456
 20
-188.0285290110295
 30
0.0
 10
971.1072600368082
 20
-188.4730361333308
 30
0.0
 10
972.6665627991665
 20
-188.9175432556318
 30
0.0
  0
SPLINE
  5
234
330
1F
100
AcDbEntity
  8
FISHER & PAYKEL
 62
   250
420
  1316376
370
     9
100
AcDbSpline
210
0.0
220
0.0
230
1.0
 70
     8
 71
     3
 72
     8
 73
     4
 74
     0
 42
0.000000001
 43
0.0000000001
 40
9.622711522580898
 40
9.622711522580898
 40
9.622711522580898
 40
9.622711522580898
 40
10.6227115225809
 40
10.6227115225809
 40
10.6227115225809
 40
10.6227115225809
 10
972.6665627991665
 20
-188.9175432556318
 30
0.0
 10
974.4198964482434
 20
-189.4008565552768
 30
0.0
 10
976.2578981206157
 20
-190.035866729993
 30
0.0
 10
976.2578981206157
 20
-191.9408972541409
 30
0.0
  0
LINE
  5
235
330
1F
100
AcDbEntity
  8
FISHER & PAYKEL
 62
   250
420
  1316376
370
     9
100
AcDbLine
 10
976.2578981206157
 20
-191.9408972541409
 30
0.0
 11
976.2578981206157
 21
-191.9832312657885
 31
0.0
  0
SPLINE
  5
236
330
1F
100
AcDbEntity
  8
FISHER & PAYKEL
 62
   250
420
  1316376
370
     9
100
AcDbSpline
210
0.0
220
0.0
230
1.0
 70
     8
 71
     3
 72
     8
 73
     4
 74
     0
 42
0.000000001
 43
0.0000000001
 40
10.6347115225809
 40
10.6347115225809
 40
10.6347115225809
 40
10.6347115225809
 40
11.6347115225809
 40
11.6347115225809
 40
11.6347115225809
 40
11.6347115225809
 10
976.2578981206157
 20
-191.9832312657885
 30
0.0
 10
976.2578981206157
 20
-193.9094287957606
 30
0.0
 10
974.5892324948343
 20
-195.1335872992407
 30
0.0
 10
972.4972267525757
 20
-195.1335872992407
 30
0.0
  0
SPLINE
  5
237
330
1F
100
AcDbEntity
  8
FISHER & PAYKEL
 62
   250
420
  1316376
370
     9
100
AcDbSpline
210
0.0
220
0.0
230
1.0
 70
     8
 71
     3
 72
     8
 73
     4
 74
     0
 42
0.000000001
 43
0.0000000001
 40
11.6347115225809
 40
11.6347115225809
 40
11.6347115225809
 40
11.6347115225809
 40
12.6347115225809
 40
12.6347115225809
 40
12.6347115225809
 40
12.6347115225809
 10
972.4972267525757
 20
-195.1335872992407
 30
0.0
 10
970.9132295277439
 20
-195.1335872992407
 30
0.0
 10
969.1845911654191
 20
-194.5021052599431
 30
0.0
 10
968.0309885237396
 20
-193.5707567025785
 30
0.0
  0
POLYLINE
  5
238
330
1F
100
AcDbEntity
  8
FISHER & PAYKEL
100
AcDb2dPolyline
 66
     1
 10
0.0
 20
0.0
 30
0.0
  0
VERTEX
  5
239
330
238
100
AcDbEntity
  8
FISHER & PAYKEL
100
AcDbVertex
100
AcDb2dVertex
 10
852.2965212029001
 20
-195.272936754248
 30
0.0
  0
VERTEX
  5
23A
330
238
100
AcDbEntity
  8
FISHER & PAYKEL
100
AcDbVertex
100
AcDb2dVertex
 10
852.2965212029001
 20
-155.272936754248
 30
0.0
  0
SEQEND
  5
23B
330
238
100
AcDbEntity
  8
FISHER & PAYKEL
  0
POLYLINE
  5
23C
330
1F
100
AcDbEntity
  8
FISHER & PAYKEL
100
AcDb2dPolyline
 66
     1
 10
0.0
 20
0.0
 30
0.0
  0
VERTEX
  5
23D
330
23C
100
AcDbEntity
  8
FISHER & PAYKEL
100
AcDbVertex
100
AcDb2dVertex
 10
652.2965212029001
 20
-195.272936754248
 30
0.0
  0
VERTEX
  5
23E
330
23C
100
AcDbEntity
  8
FISHER & PAYKEL
100
AcDbVertex
100
AcDb2dVertex
 10
652.2965212029001
 20
-155.272936754248
 30
0.0
  0
SEQEND
  5
23F
330
23C
100
AcDbEntity
  8
FISHER & PAYKEL
  0
POLYLINE
  5
240
330
1F
100
AcDbEntity
  8
FISHER & PAYKEL
100
AcDb2dPolyline
 66
     1
 10
0.0
 20
0.0
 30
0.0
  0
VERTEX
  5
241
330
240
100
AcDbEntity
  8
FISHER & PAYKEL
100
AcDbVertex
100
AcDb2dVertex
 10
552.2965212029001
 20
-195.272936754248
 30
0.0
  0
VERTEX
  5
242
330
240
100
AcDbEntity
  8
FISHER & PAYKEL
100
AcDbVertex
100
AcDb2dVertex
 10
552.2965212029001
 20
-155.272936754248
 30
0.0
  0
SEQEND
  5
243
330
240
100
AcDbEntity
  8
FISHER & PAYKEL
  0
POLYLINE
  5
244
330
1F
100
AcDbEntity
  8
FISHER & PAYKEL
100
AcDb2dPolyline
 66
     1
 10
0.0
 20
0.0
 30
0.0
  0
VERTEX
  5
245
330
244
100
AcDbEntity
  8
FISHER & PAYKEL
100
AcDbVertex
100
AcDb2dVertex
 10
452.2965212029
 20
-195.272936754248
 30
0.0
  0
VERTEX
  5
246
330
244
100
AcDbEntity
  8
FISHER & PAYKEL
100
AcDbVertex
100
AcDb2dVertex
 10
452.2965212029
 20
-155.272936754248
 30
0.0
  0
SEQEND
  5
247
330
244
100
AcDbEntity
  8
FISHER & PAYKEL
  0
POLYLINE
  5
248
330
1F
100
AcDbEntity
  8
FISHER & PAYKEL
100
AcDb2dPolyline
 66
     1
 10
0.0
 20
0.0
 30
0.0
 70
     1
  0
VERTEX
  5
249
330
248
100
AcDbEntity
  8
FISHER & PAYKEL
100
AcDbVertex
100
AcDb2dVertex
 10
452.2965212029
 20
-195.272936754248
 30
0.0
  0
VERTEX
  5
24A
330
248
100
AcDbEntity
  8
FISHER & PAYKEL
100
AcDbVertex
100
AcDb2dVertex
 10
852.2965212029001
 20
-195.272936754248
 30
0.0
  0
VERTEX
  5
24B
330
248
100
AcDbEntity
  8
FISHER & PAYKEL
100
AcDbVertex
100
AcDb2dVertex
 10
852.2965212029001
 20
-165.272936754248
 30
0.0
  0
VERTEX
  5
24C
330
248
100
AcDbEntity
  8
FISHER & PAYKEL
100
AcDbVertex
100
AcDb2dVertex
 10
452.2965212029
 20
-165.272936754248
 30
0.0
  0
SEQEND
  5
24D
330
248
100
AcDbEntity
  8
FISHER & PAYKEL
  0
POLYLINE
  5
24E
330
1F
100
AcDbEntity
  8
0
 62
     5
420
      255
100
AcDb2dPolyline
 66
     1
 10
0.0
 20
0.0
 30
0.0
  0
VERTEX
  5
24F
330
24E
100
AcDbEntity
  8
0
 62
     5
420
      255
100
AcDbVertex
100
AcDb2dVertex
 10
472.2965212029
 20
296.2670073125
 30
0.0
  0
VERTEX
  5
250
330
24E
100
AcDbEntity
  8
0
 62
     5
420
      255
100
AcDbVertex
100
AcDb2dVertex
 10
452.2965212029
 20
296.2670073125
 30
0.0
  0
SEQEND
  5
251
330
24E
100
AcDbEntity
  8
0
 62
     5
420
      255
  0
POLYLINE
  5
252
330
1F
100
AcDbEntity
  8
0
 62
     5
420
      255
100
AcDb2dPolyline
 66
     1
 10
0.0
 20
0.0
 30
0.0
  0
VERTEX
  5
253
330
252
100
AcDbEntity
  8
0
 62
     5
420
      255
100
AcDbVertex
100
AcDb2dVertex
 10
472.2965212029
 20
296.2670073125
 30
0.0
  0
VERTEX
  5
254
330
252
100
AcDbEntity
  8
0
 62
     5
420
      255
100
AcDbVertex
100
AcDb2dVertex
 10
2302.2965212029
 20
296.2670073125
 30
0.0
  0
VERTEX
  5
255
330
252
100
AcDbEntity
  8
0
 62
     5
420
      255
100
AcDbVertex
100
AcDb2dVertex
 10
2322.2965212029
 20
296.2670073125
 30
0.0
  0
SEQEND
  5
256
330
252
100
AcDbEntity
  8
0
 62
     5
420
      255
  0
SPLINE
  5
257
330
1F
100
AcDbEntity
  8
0
  6
Continuous
 62
    18
420
        0
100
AcDbSpline
210
0.0
220
0.0
230
1.0
 70
     8
 71
     3
 72
    12
 73
     8
 74
     0
 42
0.000000001
 43
0.0000000001
 40
0.0
 40
0.0
 40
0.0
 40
0.0
 40
0.1876901682
 40
0.3709960098
 40
0.6961379372
 40
0.9200383636
 40
1.0
 40
1.0
 40
1.0
 40
1.0
 10
2253.7965212029
 20
223.2670073125
 30
0.0
 10
2253.2134649384
 20
223.8500635769
 30
0.0
 10
2251.840433105
 20
224.7709861716
 30
0.0
 10
2249.092579170499
 20
226.1086916225
 30
0.0
 10
2246.0613870206
 20
227.2119240951
 30
0.0
 10
2243.419641489199
 20
228.0210253246
 30
0.0
 10
2242.1350865306
 20
228.3842197943
 30
0.0
 10
2241.7965212029
 20
228.4781098634
 30
0.0
  0
SPLINE
  5
258
330
1F
100
AcDbEntity
  8
0
  6
Continuous
 62
    18
420
        0
100
AcDbSpline
210
0.0
220
0.0
230
1.0
 70
     8
 71
     3
 72
    12
 73
     8
 74
     0
 42
0.000000001
 43
0.0000000001
 40
0.0
 40
0.0
 40
0.0
 40
0.0
 40
0.0799676798
 40
0.303876115
 40
0.6290130039
 40
0.8123121504
 40
1.0
 40
1.0
 40
1.0
 40
1.0
 10
2265.7965212029
 20
228.4781098634
 30
0.0
 10
2265.4579300952
 20
228.3842132617
 30
0.0
 10
2264.1733156685
 20
228.0210020624
 30
0.0
 10
2261.5315354001
 20
227.2118789618
 30
0.0
 10
2258.5003581395
 20
226.108652532
 30
0.0
 10
2255.7525665682
 20
224.770959093
 30
0.0
 10
2254.379570288
 20
223.8500563976
 30
0.0
 10
2253.7965212029
 20
223.2670073125
 30
0.0
  0
ARC
  5
259
330
1F
100
AcDbEntity
  8
0
  6
Continuous
 62
    18
420
        0
100
AcDbCircle
 10
2213.7965212029
 20
221.2670073125
 30
0.0
 40
13.0
100
AcDbArc
 50
270.0
 51
90.0
  0
ARC
  5
25A
330
1F
100
AcDbEntity
  8
0
  6
Continuous
 62
    18
420
        0
100
AcDbCircle
 10
1933.7965212029
 20
221.2670073125
 30
0.0
 40
13.0
100
AcDbArc
 50
90.0
 51
270.0
  0
ARC
  5
25B
330
1F
100
AcDbEntity
  8
0
  6
Continuous
 62
    18
420
        0
100
AcDbCircle
 10
2253.7965212029
 20
221.2670073125
 30
0.0
 40
14.0
100
AcDbArc
 50
148.9972808661003
 51
31.00271913390094
  0
LINE
  5
25C
330
1F
100
AcDbEntity
  8
0
  6
Continuous
 62
     1
420
 16711680
100
AcDbLine
 10
2312.2965212029
 20
1058.2670073125
 30
0.0
 11
1783.2965212029
 21
1058.2670073125
 31
0.0
  0
LINE
  5
25D
330
1F
100
AcDbEntity
  8
0
  6
Continuous
 62
     1
420
 16711680
100
AcDbLine
 10
2312.2965212029
 20
1006.2670073125
 30
0.0
 11
1783.2965212029
 21
1006.2670073125
 31
0.0
  0
LINE
  5
25E
330
1F
100
AcDbEntity
  8
0
  6
Continuous
 62
     1
420
 16711680
100
AcDbLine
 10
2312.2965212029
 20
946.2670073125
 30
0.0
 11
1783.2965212029
 21
946.2670073125
 31
0.0
  0
LINE
  5
25F
330
1F
100
AcDbEntity
  8
0
  6
Continuous
 62
     1
420
 16711680
100
AcDbLine
 10
2312.2965212029
 20
296.2670073125
 30
0.0
 11
2312.2965212029
 21
1058.2670073125
 31
0.0
  0
LINE
  5
260
330
1F
100
AcDbEntity
  8
0
  6
Continuous
 62
    18
420
        0
100
AcDbLine
 10
2302.2965212029
 20
296.2670073125
 30
0.0
 11
2302.2965212029
 21
292.2670073125
 31
0.0
  0
LINE
  5
261
330
1F
100
AcDbEntity
  8
0
  6
Continuous
 62
    18
420
        0
100
AcDbLine
 10
2295.2965212029
 20
292.2670073125
 30
0.0
 11
2295.2965212029
 21
290.7670073125
 31
0.0
  0
LINE
  5
262
330
1F
100
AcDbEntity
  8
0
  6
Continuous
 62
    18
420
        0
100
AcDbLine
 10
2289.7965212029
 20
234.7670073125
 30
0.0
 11
2289.7965212029
 21
290.7670073125
 31
0.0
  0
LINE
  5
263
330
1F
100
AcDbEntity
  8
0
  6
Continuous
 62
    18
420
        0
100
AcDbLine
 10
2275.7965212029
 20
225.7670073125
 30
0.0
 11
2275.7965212029
 21
215.7670073125
 31
0.0
  0
LINE
  5
264
330
1F
100
AcDbEntity
  8
0
  6
Continuous
 62
    18
420
        0
100
AcDbLine
 10
2273.7965212029
 20
215.7670073125
 30
0.0
 11
2273.7965212029
 21
212.7670073125
 31
0.0
  0
LINE
  5
265
330
1F
100
AcDbEntity
  8
0
  6
Continuous
 62
    18
420
        0
100
AcDbLine
 10
2270.2965212029
 20
215.7670073125
 30
0.0
 11
2270.2965212029
 21
212.7670073125
 31
0.0
  0
LINE
  5
266
330
1F
100
AcDbEntity
  8
0
  6
Continuous
 62
    18
420
        0
100
AcDbLine
 10
2266.7965212029
 20
215.7670073125
 30
0.0
 11
2266.7965212029
 21
212.7670073125
 31
0.0
  0
LINE
  5
267
330
1F
100
AcDbEntity
  8
0
  6
Continuous
 62
    18
420
        0
100
AcDbLine
 10
2265.7965212029
 20
234.7670073125
 30
0.0
 11
2265.7965212029
 21
228.4781098634
 31
0.0
  0
LINE
  5
268
330
1F
100
AcDbEntity
  8
0
  6
Continuous
 62
    18
420
        0
100
AcDbLine
 10
2241.7965212029
 20
234.7670073125
 30
0.0
 11
2241.7965212029
 21
228.4781098634
 31
0.0
  0
LINE
  5
269
330
1F
100
AcDbEntity
  8
0
  6
Continuous
 62
    18
420
        0
100
AcDbLine
 10
2240.7965212029
 20
215.7670073125
 30
0.0
 11
2240.7965212029
 21
212.7670073125
 31
0.0
  0
LINE
  5
26A
330
1F
100
AcDbEntity
  8
0
  6
Continuous
 62
    18
420
        0
100
AcDbLine
 10
2237.2965212029
 20
215.7670073125
 30
0.0
 11
2237.2965212029
 21
212.7670073125
 31
0.0
  0
LINE
  5
26B
330
1F
100
AcDbEntity
  8
0
  6
Continuous
 62
    18
420
        0
100
AcDbLine
 10
2233.7965212029
 20
215.7670073125
 30
0.0
 11
2233.7965212029
 21
212.7670073125
 31
0.0
  0
LINE
  5
26C
330
1F
100
AcDbEntity
  8
0
  6
Continuous
 62
    18
420
        0
100
AcDbLine
 10
2231.7965212029
 20
225.7670073125
 30
0.0
 11
2231.7965212029
 21
215.7670073125
 31
0.0
  0
LINE
  5
26D
330
1F
100
AcDbEntity
  8
0
  6
Continuous
 62
    18
420
        0
100
AcDbLine
 10
2206.4965212029
 20
234.7670073125
 30
0.0
 11
2206.4965212029
 21
233.7670073125
 31
0.0
  0
LINE
  5
26E
330
1F
100
AcDbEntity
  8
0
  6
Continuous
 62
     1
420
 16711680
100
AcDbLine
 10
2312.2965212029
 20
746.2670073125
 30
0.0
 11
1783.2965212029
 21
746.2670073125
 31
0.0
  0
LINE
  5
26F
330
1F
100
AcDbEntity
  8
0
  6
Continuous
 62
    18
420
        0
100
AcDbLine
 10
2196.4965212029
 20
234.7670073125
 30
0.0
 11
2196.4965212029
 21
233.7670073125
 31
0.0
  0
LINE
  5
270
330
1F
100
AcDbEntity
  8
0
  6
Continuous
 62
    18
420
        0
100
AcDbLine
 10
2168.4965212029
 20
234.7670073125
 30
0.0
 11
2168.4965212029
 21
233.7670073125
 31
0.0
  0
LINE
  5
271
330
1F
100
AcDbEntity
  8
0
  6
Continuous
 62
    18
420
        0
100
AcDbLine
 10
2164.3465212029
 20
234.7670073125
 30
0.0
 11
2164.3465212029
 21
233.7670073125
 31
0.0
  0
LINE
  5
272
330
1F
100
AcDbEntity
  8
0
  6
Continuous
 62
    18
420
        0
100
AcDbLine
 10
2152.6465212029
 20
234.7670073125
 30
0.0
 11
2152.6465212029
 21
233.7670073125
 31
0.0
  0
LINE
  5
273
330
1F
100
AcDbEntity
  8
0
  6
Continuous
 62
    18
420
        0
100
AcDbLine
 10
1822.7965212029
 20
254.7670073125
 30
0.0
 11
1822.7965212029
 21
234.7670073125
 31
0.0
  0
LINE
  5
274
330
1F
100
AcDbEntity
  8
0
  6
Continuous
 62
    18
420
        0
100
AcDbLine
 10
1801.7965212029
 20
242.7670073125
 30
0.0
 11
1801.7965212029
 21
254.7670073125
 31
0.0
  0
LINE
  5
275
330
1F
100
AcDbEntity
  8
0
  6
Continuous
 62
    18
420
        0
100
AcDbLine
 10
1785.7965212029
 20
290.7670073125
 30
0.0
 11
1785.7965212029
 21
254.7670073125
 31
0.0
  0
LINE
  5
276
330
1F
100
AcDbEntity
  8
0
  6
Continuous
 62
    18
420
        0
100
AcDbLine
 10
1778.2965212029
 20
292.2670073125
 30
0.0
 11
1778.2965212029
 21
290.7670073125
 31
0.0
  0
LINE
  5
277
330
1F
100
AcDbEntity
  8
0
  6
Continuous
 62
    18
420
        0
100
AcDbLine
 10
1772.2965212029
 20
296.2670073125
 30
0.0
 11
1772.2965212029
 21
292.2670073125
 31
0.0
  0
LINE
  5
278
330
1F
100
AcDbEntity
  8
0
  6
Continuous
 62
    18
420
        0
100
AcDbLine
 10
1772.2965212029
 20
296.2670073125
 30
0.0
 11
2302.2965212029
 21
296.2670073125
 31
0.0
  0
LINE
  5
279
330
1F
100
AcDbEntity
  8
0
  6
Continuous
 62
    18
420
        0
100
AcDbLine
 10
1772.2965212029
 20
292.2670073125
 30
0.0
 11
2302.2965212029
 21
292.2670073125
 31
0.0
  0
LINE
  5
27A
330
1F
100
AcDbEntity
  8
0
  6
Continuous
 62
    18
420
        0
100
AcDbLine
 10
2295.2965212029
 20
290.7670073125
 30
0.0
 11
1778.2965212029
 21
290.7670073125
 31
0.0
  0
LINE
  5
27B
330
1F
100
AcDbEntity
  8
0
  6
Continuous
 62
    18
420
        0
100
AcDbLine
 10
1785.7965212029
 20
254.7670073125
 30
0.0
 11
1822.7965212029
 21
254.7670073125
 31
0.0
  0
LINE
  5
27C
330
1F
100
AcDbEntity
  8
0
  6
Continuous
 62
    18
420
        0
100
AcDbLine
 10
1822.7965212029
 20
242.7670073125
 30
0.0
 11
1801.7965212029
 21
242.7670073125
 31
0.0
  0
LINE
  5
27D
330
1F
100
AcDbEntity
  8
0
  6
Continuous
 62
    18
420
        0
100
AcDbLine
 10
1822.7965212029
 20
234.7670073125
 30
0.0
 11
2289.7965212029
 21
234.7670073125
 31
0.0
  0
LINE
  5
27E
330
1F
100
AcDbEntity
  8
0
  6
Continuous
 62
    18
420
        0
100
AcDbLine
 10
2206.4965212029
 20
234.2670073125
 30
0.0
 11
2241.7965212029
 21
234.2670073125
 31
0.0
  0
LINE
  5
27F
330
1F
100
AcDbEntity
  8
0
  6
Continuous
 62
    18
420
        0
100
AcDbLine
 10
2152.6465212029
 20
234.2670073125
 30
0.0
 11
1933.7965212029
 21
234.2670073125
 31
0.0
  0
LINE
  5
280
330
1F
100
AcDbEntity
  8
0
  6
Continuous
 62
    18
420
        0
100
AcDbLine
 10
2196.4965212029
 20
234.2670073125
 30
0.0
 11
2168.4965212029
 21
234.2670073125
 31
0.0
  0
LINE
  5
281
330
1F
100
AcDbEntity
  8
0
  6
Continuous
 62
    18
420
        0
100
AcDbLine
 10
2168.4965212029
 20
233.7670073125
 30
0.0
 11
2152.6465212029
 21
233.7670073125
 31
0.0
  0
LINE
  5
282
330
1F
100
AcDbEntity
  8
0
  6
Continuous
 62
    18
420
        0
100
AcDbLine
 10
2206.4965212029
 20
233.7670073125
 30
0.0
 11
2196.4965212029
 21
233.7670073125
 31
0.0
  0
LINE
  5
283
330
1F
100
AcDbEntity
  8
0
  6
Continuous
 62
    18
420
        0
100
AcDbLine
 10
2240.5394476193
 20
225.7670073125
 30
0.0
 11
2231.7965212029
 21
225.7670073125
 31
0.0
  0
LINE
  5
284
330
1F
100
AcDbEntity
  8
0
  6
Continuous
 62
    18
420
        0
100
AcDbLine
 10
2275.7965212029
 20
225.7670073125
 30
0.0
 11
2267.0535947864
 21
225.7670073125
 31
0.0
  0
LINE
  5
285
330
1F
100
AcDbEntity
  8
0
  6
Continuous
 62
    18
420
        0
100
AcDbLine
 10
2240.9221280133
 20
215.7670073125
 30
0.0
 11
2231.7965212029
 21
215.7670073125
 31
0.0
  0
LINE
  5
286
330
1F
100
AcDbEntity
  8
0
  6
Continuous
 62
    18
420
        0
100
AcDbLine
 10
2275.7965212029
 20
215.7670073125
 30
0.0
 11
2266.670914392399
 21
215.7670073125
 31
0.0
  0
LINE
  5
287
330
1F
100
AcDbEntity
  8
0
  6
Continuous
 62
    18
420
        0
100
AcDbLine
 10
2240.7965212029
 20
212.7670073125
 30
0.0
 11
2233.7965212029
 21
212.7670073125
 31
0.0
  0
LINE
  5
288
330
1F
100
AcDbEntity
  8
0
  6
Continuous
 62
    18
420
        0
100
AcDbLine
 10
2273.7965212029
 20
212.7670073125
 30
0.0
 11
2266.7965212029
 21
212.7670073125
 31
0.0
  0
LINE
  5
289
330
1F
100
AcDbEntity
  8
0
  6
Continuous
 62
    18
420
        0
100
AcDbLine
 10
1933.7965212029
 20
208.2670073125
 30
0.0
 11
2248.6040150997
 21
208.2670073125
 31
0.0
  0
LINE
  5
28A
330
1F
100
AcDbEntity
  8
0
  6
Continuous
 62
     1
420
 16711680
100
AcDbLine
 10
1782.7965212029
 20
205.7670073125
 30
0.0
 11
2291.7965212029
 21
205.7670073125
 31
0.0
  0
LINE
  5
28B
330
1F
100
AcDbEntity
  8
0
  6
Continuous
 62
     1
420
 16711680
100
AcDbLine
 10
462.2965212029
 20
898.4548040424789
 30
0.0
 11
462.2965212029
 21
1438.454804042479
 31
0.0
  0
LINE
  5
28C
330
1F
100
AcDbEntity
  8
0
  6
Continuous
 62
     3
420
    65280
100
AcDbLine
 10
470.2965212029
 20
900.4548040424789
 30
0.0
 11
470.2965212029
 21
1426.454804042479
 31
0.0
  0
LINE
  5
28D
330
1F
100
AcDbEntity
  8
0
  6
Continuous
 62
    18
420
        0
100
AcDbLine
 10
472.2965212029
 20
1426.454804042479
 30
0.0
 11
472.2965212029
 21
900.4548040424789
 31
0.0
  0
LINE
  5
28E
330
1F
100
AcDbEntity
  8
0
  6
Continuous
 62
     3
420
    65280
100
AcDbLine
 10
491.2965212029
 20
1417.954804042479
 30
0.0
 11
491.2965212029
 21
908.9548040424789
 31
0.0
  0
LINE
  5
28F
330
1F
100
AcDbEntity
  8
0
  6
Continuous
 62
     3
420
    65280
100
AcDbLine
 10
1230.2965212029
 20
896.4548040424789
 30
0.0
 11
474.2965212029
 21
896.4548040424789
 31
0.0
  0
LINE
  5
290
330
1F
100
AcDbEntity
  8
0
  6
Continuous
 62
    18
420
        0
100
AcDbLine
 10
474.2965212029
 20
898.4548040424789
 30
0.0
 11
1230.2965212029
 21
898.4548040424789
 31
0.0
  0
LINE
  5
291
330
1F
100
AcDbEntity
  8
0
  6
Continuous
 62
     3
420
    65280
100
AcDbLine
 10
491.2965212029
 20
908.9548040424789
 30
0.0
 11
1213.2965212029
 21
908.9548040424789
 31
0.0
  0
LINE
  5
292
330
1F
100
AcDbEntity
  8
0
  6
Continuous
 62
    18
420
        0
100
AcDbLine
 10
785.2965212029
 20
924.4548040424789
 30
0.0
 11
919.2965212029
 21
924.4548040424789
 31
0.0
  0
LINE
  5
293
330
1F
100
AcDbEntity
  8
0
  6
Continuous
 62
    18
420
        0
100
AcDbLine
 10
919.2965212029
 20
986.4548040424789
 30
0.0
 11
785.2965212029
 21
986.4548040424789
 31
0.0
  0
LINE
  5
294
330
1F
100
AcDbEntity
  8
0
  6
Continuous
 62
    18
420
        0
100
AcDbLine
 10
952.2965212029
 20
1023.454804042479
 30
0.0
 11
1182.2965212029
 21
1023.454804042479
 31
0.0
  0
LINE
  5
295
330
1F
100
AcDbEntity
  8
0
  6
Continuous
 62
    18
420
        0
100
AcDbLine
 10
1182.2965212029
 20
1025.954728042479
 30
0.0
 11
952.2965212029
 21
1025.954728042479
 31
0.0
  0
LINE
  5
296
330
1F
100
AcDbEntity
  8
0
  6
Continuous
 62
    18
420
        0
100
AcDbLine
 10
785.2965212029
 20
986.4548040424789
 30
0.0
 11
785.2965212029
 21
924.4548040424789
 31
0.0
  0
LINE
  5
297
330
1F
100
AcDbEntity
  8
0
  6
Continuous
 62
    18
420
        0
100
AcDbLine
 10
919.2965212029
 20
924.4548040424789
 30
0.0
 11
919.2965212029
 21
986.4548040424789
 31
0.0
  0
LINE
  5
298
330
1F
100
AcDbEntity
  8
0
  6
Continuous
 62
    18
420
        0
100
AcDbLine
 10
952.2965212029
 20
1403.954804042479
 30
0.0
 11
952.2965212029
 21
1401.454804042479
 31
0.0
  0
LINE
  5
299
330
1F
100
AcDbEntity
  8
0
  6
Continuous
 62
    18
420
        0
100
AcDbLine
 10
952.2965212029
 20
1214.954728042479
 30
0.0
 11
952.2965212029
 21
1212.454804042479
 31
0.0
  0
LINE
  5
29A
330
1F
100
AcDbEntity
  8
0
  6
Continuous
 62
    18
420
        0
100
AcDbLine
 10
952.2965212029
 20
1025.954728042479
 30
0.0
 11
952.2965212029
 21
1023.454804042479
 31
0.0
  0
LINE
  5
29B
330
1F
100
AcDbEntity
  8
0
  6
Continuous
 62
    18
420
        0
100
AcDbLine
 10
952.2965212029
 20
1212.454804042479
 30
0.0
 11
1182.2965212029
 21
1212.454804042479
 31
0.0
  0
LINE
  5
29C
330
1F
100
AcDbEntity
  8
0
  6
Continuous
 62
    18
420
        0
100
AcDbLine
 10
1182.2965212029
 20
1214.954728042479
 30
0.0
 11
952.2965212029
 21
1214.954728042479
 31
0.0
  0
LINE
  5
29D
330
1F
100
AcDbEntity
  8
0
  6
Continuous
 62
    18
420
        0
100
AcDbLine
 10
952.2965212029
 20
1401.454804042479
 30
0.0
 11
1182.2965212029
 21
1401.454804042479
 31
0.0
  0
LINE
  5
29E
330
1F
100
AcDbEntity
  8
0
  6
Continuous
 62
    18
420
        0
100
AcDbLine
 10
1182.2965212029
 20
1403.954804042479
 30
0.0
 11
952.2965212029
 21
1403.954804042479
 31
0.0
  0
LINE
  5
29F
330
1F
100
AcDbEntity
  8
0
  6
Continuous
 62
     3
420
    65280
100
AcDbLine
 10
1213.2965212029
 20
1417.954804042479
 30
0.0
 11
491.2965212029
 21
1417.954804042479
 31
0.0
  0
LINE
  5
2A0
330
1F
100
AcDbEntity
  8
0
  6
Continuous
 62
    18
420
        0
100
AcDbLine
 10
1182.2965212029
 20
1023.454804042479
 30
0.0
 11
1182.2965212029
 21
1025.954728042479
 31
0.0
  0
LINE
  5
2A1
330
1F
100
AcDbEntity
  8
0
  6
Continuous
 62
    18
420
        0
100
AcDbLine
 10
1182.2965212029
 20
1212.454804042479
 30
0.0
 11
1182.2965212029
 21
1214.954728042479
 31
0.0
  0
LINE
  5
2A2
330
1F
100
AcDbEntity
  8
0
  6
Continuous
 62
    18
420
        0
100
AcDbLine
 10
1182.2965212029
 20
1401.454804042479
 30
0.0
 11
1182.2965212029
 21
1403.954804042479
 31
0.0
  0
LINE
  5
2A3
330
1F
100
AcDbEntity
  8
0
  6
Continuous
 62
    18
420
        0
100
AcDbLine
 10
1230.2965212029
 20
1428.454804042479
 30
0.0
 11
474.2965212029
 21
1428.454804042479
 31
0.0
  0
LINE
  5
2A4
330
1F
100
AcDbEntity
  8
0
  6
Continuous
 62
     3
420
    65280
100
AcDbLine
 10
474.2965212029
 20
1430.454804042479
 30
0.0
 11
1230.2965212029
 21
1430.454804042479
 31
0.0
  0
LINE
  5
2A5
330
1F
100
AcDbEntity
  8
0
  6
Continuous
 62
     1
420
 16711680
100
AcDbLine
 10
462.2965212029
 20
1438.454804042479
 30
0.0
 11
1242.2965212029
 21
1438.454804042479
 31
0.0
  0
LINE
  5
2A6
330
1F
100
AcDbEntity
  8
0
  6
Continuous
 62
    18
420
        0
100
AcDbLine
 10
1232.2965212029
 20
900.4548040424789
 30
0.0
 11
1232.2965212029
 21
1426.454804042479
 31
0.0
  0
LINE
  5
2A7
330
1F
100
AcDbEntity
  8
0
  6
Continuous
 62
     3
420
    65280
100
AcDbLine
 10
1234.2965212029
 20
1426.454804042479
 30
0.0
 11
1234.2965212029
 21
900.4548040424789
 31
0.0
  0
CIRCLE
  5
2A8
330
1F
100
AcDbEntity
  8
0
  6
Continuous
 62
    18
420
        0
100
AcDbCircle
 10
652.2965212029
 20
1156.454804042479
 30
0.0
 40
140.0
  0
CIRCLE
  5
2A9
330
1F
100
AcDbEntity
  8
0
  6
Continuous
 62
    18
420
        0
100
AcDbCircle
 10
652.2965212029
 20
1156.454804042479
 30
0.0
 40
137.5
  0
CIRCLE
  5
2AA
330
1F
100
AcDbEntity
  8
0
  6
Continuous
 62
    18
420
        0
100
AcDbCircle
 10
837.7965212029
 20
1311.454804042479
 30
0.0
 40
85.0
  0
CIRCLE
  5
2AB
330
1F
100
AcDbEntity
  8
0
  6
Continuous
 62
    18
420
        0
100
AcDbCircle
 10
837.7965212029
 20
1311.454804042479
 30
0.0
 40
82.5
  0
ARC
  5
2AC
330
1F
100
AcDbEntity
  8
0
  6
Continuous
 62
     3
420
    65280
100
AcDbCircle
 10
474.2965212029
 20
1426.454804042479
 30
0.0
 40
4.0
100
AcDbArc
 50
90.0
 51
180.0
  0
ARC
  5
2AD
330
1F
100
AcDbEntity
  8
0
  6
Continuous
 62
     3
420
    65280
100
AcDbCircle
 10
474.2965212029
 20
900.4548040424789
 30
0.0
 40
4.0
100
AcDbArc
 50
180.0
 51
270.0
  0
ARC
  5
2AE
330
1F
100
AcDbEntity
  8
0
  6
Continuous
 62
     3
420
    65280
100
AcDbCircle
 10
1230.2965212029
 20
900.4548040424789
 30
0.0
 40
4.0
100
AcDbArc
 50
270.0
 51
0.0
  0
ARC
  5
2AF
330
1F
100
AcDbEntity
  8
0
  6
Continuous
 62
     3
420
    65280
100
AcDbCircle
 10
1230.2965212029
 20
1426.454804042479
 30
0.0
 40
4.0
100
AcDbArc
 50
0.0
 51
90.0
  0
ARC
  5
2B0
330
1F
100
AcDbEntity
  8
0
  6
Continuous
 62
    18
420
        0
100
AcDbCircle
 10
474.2965212029
 20
1426.454804042479
 30
0.0
 40
2.0
100
AcDbArc
 50
90.0
 51
180.0
  0
ARC
  5
2B1
330
1F
100
AcDbEntity
  8
0
  6
Continuous
 62
    18
420
        0
100
AcDbCircle
 10
1230.2965212029
 20
1426.454804042479
 30
0.0
 40
2.0
100
AcDbArc
 50
0.0
 51
90.0
  0
ARC
  5
2B2
330
1F
100
AcDbEntity
  8
0
  6
Continuous
 62
    18
420
        0
100
AcDbCircle
 10
1230.2965212029
 20
900.4548040424789
 30
0.0
 40
2.0
100
AcDbArc
 50
270.0
 51
0.0
  0
ARC
  5
2B3
330
1F
100
AcDbEntity
  8
0
  6
Continuous
 62
    18
420
        0
100
AcDbCircle
 10
474.2965212029
 20
900.4548040424789
 30
0.0
 40
2.0
100
AcDbArc
 50
180.0
 51
270.0
  0
LINE
  5
2B4
330
1F
100
AcDbEntity
  8
0
  6
Continuous
 62
     1
420
 16711680
100
AcDbLine
 10
1242.2965212029
 20
1438.454804042479
 30
0.0
 11
1242.2965212029
 21
898.4548040424789
 31
0.0
  0
LINE
  5
2B5
330
1F
100
AcDbEntity
  8
0
  6
Continuous
 62
     3
420
    65280
100
AcDbLine
 10
1213.2965212029
 20
908.9548040424789
 30
0.0
 11
1213.2965212029
 21
1417.954804042479
 31
0.0
  0
SPLINE
  5
2B6
330
1F
100
AcDbEntity
  8
0
  6
Continuous
 62
    18
420
        0
100
AcDbSpline
210
0.0
220
0.0
230
1.0
 70
     8
 71
     3
 72
    14
 73
    10
 74
     0
 42
0.000000001
 43
0.0000000001
 40
0.0
 40
0.0
 40
0.0
 40
0.0
 40
0.1013696081
 40
0.1857081406
 40
0.2769607511
 40
0.3866565283
 40
0.5173512991
 40
0.666743263
 40
1.0
 40
1.0
 40
1.0
 40
1.0
 10
1192.2965212029
 20
223.2670073125
 30
0.0
 10
1192.2965212029
 20
223.7573889978
 30
0.0
 10
1192.2491413488
 20
224.6732179572
 30
0.0
 10
1191.6009101366
 20
225.8960219797
 30
0.0
 10
1190.4859292138
 20
226.7556027395
 30
0.0
 10
1189.0074638653
 20
227.3970828916
 30
0.0
 10
1187.1803634103
 20
227.8830743062
 30
0.0
 10
1184.2488508438
 20
228.3576639053
 30
0.0
 10
1181.9086710712
 20
228.4781098634
 30
0.0
 10
1180.2965212029
 20
228.4781098634
 30
0.0
  0
SPLINE
  5
2B7
330
1F
100
AcDbEntity
  8
0
  6
Continuous
 62
    18
420
        0
100
AcDbSpline
210
0.0
220
0.0
230
1.0
 70
     8
 71
     3
 72
    12
 73
     8
 74
     0
 42
0.000000001
 43
0.0000000001
 40
0.0
 40
0.0
 40
0.0
 40
0.0
 40
0.1540569317
 40
0.3046743786
 40
0.4496319767
 40
0.5870661607
 40
1.0
 40
1.0
 40
1.0
 40
1.0
 10
1180.2965212029
 20
228.4781098634
 30
0.0
 10
1179.6153988111
 20
228.4781098634
 30
0.0
 10
1178.2637453389
 20
228.6788364591
 30
0.0
 10
1176.4062061903
 20
229.4123451466
 30
0.0
 10
1174.7316888531
 20
230.3467697314
 30
0.0
 10
1172.17207799
 20
232.0524691539
 30
0.0
 10
1170.2780348906
 20
233.5883481322
 30
0.0
 10
1168.8838089924
 20
234.7670073125
 30
0.0
  0
ARC
  5
2B8
330
1F
100
AcDbEntity
  8
0
  6
Continuous
 62
    18
420
        0
100
AcDbCircle
 10
1180.2965212029
 20
219.2670073125
 30
0.0
 40
12.0
100
AcDbArc
 50
270.0
 51
0.0
  0
ARC
  5
2B9
330
1F
100
AcDbEntity
  8
0
  6
Continuous
 62
    18
420
        0
100
AcDbCircle
 10
1105.2965212029
 20
221.2670073125
 30
0.0
 40
13.0
100
AcDbArc
 50
270.0
 51
90.0
  0
ARC
  5
2BA
330
1F
100
AcDbEntity
  8
0
  6
Continuous
 62
    18
420
        0
100
AcDbCircle
 10
805.2965212029
 20
221.2670073125
 30
0.0
 40
13.0
100
AcDbArc
 50
90.0
 51
270.0
  0
LINE
  5
2BB
330
1F
100
AcDbEntity
  8
0
  6
Continuous
 62
    18
420
        0
100
AcDbLine
 10
1232.2965212029
 20
296.2670073125
 30
0.0
 11
1232.2965212029
 21
292.2670073125
 31
0.0
  0
LINE
  5
2BC
330
1F
100
AcDbEntity
  8
0
  6
Continuous
 62
    18
420
        0
100
AcDbLine
 10
1219.2965212029
 20
292.2670073125
 30
0.0
 11
1219.2965212029
 21
290.7670073125
 31
0.0
  0
LINE
  5
2BD
330
1F
100
AcDbEntity
  8
0
  6
Continuous
 62
    18
420
        0
100
AcDbLine
 10
1209.2965212029
 20
290.7670073125
 30
0.0
 11
1209.2965212029
 21
234.7670073125
 31
0.0
  0
LINE
  5
2BE
330
1F
100
AcDbEntity
  8
0
  6
Continuous
 62
    18
420
        0
100
AcDbLine
 10
1192.2965212029
 20
219.2670073125
 30
0.0
 11
1192.2965212029
 21
234.7670073125
 31
0.0
  0
LINE
  5
2BF
330
1F
100
AcDbEntity
  8
0
  6
Continuous
 62
    18
420
        0
100
AcDbLine
 10
1186.3465212029
 20
234.7670073125
 30
0.0
 11
1186.3465212029
 21
233.7670073125
 31
0.0
  0
LINE
  5
2C0
330
1F
100
AcDbEntity
  8
0
  6
Continuous
 62
    18
420
        0
100
AcDbLine
 10
1183.2965212029
 20
242.7670073125
 30
0.0
 11
1183.2965212029
 21
254.7670073125
 31
0.0
  0
LINE
  5
2C1
330
1F
100
AcDbEntity
  8
0
  6
Continuous
 62
    18
420
        0
100
AcDbLine
 10
1174.6465212029
 20
234.7670073125
 30
0.0
 11
1174.6465212029
 21
233.7670073125
 31
0.0
  0
LINE
  5
2C2
330
1F
100
AcDbEntity
  8
0
  6
Continuous
 62
    18
420
        0
100
AcDbLine
 10
1164.2965212029
 20
254.7670073125
 30
0.0
 11
1164.2965212029
 21
242.7670073125
 31
0.0
  0
LINE
  5
2C3
330
1F
100
AcDbEntity
  8
0
  6
Continuous
 62
    18
420
        0
100
AcDbLine
 10
1152.2965212029
 20
225.7670073125
 30
0.0
 11
1152.2965212029
 21
215.7670073125
 31
0.0
  0
LINE
  5
2C4
330
1F
100
AcDbEntity
  8
0
  6
Continuous
 62
    18
420
        0
100
AcDbLine
 10
1150.3379730872
 20
215.7670073125
 30
0.0
 11
1150.3379730872
 21
212.7670073125
 31
0.0
  0
LINE
  5
2C5
330
1F
100
AcDbEntity
  8
0
  6
Continuous
 62
    18
420
        0
100
AcDbLine
 10
1148.3172471451
 20
215.7670073125
 30
0.0
 11
1148.3172471451
 21
212.7670073125
 31
0.0
  0
LINE
  5
2C6
330
1F
100
AcDbEntity
  8
0
  6
Continuous
 62
    18
420
        0
100
AcDbLine
 10
1144.2757952607
 20
215.7670073125
 30
0.0
 11
1144.2757952607
 21
212.7670073125
 31
0.0
  0
LINE
  5
2C7
330
1F
100
AcDbEntity
  8
0
  6
Continuous
 62
    18
420
        0
100
AcDbLine
 10
1142.9965212029
 20
234.7670073125
 30
0.0
 11
1142.9965212029
 21
233.7670073125
 31
0.0
  0
LINE
  5
2C8
330
1F
100
AcDbEntity
  8
0
  6
Continuous
 62
    18
420
        0
100
AcDbLine
 10
1142.2550693186
 20
215.7670073125
 30
0.0
 11
1142.2550693186
 21
212.7670073125
 31
0.0
  0
LINE
  5
2C9
330
1F
100
AcDbEntity
  8
0
  6
Continuous
 62
    18
420
        0
100
AcDbLine
 10
1140.2965212029
 20
207.2671238634
 30
0.0
 11
1140.2965212029
 21
233.7670073125
 31
0.0
  0
LINE
  5
2CA
330
1F
100
AcDbEntity
  8
0
  6
Continuous
 62
    18
420
        0
100
AcDbLine
 10
1132.9965212029
 20
234.7670073125
 30
0.0
 11
1132.9965212029
 21
233.7670073125
 31
0.0
  0
LINE
  5
2CB
330
1F
100
AcDbEntity
  8
0
  6
Continuous
 62
    18
420
        0
100
AcDbLine
 10
472.2965212029
 20
296.2670073125
 30
0.0
 11
1232.2965212029
 21
296.2670073125
 31
0.0
  0
LINE
  5
2CC
330
1F
100
AcDbEntity
  8
0
  6
Continuous
 62
    18
420
        0
100
AcDbLine
 10
472.2965212029
 20
292.2670073125
 30
0.0
 11
1232.2965212029
 21
292.2670073125
 31
0.0
  0
LINE
  5
2CD
330
1F
100
AcDbEntity
  8
0
  6
Continuous
 62
    18
420
        0
100
AcDbLine
 10
1219.2965212029
 20
290.7670073125
 30
0.0
 11
485.2965212029
 21
290.7670073125
 31
0.0
  0
LINE
  5
2CE
330
1F
100
AcDbEntity
  8
0
  6
Continuous
 62
    18
420
        0
100
AcDbLine
 10
495.2965212029
 20
254.7670073125
 30
0.0
 11
1209.2965212029
 21
254.7670073125
 31
0.0
  0
LINE
  5
2CF
330
1F
100
AcDbEntity
  8
0
  6
Continuous
 62
    18
420
        0
100
AcDbLine
 10
1164.2965212029
 20
242.7670073125
 30
0.0
 11
1183.2965212029
 21
242.7670073125
 31
0.0
  0
LINE
  5
2D0
330
1F
100
AcDbEntity
  8
0
  6
Continuous
 62
    18
420
        0
100
AcDbLine
 10
523.7965212029
 20
242.7670073125
 30
0.0
 11
537.7965212029
 21
242.7670073125
 31
0.0
  0
LINE
  5
2D1
330
1F
100
AcDbEntity
  8
0
  6
Continuous
 62
    18
420
        0
100
AcDbLine
 10
537.7965212029
 20
242.7670073125
 30
0.0
 11
537.7965212029
 21
254.7670073125
 31
0.0
  0
LINE
  5
2D2
330
1F
100
AcDbEntity
  8
0
  6
Continuous
 62
    18
420
        0
100
AcDbLine
 10
523.7965212029
 20
254.7670073125
 30
0.0
 11
523.7965212029
 21
242.7670073125
 31
0.0
  0
LINE
  5
2D3
330
1F
100
AcDbEntity
  8
0
  6
Continuous
 62
    18
420
        0
100
AcDbLine
 10
495.2965212029
 20
234.7670073125
 30
0.0
 11
1209.2965212029
 21
234.7670073125
 31
0.0
  0
LINE
  5
2D4
330
1F
100
AcDbEntity
  8
0
  6
Continuous
 62
    18
420
        0
100
AcDbLine
 10
1132.9965212029
 20
234.2670073125
 30
0.0
 11
805.2965212029
 21
234.2670073125
 31
0.0
  0
LINE
  5
2D5
330
1F
100
AcDbEntity
  8
0
  6
Continuous
 62
    18
420
        0
100
AcDbLine
 10
1142.9963849176
 20
233.7670073125
 30
0.0
 11
1132.9966574882
 21
233.7670073125
 31
0.0
  0
LINE
  5
2D6
330
1F
100
AcDbEntity
  8
0
  6
Continuous
 62
    18
420
        0
100
AcDbLine
 10
1186.3463617491
 20
233.7670073125
 30
0.0
 11
1174.6466806567
 21
233.7670073125
 31
0.0
  0
LINE
  5
2D7
330
1F
100
AcDbEntity
  8
0
  6
Continuous
 62
    18
420
        0
100
AcDbLine
 10
1152.2965212029
 20
225.7670073125
 30
0.0
 11
1140.2965212029
 21
225.7670073125
 31
0.0
  0
LINE
  5
2D8
330
1F
100
AcDbEntity
  8
0
  6
Continuous
 62
    18
420
        0
100
AcDbLine
 10
1152.2965212029
 20
215.7670073125
 30
0.0
 11
1140.2965212029
 21
215.7670073125
 31
0.0
  0
LINE
  5
2D9
330
1F
100
AcDbEntity
  8
0
  6
Continuous
 62
    18
420
        0
100
AcDbLine
 10
1150.3379730872
 20
212.7670073125
 30
0.0
 11
1142.2550693186
 21
212.7670073125
 31
0.0
  0
LINE
  5
2DA
330
1F
100
AcDbEntity
  8
0
  6
Continuous
 62
    18
420
        0
100
AcDbLine
 10
1140.2965212029
 20
208.2670073125
 30
0.0
 11
805.2965212029
 21
208.2670073125
 31
0.0
  0
LINE
  5
2DB
330
1F
100
AcDbEntity
  8
0
  6
Continuous
 62
    18
420
        0
100
AcDbLine
 10
1180.2965212029
 20
207.2670073125
 30
0.0
 11
1140.2965212029
 21
207.2670073125
 31
0.0
  0
LINE
  5
2DC
330
1F
100
AcDbEntity
  8
0
  6
Continuous
 62
     1
420
 16711680
100
AcDbLine
 10
1213.2965212029
 20
205.7670073125
 30
0.0
 11
491.2965212029
 21
205.7670073125
 31
0.0
  0
LINE
  5
2DD
330
1F
100
AcDbEntity
  8
0
  6
Continuous
 62
    18
420
        0
100
AcDbLine
 10
495.2965212029
 20
290.7670073125
 30
0.0
 11
495.2965212029
 21
234.7670073125
 31
0.0
  0
LINE
  5
2DE
330
1F
100
AcDbEntity
  8
0
  6
Continuous
 62
    18
420
        0
100
AcDbLine
 10
485.2965212029
 20
292.2670073125
 30
0.0
 11
485.2965212029
 21
290.7670073125
 31
0.0
  0
LINE
  5
2DF
330
1F
100
AcDbEntity
  8
0
  6
Continuous
 62
    18
420
        0
100
AcDbLine
 10
472.2965212029
 20
296.2670073125
 30
0.0
 11
472.2965212029
 21
292.2670073125
 31
0.0
  0
ENDSEC
  0
SECTION
  2
OBJECTS
  0
DICTIONARY
  5
C
330
0
100
AcDbDictionary
281
     1
  3
ACAD_DETAILVIEWSTYLE
350
323
  3
ACAD_GROUP
350
D
  3
ACAD_LAYOUT
350
1A
  3
ACAD_MATERIAL
350
43
  3
ACAD_MLEADERSTYLE
350
6B
  3
ACAD_MLINESTYLE
350
17
  3
ACAD_PLOTSETTINGS
350
19
  3
ACAD_PLOTSTYLENAME
350
E
  3
ACAD_SCALELIST
350
47
  3
ACAD_SECTIONVIEWSTYLE
350
324
  3
ACAD_TABLESTYLE
350
69
  3
ACAD_VISUALSTYLE
350
2A
  3
ACDB_RECOMPOSE_DATA
350
320
  3
AcDbVariableDictionary
350
2E8
  0
SUN
  5
6D
330
29
100
AcDbSun
 90
        1
290
     0
 63
     7
421
 16777215
 40
1.0
291
     1
 91
  2455826
 92
 54000000
292
     0
 70
     2
 71
   256
280
     1
  0
DICTIONARY
  5
323
102
{ACAD_REACTORS
330
C
102
}
330
C
100
AcDbDictionary
281
     1
  0
DICTIONARY
  5
D
102
{ACAD_REACTORS
330
C
102
}
330
C
100
AcDbDictionary
281
     1
  0
DICTIONARY
  5
1A
102
{ACAD_REACTORS
330
C
102
}
330
C
100
AcDbDictionary
281
     1
  3
Layout1
350
1E
  3
Layout2
350
26
  3
Model
350
22
  0
DICTIONARY
  5
43
102
{ACAD_REACTORS
330
C
102
}
330
C
100
AcDbDictionary
281
     1
  3
ByBlock
350
45
  3
ByLayer
350
44
  3
Global
350
46
  0
DICTIONARY
  5
6B
102
{ACAD_REACTORS
330
C
102
}
330
C
100
AcDbDictionary
281
     1
  3
Standard
350
6C
  0
DICTIONARY
  5
17
102
{ACAD_REACTORS
330
C
102
}
330
C
100
AcDbDictionary
281
     1
  3
Standard
350
18
  0
DICTIONARY
  5
19
102
{ACAD_REACTORS
330
C
102
}
330
C
100
AcDbDictionary
281
     1
  0
ACDBDICTIONARYWDFLT
  5
E
102
{ACAD_REACTORS
330
C
102
}
330
C
100
AcDbDictionary
281
     1
  3
Normal
350
F
100
AcDbDictionaryWithDefault
340
F
  0
DICTIONARY
  5
47
102
{ACAD_REACTORS
330
C
102
}
330
C
100
AcDbDictionary
281
     1
  3
A0
350
48
  3
A1
350
49
  3
A2
350
4A
  3
A3
350
4B
  3
A4
350
4C
  3
A5
350
4D
  3
A6
350
4E
  3
A7
350
4F
  3
A8
350
50
  3
A9
350
51
  3
B0
350
52
  3
B1
350
53
  3
B2
350
54
  3
B3
350
55
  3
B4
350
56
  3
B5
350
57
  3
B6
350
58
  3
B7
350
59
  3
B8
350
5A
  3
B9
350
5B
  3
C0
350
5C
  3
C1
350
5D
  3
C2
350
5E
  3
C3
350
5F
  3
C4
350
60
  3
C5
350
61
  3
C6
350
62
  3
C7
350
63
  3
C8
350
64
  3
C9
350
65
  3
D0
350
66
  3
D1
350
67
  3
D2
350
68
  0
DICTIONARY
  5
324
102
{ACAD_REACTORS
330
C
102
}
330
C
100
AcDbDictionary
281
     1
  0
DICTIONARY
  5
69
102
{ACAD_REACTORS
330
C
102
}
330
C
100
AcDbDictionary
281
     1
  3
Standard
350
6A
  0
DICTIONARY
  5
2A
102
{ACAD_REACTORS
330
C
102
}
330
C
100
AcDbDictionary
281
     1
  3
2dWireframe
350
2F
  3
Basic
350
32
  3
Brighten
350
36
  3
ColorChange
350
3A
  3
Conceptual
350
34
  3
Dim
350
35
  3
EdgeColorOff
350
3D
  3
Facepattern
350
39
  3
Flat
350
2B
  3
FlatWithEdges
350
2C
  3
Gouraud
350
2D
  3
GouraudWithEdges
350
2E
  3
Hidden
350
31
  3
JitterOff
350
3B
  3
Linepattern
350
38
  3
OverhangOff
350
3C
  3
Realistic
350
33
  3
Shaded
350
42
  3
Shaded with edges
350
41
  3
Shades of Gray
350
3E
  3
Sketchy
350
3F
  3
Thicken
350
37
  3
Wireframe
350
30
  3
X-Ray
350
40
  0
XRECORD
  5
320
102
{ACAD_REACTORS
330
C
102
}
330
C
100
AcDbXrecord
280
     1
 90
        1
330
6A
  0
DICTIONARY
  5
2E8
102
{ACAD_REACTORS
330
C
102
}
330
C
100
AcDbDictionary
281
     1
  3
CANNOSCALE
350
2E9
  3
CMLEADERSTYLE
350
322
  3
CTABLESTYLE
350
321
  3
XCLIPFRAME
350
2EA
  0
LAYOUT
  5
1E
102
{ACAD_REACTORS
330
1A
102
}
330
1A
100
AcDbPlotSettings
  1

  2
none_device
  4

  6

 40
0.0
 41
0.0
 42
0.0
 43
0.0
 44
0.0
 45
0.0
 46
0.0
 47
0.0
 48
0.0
 49
0.0
140
0.0
141
0.0
142
1.0
143
1.0
 70
   688
 72
     0
 73
     0
 74
     5
  7

 75
    16
 76
     0
 77
     2
 78
   300
147
1.0
148
0.0
149
0.0
100
AcDbLayout
  1
Layout1
 70
     1
 71
     1
 10
0.0
 20
0.0
 11
12.0
 21
9.0
 12
0.0
 22
0.0
 32
0.0
 14
1.000000000000000E+20
 24
1.000000000000000E+20
 34
1.000000000000000E+20
 15
-1.000000000000000E+20
 25
-1.000000000000000E+20
 35
-1.000000000000000E+20
146
0.0
 13
0.0
 23
0.0
 33
0.0
 16
1.0
 26
0.0
 36
0.0
 17
0.0
 27
1.0
 37
0.0
 76
     0
330
1B
  0
LAYOUT
  5
26
102
{ACAD_REACTORS
330
1A
102
}
330
1A
100
AcDbPlotSettings
  1

  2
none_device
  4

  6

 40
0.0
 41
0.0
 42
0.0
 43
0.0
 44
0.0
 45
0.0
 46
0.0
 47
0.0
 48
0.0
 49
0.0
140
0.0
141
0.0
142
1.0
143
1.0
 70
   688
 72
     0
 73
     0
 74
     5
  7

 75
    16
 76
     0
 77
     2
 78
   300
147
1.0
148
0.0
149
0.0
100
AcDbLayout
  1
Layout2
 70
     1
 71
     2
 10
0.0
 20
0.0
 11
0.0
 21
0.0
 12
0.0
 22
0.0
 32
0.0
 14
0.0
 24
0.0
 34
0.0
 15
0.0
 25
0.0
 35
0.0
146
0.0
 13
0.0
 23
0.0
 33
0.0
 16
1.0
 26
0.0
 36
0.0
 17
0.0
 27
1.0
 37
0.0
 76
     0
330
23
  0
LAYOUT
  5
22
102
{ACAD_REACTORS
330
1A
102
}
330
1A
100
AcDbPlotSettings
  1

  2
none_device
  4
Letter_(8.50_x_11.00_Inches)
  6

 40
6.35
 41
6.35
 42
6.35000508
 43
6.35000508
 44
215.9
 45
279.4
 46
0.0
 47
0.0
 48
0.0
 49
0.0
140
0.0
141
0.0
142
1.0
143
1.0
 70
  1712
 72
     0
 73
     0
 74
     0
  7

 75
     0
 76
     0
 77
     2
 78
   300
147
1.0
148
0.0
149
0.0
100
AcDbLayout
  1
Model
 70
     1
 71
     0
 10
0.0
 20
0.0
 11
12.0
 21
9.0
 12
0.0
 22
0.0
 32
0.0
 14
1.000000000000000E+20
 24
1.000000000000000E+20
 34
1.000000000000000E+20
 15
-1.000000000000000E+20
 25
-1.000000000000000E+20
 35
-1.000000000000000E+20
146
0.0
 13
0.0
 23
0.0
 33
0.0
 16
1.0
 26
0.0
 36
0.0
 17
0.0
 27
1.0
 37
0.0
 76
     0
330
1F
331
29
  0
MATERIAL
  5
45
102
{ACAD_REACTORS
330
43
102
}
330
43
100
AcDbMaterial
  1
ByBlock
 72
     1
 94
      127
  0
MATERIAL
  5
44
102
{ACAD_REACTORS
330
43
102
}
330
43
100
AcDbMaterial
  1
ByLayer
 72
     1
 94
      127
  0
MATERIAL
  5
46
102
{ACAD_REACTORS
330
43
102
}
330
43
100
AcDbMaterial
  1
Global
 72
     1
 94
      127
  0
MLEADERSTYLE
  5
6C
102
{ACAD_REACTORS
330
6B
102
}
102
{ACAD_XDICTIONARY
360
31E
102
}
330
6B
100
AcDbMLeaderStyle
170
     2
171
     1
172
     0
 90
        2
 40
0.0
 41
0.0
173
     1
 91
-1056964608
340
14
 92
       -2
290
     1
 42
0.09
291
     1
 43
0.36
  3
Standard
341
0
 44
0.18
300

342
11
174
     1
178
     6
175
     1
176
     0
 93
-1056964608
 45
0.18
292
     0
297
     0
 46
0.18
343
0
 94
-1056964608
 47
1.0
 49
1.0
140
1.0
293
     1
141
0.0
294
     1
177
     0
142
1.0
295
     0
296
     0
143
0.125
1001
ACAD_MLEADERVER
1070
     2
  0
MLINESTYLE
  5
18
102
{ACAD_REACTORS
330
17
102
}
330
17
100
AcDbMlineStyle
  2
Standard
 70
     0
  3

 62
   256
 51
90.0
 52
90.0
 71
     2
 49
0.5
 62
   256
  6
BYLAYER
 49
-0.5
 62
   256
  6
BYLAYER
  0
ACDBPLACEHOLDER
  5
F
102
{ACAD_REACTORS
330
E
102
}
330
E
  0
SCALE
  5
48
102
{ACAD_REACTORS
330
47
102
}
330
47
100
AcDbScale
 70
     0
300
1:1
140
1.0
141
1.0
290
     1
  0
SCALE
  5
49
102
{ACAD_REACTORS
330
47
102
}
330
47
100
AcDbScale
 70
     0
300
1:2
140
1.0
141
2.0
290
     0
  0
SCALE
  5
4A
102
{ACAD_REACTORS
330
47
102
}
330
47
100
AcDbScale
 70
     0
300
1:4
140
1.0
141
4.0
290
     0
  0
SCALE
  5
4B
102
{ACAD_REACTORS
330
47
102
}
330
47
100
AcDbScale
 70
     0
300
1:5
140
1.0
141
5.0
290
     0
  0
SCALE
  5
4C
102
{ACAD_REACTORS
330
47
102
}
330
47
100
AcDbScale
 70
     0
300
1:8
140
1.0
141
8.0
290
     0
  0
SCALE
  5
4D
102
{ACAD_REACTORS
330
47
102
}
330
47
100
AcDbScale
 70
     0
300
1:10
140
1.0
141
10.0
290
     0
  0
SCALE
  5
4E
102
{ACAD_REACTORS
330
47
102
}
330
47
100
AcDbScale
 70
     0
300
1:16
140
1.0
141
16.0
290
     0
  0
SCALE
  5
4F
102
{ACAD_REACTORS
330
47
102
}
330
47
100
AcDbScale
 70
     0
300
1:20
140
1.0
141
20.0
290
     0
  0
SCALE
  5
50
102
{ACAD_REACTORS
330
47
102
}
330
47
100
AcDbScale
 70
     0
300
1:30
140
1.0
141
30.0
290
     0
  0
SCALE
  5
51
102
{ACAD_REACTORS
330
47
102
}
330
47
100
AcDbScale
 70
     0
300
1:40
140
1.0
141
40.0
290
     0
  0
SCALE
  5
52
102
{ACAD_REACTORS
330
47
102
}
330
47
100
AcDbScale
 70
     0
300
1:50
140
1.0
141
50.0
290
     0
  0
SCALE
  5
53
102
{ACAD_REACTORS
330
47
102
}
330
47
100
AcDbScale
 70
     0
300
1:100
140
1.0
141
100.0
290
     0
  0
SCALE
  5
54
102
{ACAD_REACTORS
330
47
102
}
330
47
100
AcDbScale
 70
     0
300
2:1
140
2.0
141
1.0
290
     0
  0
SCALE
  5
55
102
{ACAD_REACTORS
330
47
102
}
330
47
100
AcDbScale
 70
     0
300
4:1
140
4.0
141
1.0
290
     0
  0
SCALE
  5
56
102
{ACAD_REACTORS
330
47
102
}
330
47
100
AcDbScale
 70
     0
300
8:1
140
8.0
141
1.0
290
     0
  0
SCALE
  5
57
102
{ACAD_REACTORS
330
47
102
}
330
47
100
AcDbScale
 70
     0
300
10:1
140
10.0
141
1.0
290
     0
  0
SCALE
  5
58
102
{ACAD_REACTORS
330
47
102
}
330
47
100
AcDbScale
 70
     0
300
100:1
140
100.0
141
1.0
290
     0
  0
SCALE
  5
59
102
{ACAD_REACTORS
330
47
102
}
330
47
100
AcDbScale
 70
     0
300
1/128" = 1'-0"
140
0.0078125
141
12.0
290
     0
  0
SCALE
  5
5A
102
{ACAD_REACTORS
330
47
102
}
330
47
100
AcDbScale
 70
     0
300
1/64" = 1'-0"
140
0.015625
141
12.0
290
     0
  0
SCALE
  5
5B
102
{ACAD_REACTORS
330
47
102
}
330
47
100
AcDbScale
 70
     0
300
1/32" = 1'-0"
140
0.03125
141
12.0
290
     0
  0
SCALE
  5
5C
102
{ACAD_REACTORS
330
47
102
}
330
47
100
AcDbScale
 70
     0
300
1/16" = 1'-0"
140
0.0625
141
12.0
290
     0
  0
SCALE
  5
5D
102
{ACAD_REACTORS
330
47
102
}
330
47
100
AcDbScale
 70
     0
300
3/32" = 1'-0"
140
0.09375
141
12.0
290
     0
  0
SCALE
  5
5E
102
{ACAD_REACTORS
330
47
102
}
330
47
100
AcDbScale
 70
     0
300
1/8" = 1'-0"
140
0.125
141
12.0
290
     0
  0
SCALE
  5
5F
102
{ACAD_REACTORS
330
47
102
}
330
47
100
AcDbScale
 70
     0
300
3/16" = 1'-0"
140
0.1875
141
12.0
290
     0
  0
SCALE
  5
60
102
{ACAD_REACTORS
330
47
102
}
330
47
100
AcDbScale
 70
     0
300
1/4" = 1'-0"
140
0.25
141
12.0
290
     0
  0
SCALE
  5
61
102
{ACAD_REACTORS
330
47
102
}
330
47
100
AcDbScale
 70
     0
300
3/8" = 1'-0"
140
0.375
141
12.0
290
     0
  0
SCALE
  5
62
102
{ACAD_REACTORS
330
47
102
}
330
47
100
AcDbScale
 70
     0
300
1/2" = 1'-0"
140
0.5
141
12.0
290
     0
  0
SCALE
  5
63
102
{ACAD_REACTORS
330
47
102
}
330
47
100
AcDbScale
 70
     0
300
3/4" = 1'-0"
140
0.75
141
12.0
290
     0
  0
SCALE
  5
64
102
{ACAD_REACTORS
330
47
102
}
330
47
100
AcDbScale
 70
     0
300
1" = 1'-0"
140
1.0
141
12.0
290
     0
  0
SCALE
  5
65
102
{ACAD_REACTORS
330
47
102
}
330
47
100
AcDbScale
 70
     0
300
1-1/2" = 1'-0"
140
1.5
141
12.0
290
     0
  0
SCALE
  5
66
102
{ACAD_REACTORS
330
47
102
}
330
47
100
AcDbScale
 70
     0
300
3" = 1'-0"
140
3.0
141
12.0
290
     0
  0
SCALE
  5
67
102
{ACAD_REACTORS
330
47
102
}
330
47
100
AcDbScale
 70
     0
300
6" = 1'-0"
140
6.0
141
12.0
290
     0
  0
SCALE
  5
68
102
{ACAD_REACTORS
330
47
102
}
330
47
100
AcDbScale
 70
     0
300
1'-0" = 1'-0"
140
12.0
141
12.0
290
     0
  0
TABLESTYLE
  5
6A
102
{ACAD_REACTORS
330
69
102
}
102
{ACAD_XDICTIONARY
360
31B
102
}
330
69
100
AcDbTableStyle
  3
Standard
 70
     0
 71
     0
 40
0.06
 41
0.06
280
     0
281
     0
  7
Standard
140
0.18
170
     2
 62
     0
 63
   257
283
     0
 90
        4
 91
        0
  1

274
    -2
284
     1
 64
     0
275
    -2
285
     1
 65
     0
276
    -2
286
     1
 66
     0
277
    -2
287
     1
 67
     0
278
    -2
288
     1
 68
     0
279
    -2
289
     1
 69
     0
  7
Standard
140
0.25
170
     5
 62
     0
 63
   257
283
     0
 90
        4
 91
        0
  1

274
    -2
284
     1
 64
     0
275
    -2
285
     1
 65
     0
276
    -2
286
     1
 66
     0
277
    -2
287
     1
 67
     0
278
    -2
288
     1
 68
     0
279
    -2
289
     1
 69
     0
  7
Standard
140
0.18
170
     5
 62
     0
 63
   257
283
     0
 90
        4
 91
        0
  1

274
    -2
284
     1
 64
     0
275
    -2
285
     1
 65
     0
276
    -2
286
     1
 66
     0
277
    -2
287
     1
 67
     0
278
    -2
288
     1
 68
     0
279
    -2
289
     1
 69
     0
  0
VISUALSTYLE
  5
2F
102
{ACAD_REACTORS
330
2A
102
}
102
{ACAD_XDICTIONARY
360
2F3
102
}
330
2A
100
AcDbVisualStyle
  2
2dWireframe
 70
     4
 71
     0
 72
     2
 73
     0
 90
        0
 40
0.6
 41
30.0
 62
     5
 63
     7
421
 16777215
 74
     1
 91
        4
 64
     7
 65
   257
 75
     1
175
     1
 42
1.0
 92
        0
 66
   257
 43
1.0
 76
     1
 77
     6
 78
     2
 67
     7
 79
     5
170
     0
171
     0
290
     0
174
     0
 93
        1
 44
0.0
173
     0
291
     0
 45
0.0
  0
VISUALSTYLE
  5
32
102
{ACAD_REACTORS
330
2A
102
}
102
{ACAD_XDICTIONARY
360
2F9
102
}
330
2A
100
AcDbVisualStyle
  2
Basic
 70
     7
 71
     1
 72
     0
 73
     1
 90
        0
 40
0.6
 41
30.0
 62
     5
 63
     7
421
 16777215
 74
     0
 91
        4
 64
     7
 65
   257
 75
     1
175
     1
 42
1.0
 92
        8
 66
     7
 43
1.0
 76
     1
 77
     6
 78
     2
 67
     7
 79
     5
170
     0
171
     0
290
     0
174
     0
 93
        1
 44
0.0
173
     0
291
     1
 45
0.0
  0
VISUALSTYLE
  5
36
102
{ACAD_REACTORS
330
2A
102
}
102
{ACAD_XDICTIONARY
360
301
102
}
330
2A
100
AcDbVisualStyle
  2
Brighten
 70
    12
 71
     2
 72
     2
 73
     0
 90
        0
 40
0.6
 41
30.0
 62
     5
 63
     7
421
 16777215
 74
     1
 91
        4
 64
     7
 65
   257
 75
     1
175
     1
 42
1.0
 92
        8
 66
     7
 43
1.0
 76
     1
 77
     6
 78
     2
 67
     7
 79
     5
170
     0
171
     0
290
     0
174
     0
 93
        1
 44
50.0
173
     0
291
     1
 45
0.0
  0
VISUALSTYLE
  5
3A
102
{ACAD_REACTORS
330
2A
102
}
102
{ACAD_XDICTIONARY
360
309
102
}
330
2A
100
AcDbVisualStyle
  2
ColorChange
 70
    16
 71
     2
 72
     2
 73
     3
 90
        0
 40
0.6
 41
30.0
 62
     5
 63
     8
421
  8421504
 74
     1
 91
        4
 64
     7
 65
   257
 75
     1
175
     1
 42
1.0
 92
        8
 66
     8
424
  8421504
 43
1.0
 76
     1
 77
     6
 78
     2
 67
     7
 79
     5
170
     0
171
     0
290
     0
174
     0
 93
        1
 44
0.0
173
     0
291
     1
 45
0.0
  0
VISUALSTYLE
  5
34
102
{ACAD_REACTORS
330
2A
102
}
102
{ACAD_XDICTIONARY
360
2FD
102
}
330
2A
100
AcDbVisualStyle
  2
Conceptual
 70
     9
 71
     3
 72
     2
 73
     0
 90
        0
 40
0.6
 41
30.0
 62
     5
 63
     7
421
 16777215
 74
     2
 91
        2
 64
     7
 65
   257
 75
     1
175
     1
 42
179.0
 92
        8
 66
     7
 43
1.0
 76
     1
 77
     6
 78
     2
 67
     7
 79
     3
170
     0
171
     0
290
     0
174
     0
 93
        1
 44
0.0
173
     0
291
     0
 45
0.0
  0
VISUALSTYLE
  5
35
102
{ACAD_REACTORS
330
2A
102
}
102
{ACAD_XDICTIONARY
360
2FF
102
}
330
2A
100
AcDbVisualStyle
  2
Dim
 70
    11
 71
     2
 72
     2
 73
     0
 90
        0
 40
0.6
 41
30.0
 62
     5
 63
     7
421
 16777215
 74
     1
 91
        4
 64
     7
 65
   257
 75
     1
175
     1
 42
1.0
 92
        8
 66
     7
 43
1.0
 76
     1
 77
     6
 78
     2
 67
     7
 79
     5
170
     0
171
     0
290
     0
174
     0
 93
        1
 44
-50.0
173
     0
291
     1
 45
0.0
  0
VISUALSTYLE
  5
3D
102
{ACAD_REACTORS
330
2A
102
}
102
{ACAD_XDICTIONARY
360
30F
102
}
330
2A
100
AcDbVisualStyle
  2
EdgeColorOff
 70
    22
 71
     2
 72
     2
 73
     0
 90
        0
 40
0.6
 41
30.0
 62
     5
 63
     7
421
 16777215
 74
     1
 91
        4
 64
     7
 65
   257
 75
     1
175
     1
 42
1.0
 92
        8
 66
     7
 43
1.0
 76
     1
 77
     6
 78
     2
 67
     7
 79
     5
170
     0
171
     0
290
     0
174
     0
 93
        1
 44
0.0
173
     0
291
     1
 45
0.0
  0
VISUALSTYLE
  5
39
102
{ACAD_REACTORS
330
2A
102
}
102
{ACAD_XDICTIONARY
360
307
102
}
330
2A
100
AcDbVisualStyle
  2
Facepattern
 70
    15
 71
     2
 72
     2
 73
     0
 90
        0
 40
0.6
 41
30.0
 62
     5
 63
     7
421
 16777215
 74
     1
 91
        4
 64
     7
 65
   257
 75
     1
175
     1
 42
1.0
 92
        8
 66
     7
 43
1.0
 76
     1
 77
     6
 78
     2
 67
     7
 79
     5
170
     0
171
     0
290
     0
174
     0
 93
        1
 44
0.0
173
     0
291
     1
 45
0.0
  0
VISUALSTYLE
  5
2B
102
{ACAD_REACTORS
330
2A
102
}
102
{ACAD_XDICTIONARY
360
2EB
102
}
330
2A
100
AcDbVisualStyle
  2
Flat
 70
     0
 71
     2
 72
     1
 73
     1
 90
        2
 40
0.6
 41
30.0
 62
     5
 63
     7
421
 16777215
 74
     0
 91
        0
 64
     7
 65
   257
 75
     1
175
     1
 42
1.0
 92
        8
 66
     7
 43
1.0
 76
     1
 77
     6
 78
     2
 67
     7
 79
     5
170
     0
171
     0
290
     0
174
     0
 93
       13
 44
0.0
173
     0
291
     1
 45
0.0
  0
VISUALSTYLE
  5
2C
102
{ACAD_REACTORS
330
2A
102
}
102
{ACAD_XDICTIONARY
360
2ED
102
}
330
2A
100
AcDbVisualStyle
  2
FlatWithEdges
 70
     1
 71
     2
 72
     1
 73
     1
 90
        2
 40
0.6
 41
30.0
 62
     5
 63
     7
421
 16777215
 74
     1
 91
        0
 64
     7
 65
   257
 75
     1
175
     1
 42
1.0
 92
        0
 66
   257
 43
1.0
 76
     1
 77
     6
 78
     2
 67
     7
 79
     5
170
     0
171
     0
290
     0
174
     0
 93
       13
 44
0.0
173
     0
291
     1
 45
0.0
  0
VISUALSTYLE
  5
2D
102
{ACAD_REACTORS
330
2A
102
}
102
{ACAD_XDICTIONARY
360
2EF
102
}
330
2A
100
AcDbVisualStyle
  2
Gouraud
 70
     2
 71
     2
 72
     2
 73
     1
 90
        2
 40
0.6
 41
30.0
 62
     5
 63
     7
421
 16777215
 74
     0
 91
        0
 64
     7
 65
   257
 75
     1
175
     1
 42
1.0
 92
        0
 66
     7
 43
1.0
 76
     1
 77
     6
 78
     2
 67
     7
 79
     5
170
     0
171
     0
290
     0
174
     0
 93
       13
 44
0.0
173
     0
291
     1
 45
0.0
  0
VISUALSTYLE
  5
2E
102
{ACAD_REACTORS
330
2A
102
}
102
{ACAD_XDICTIONARY
360
2F1
102
}
330
2A
100
AcDbVisualStyle
  2
GouraudWithEdges
 70
     3
 71
     2
 72
     2
 73
     1
 90
        2
 40
0.6
 41
30.0
 62
     5
 63
     7
421
 16777215
 74
     1
 91
        0
 64
     7
 65
   257
 75
     1
175
     1
 42
1.0
 92
        0
 66
   257
 43
1.0
 76
     1
 77
     6
 78
     2
 67
     7
 79
     5
170
     0
171
     0
290
     0
174
     0
 93
       13
 44
0.0
173
     0
291
     1
 45
0.0
  0
VISUALSTYLE
  5
31
102
{ACAD_REACTORS
330
2A
102
}
102
{ACAD_XDICTIONARY
360
2F7
102
}
330
2A
100
AcDbVisualStyle
  2
Hidden
 70
     6
 71
     1
 72
     2
 73
     2
 90
        0
 40
0.6
 41
30.0
 62
     5
 63
     7
421
 16777215
 74
     2
 91
        2
 64
     7
 65
   257
 75
     2
175
     1
 42
40.0
 92
        0
 66
   257
 43
1.0
 76
     1
 77
     6
 78
     2
 67
     7
 79
     3
170
     0
171
     0
290
     0
174
     0
 93
        1
 44
0.0
173
     0
291
     0
 45
0.0
  0
VISUALSTYLE
  5
3B
102
{ACAD_REACTORS
330
2A
102
}
102
{ACAD_XDICTIONARY
360
30B
102
}
330
2A
100
AcDbVisualStyle
  2
JitterOff
 70
    20
 71
     2
 72
     2
 73
     0
 90
        0
 40
0.6
 41
30.0
 62
     5
 63
     7
421
 16777215
 74
     1
 91
        4
 64
     7
 65
   257
 75
     1
175
     1
 42
1.0
 92
       10
 66
     7
 43
1.0
 76
     1
 77
     6
 78
     2
 67
     7
 79
     5
170
     0
171
     0
290
     0
174
     0
 93
        1
 44
0.0
173
     0
291
     1
 45
0.0
  0
VISUALSTYLE
  5
38
102
{ACAD_REACTORS
330
2A
102
}
102
{ACAD_XDICTIONARY
360
305
102
}
330
2A
100
AcDbVisualStyle
  2
Linepattern
 70
    14
 71
     2
 72
     2
 73
     0
 90
        0
 40
0.6
 41
30.0
 62
     5
 63
     7
421
 16777215
 74
     1
 91
        4
 64
     7
 65
   257
 75
     7
175
     7
 42
1.0
 92
        8
 66
     7
 43
1.0
 76
     1
 77
     6
 78
     2
 67
     7
 79
     5
170
     0
171
     0
290
     0
174
     0
 93
        1
 44
0.0
173
     0
291
     1
 45
0.0
  0
VISUALSTYLE
  5
3C
102
{ACAD_REACTORS
330
2A
102
}
102
{ACAD_XDICTIONARY
360
30D
102
}
330
2A
100
AcDbVisualStyle
  2
OverhangOff
 70
    21
 71
     2
 72
     2
 73
     0
 90
        0
 40
0.6
 41
30.0
 62
     5
 63
     7
421
 16777215
 74
     1
 91
        4
 64
     7
 65
   257
 75
     1
175
     1
 42
1.0
 92
        9
 66
     7
 43
1.0
 76
     1
 77
     6
 78
     2
 67
     7
 79
     5
170
     0
171
     0
290
     0
174
     0
 93
        1
 44
0.0
173
     0
291
     1
 45
0.0
  0
VISUALSTYLE
  5
33
102
{ACAD_REACTORS
330
2A
102
}
102
{ACAD_XDICTIONARY
360
2FB
102
}
330
2A
100
AcDbVisualStyle
  2
Realistic
 70
     8
 71
     2
 72
     3
 73
     0
 90
        2
 40
0.6
 41
30.0
 62
     5
 63
     7
421
 16777215
 74
     0
 91
        0
 64
     7
 65
   257
 75
     1
175
     1
 42
1.0
 92
        8
 66
   257
 43
1.0
 76
     1
 77
     6
 78
     2
 67
     7
 79
     3
170
     0
171
     0
290
     0
174
     0
 93
       13
 44
0.0
173
     0
291
     0
 45
0.0
  0
VISUALSTYLE
  5
42
102
{ACAD_REACTORS
330
2A
102
}
102
{ACAD_XDICTIONARY
360
319
102
}
330
2A
100
AcDbVisualStyle
  2
Shaded
 70
    27
 71
     2
 72
     2
 73
     1
 90
        2
 40
0.6
 41
30.0
 62
     5
 63
     7
421
 16777215
 74
     0
 91
        4
 64
     7
 65
   257
 75
     1
175
     1
 42
1.0
 92
        8
 66
   257
 43
1.0
 76
     1
 77
     6
 78
     2
 67
     8
425
  7895160
 79
     3
170
     0
171
     0
290
     0
174
     0
 93
        5
 44
0.0
173
     0
291
     0
 45
0.0
  0
VISUALSTYLE
  5
41
102
{ACAD_REACTORS
330
2A
102
}
102
{ACAD_XDICTIONARY
360
317
102
}
330
2A
100
AcDbVisualStyle
  2
Shaded with edges
 70
    26
 71
     2
 72
     2
 73
     1
 90
        2
 40
0.6
 41
30.0
 62
     5
 63
     7
421
 16777215
 74
     1
 91
       10
 64
     7
 65
   257
 75
     2
175
     1
 42
1.0
 92
        8
 66
   257
 43
1.0
 76
     1
 77
     6
 78
     2
 67
     7
 79
     3
170
     0
171
     0
290
     0
174
     0
 93
        5
 44
0.0
173
     0
291
     0
 45
0.0
  0
VISUALSTYLE
  5
3E
102
{ACAD_REACTORS
330
2A
102
}
102
{ACAD_XDICTIONARY
360
311
102
}
330
2A
100
AcDbVisualStyle
  2
Shades of Gray
 70
    23
 71
     2
 72
     2
 73
     3
 90
        0
 40
0.6
 41
30.0
 62
     5
 63
     7
421
 16777215
 74
     2
 91
        2
 64
     7
 65
     7
 75
     1
175
     1
 42
40.0
 92
        8
 66
     7
 43
1.0
 76
     1
 77
     6
 78
     2
 67
     7
 79
     3
170
     0
171
     0
290
     0
174
     0
 93
        1
 44
0.0
173
     0
291
     0
 45
0.0
  0
VISUALSTYLE
  5
3F
102
{ACAD_REACTORS
330
2A
102
}
102
{ACAD_XDICTIONARY
360
313
102
}
330
2A
100
AcDbVisualStyle
  2
Sketchy
 70
    24
 71
     1
 72
     2
 73
     2
 90
        0
 40
0.6
 41
30.0
 62
     5
 63
     7
421
 16777215
 74
     2
 91
        2
 64
     7
 65
     7
 75
     1
175
     1
 42
40.0
 92
       11
 66
     7
 43
1.0
 76
     1
 77
     6
 78
     2
 67
     7
 79
     6
170
     0
171
     0
290
     0
174
     0
 93
        1
 44
0.0
173
     0
291
     0
 45
0.0
  0
VISUALSTYLE
  5
37
102
{ACAD_REACTORS
330
2A
102
}
102
{ACAD_XDICTIONARY
360
303
102
}
330
2A
100
AcDbVisualStyle
  2
Thicken
 70
    13
 71
     2
 72
     2
 73
     0
 90
        0
 40
0.6
 41
30.0
 62
     5
 63
     7
421
 16777215
 74
     1
 91
        4
 64
     7
 65
   257
 75
     1
175
     1
 42
1.0
 92
       12
 66
     7
 43
1.0
 76
     1
 77
     6
 78
     2
 67
     7
 79
     5
170
     0
171
     0
290
     0
174
     0
 93
        1
 44
0.0
173
     0
291
     1
 45
0.0
  0
VISUALSTYLE
  5
30
102
{ACAD_REACTORS
330
2A
102
}
102
{ACAD_XDICTIONARY
360
2F5
102
}
330
2A
100
AcDbVisualStyle
  2
Wireframe
 70
     5
 71
     0
 72
     2
 73
     0
 90
        0
 40
0.6
 41
30.0
 62
     5
 63
     7
421
 16777215
 74
     1
 91
        4
 64
     7
 65
   257
 75
     1
175
     1
 42
1.0
 92
        0
 66
   257
 43
1.0
 76
     1
 77
     6
 78
     2
 67
     7
 79
     3
170
     0
171
     0
290
     0
174
     0
 93
        1
 44
0.0
173
     0
291
     0
 45
0.0
  0
VISUALSTYLE
  5
40
102
{ACAD_REACTORS
330
2A
102
}
102
{ACAD_XDICTIONARY
360
315
102
}
330
2A
100
AcDbVisualStyle
  2
X-Ray
 70
    25
 71
     2
 72
     2
 73
     1
 90
        1
 40
0.5
 41
30.0
 62
     5
 63
     7
421
 16777215
 74
     1
 91
        0
 64
     7
 65
   257
 75
     1
175
     1
 42
1.0
 92
        8
 66
     7
 43
1.0
 76
     1
 77
     6
 78
     2
 67
     7
 79
     3
170
     0
171
     0
290
     0
174
     0
 93
       13
 44
0.0
173
     0
291
     0
 45
0.0
  0
DICTIONARYVAR
  5
2E9
102
{ACAD_REACTORS
330
2E8
102
}
330
2E8
100
DictionaryVariables
280
     0
  1
1:1
  0
DICTIONARYVAR
  5
322
102
{ACAD_REACTORS
330
2E8
102
}
330
2E8
100
DictionaryVariables
280
     0
  1
Standard
  0
DICTIONARYVAR
  5
321
102
{ACAD_REACTORS
330
2E8
102
}
330
2E8
100
DictionaryVariables
280
     0
  1
Standard
  0
DICTIONARYVAR
  5
2EA
102
{ACAD_REACTORS
330
2E8
102
}
330
2E8
100
DictionaryVariables
280
     0
  1
2
  0
DICTIONARY
  5
31E
330
6C
100
AcDbDictionary
280
     1
281
     1
  3
ACAD_XREC_ROUNDTRIP
360
31F
  0
DICTIONARY
  5
31B
330
6A
100
AcDbDictionary
280
     1
281
     1
  3
ACAD_ROUNDTRIP_2008_TABLESTYLE_CELLSTYLEMAP
360
31C
  0
DICTIONARY
  5
2F3
330
2F
100
AcDbDictionary
280
     1
281
     1
  3
ACAD_XREC_ROUNDTRIP
360
2F4
  0
DICTIONARY
  5
2F9
330
32
100
AcDbDictionary
280
     1
281
     1
  3
ACAD_XREC_ROUNDTRIP
360
2FA
  0
DICTIONARY
  5
301
330
36
100
AcDbDictionary
280
     1
281
     1
  3
ACAD_XREC_ROUNDTRIP
360
302
  0
DICTIONARY
  5
309
330
3A
100
AcDbDictionary
280
     1
281
     1
  3
ACAD_XREC_ROUNDTRIP
360
30A
  0
DICTIONARY
  5
2FD
330
34
100
AcDbDictionary
280
     1
281
     1
  3
ACAD_XREC_ROUNDTRIP
360
2FE
  0
DICTIONARY
  5
2FF
330
35
100
AcDbDictionary
280
     1
281
     1
  3
ACAD_XREC_ROUNDTRIP
360
300
  0
DICTIONARY
  5
30F
330
3D
100
AcDbDictionary
280
     1
281
     1
  3
ACAD_XREC_ROUNDTRIP
360
310
  0
DICTIONARY
  5
307
330
39
100
AcDbDictionary
280
     1
281
     1
  3
ACAD_XREC_ROUNDTRIP
360
308
  0
DICTIONARY
  5
2EB
330
2B
100
AcDbDictionary
280
     1
281
     1
  3
ACAD_XREC_ROUNDTRIP
360
2EC
  0
DICTIONARY
  5
2ED
330
2C
100
AcDbDictionary
280
     1
281
     1
  3
ACAD_XREC_ROUNDTRIP
360
2EE
  0
DICTIONARY
  5
2EF
330
2D
100
AcDbDictionary
280
     1
281
     1
  3
ACAD_XREC_ROUNDTRIP
360
2F0
  0
DICTIONARY
  5
2F1
330
2E
100
AcDbDictionary
280
     1
281
     1
  3
ACAD_XREC_ROUNDTRIP
360
2F2
  0
DICTIONARY
  5
2F7
330
31
100
AcDbDictionary
280
     1
281
     1
  3
ACAD_XREC_ROUNDTRIP
360
2F8
  0
DICTIONARY
  5
30B
330
3B
100
AcDbDictionary
280
     1
281
     1
  3
ACAD_XREC_ROUNDTRIP
360
30C
  0
DICTIONARY
  5
305
330
38
100
AcDbDictionary
280
     1
281
     1
  3
ACAD_XREC_ROUNDTRIP
360
306
  0
DICTIONARY
  5
30D
330
3C
100
AcDbDictionary
280
     1
281
     1
  3
ACAD_XREC_ROUNDTRIP
360
30E
  0
DICTIONARY
  5
2FB
330
33
100
AcDbDictionary
280
     1
281
     1
  3
ACAD_XREC_ROUNDTRIP
360
2FC
  0
DICTIONARY
  5
319
330
42
100
AcDbDictionary
280
     1
281
     1
  3
ACAD_XREC_ROUNDTRIP
360
31A
  0
DICTIONARY
  5
317
330
41
100
AcDbDictionary
280
     1
281
     1
  3
ACAD_XREC_ROUNDTRIP
360
318
  0
DICTIONARY
  5
311
330
3E
100
AcDbDictionary
280
     1
281
     1
  3
ACAD_XREC_ROUNDTRIP
360
312
  0
DICTIONARY
  5
313
330
3F
100
AcDbDictionary
280
     1
281
     1
  3
ACAD_XREC_ROUNDTRIP
360
314
  0
DICTIONARY
  5
303
330
37
100
AcDbDictionary
280
     1
281
     1
  3
ACAD_XREC_ROUNDTRIP
360
304
  0
DICTIONARY
  5
2F5
330
30
100
AcDbDictionary
280
     1
281
     1
  3
ACAD_XREC_ROUNDTRIP
360
2F6
  0
DICTIONARY
  5
315
330
40
100
AcDbDictionary
280
     1
281
     1
  3
ACAD_XREC_ROUNDTRIP
360
316
  0
XRECORD
  5
31F
102
{ACAD_REACTORS
330
31E
102
}
330
31E
100
AcDbXrecord
280
     1
102
ACAD_ROUNDTRIP_2010_MLEADER_STYLE
  0
CELLSTYLEMAP
  5
31C
102
{ACAD_REACTORS
330
31B
102
}
330
31B
100
AcDbCellStyleMap
 90
        3
300
CELLSTYLE
  1
TABLEFORMAT_BEGIN
 90
        5
170
     1
 91
        0
 92
    32768
 62
   257
 93
        1
300
CONTENTFORMAT
  1
CONTENTFORMAT_BEGIN
 90
        0
 91
        0
 92
        4
 93
        0
300

 40
0.0
140
1.0
 94
        5
 62
     0
340
11
144
0.25
309
CONTENTFORMAT_END
171
     1
301
MARGIN
  1
CELLMARGIN_BEGIN
 40
0.06
 40
0.06
 40
0.06
 40
0.06
 40
0.06
 40
0.06
309
CELLMARGIN_END
 94
        6
 95
        1
302
GRIDFORMAT
  1
GRIDFORMAT_BEGIN
 90
        0
 91
        1
 62
     0
 92
       -2
340
14
 93
        0
 40
0.045
309
GRIDFORMAT_END
 95
        2
302
GRIDFORMAT
  1
GRIDFORMAT_BEGIN
 90
        0
 91
        1
 62
     0
 92
       -2
340
14
 93
        0
 40
0.045
309
GRIDFORMAT_END
 95
        4
302
GRIDFORMAT
  1
GRIDFORMAT_BEGIN
 90
        0
 91
        1
 62
     0
 92
       -2
340
14
 93
        0
 40
0.045
309
GRIDFORMAT_END
 95
        8
302
GRIDFORMAT
  1
GRIDFORMAT_BEGIN
 90
        0
 91
        1
 62
     0
 92
       -2
340
14
 93
        0
 40
0.045
309
GRIDFORMAT_END
 95
       16
302
GRIDFORMAT
  1
GRIDFORMAT_BEGIN
 90
        0
 91
        1
 62
     0
 92
       -2
340
14
 93
        0
 40
0.045
309
GRIDFORMAT_END
 95
       32
302
GRIDFORMAT
  1
GRIDFORMAT_BEGIN
 90
        0
 91
        1
 62
     0
 92
       -2
340
14
 93
        0
 40
0.045
309
GRIDFORMAT_END
309
TABLEFORMAT_END
  1
CELLSTYLE_BEGIN
 90
        1
 91
        1
300
_TITLE
309
CELLSTYLE_END
300
CELLSTYLE
  1
TABLEFORMAT_BEGIN
 90
        5
170
     1
 91
        0
 92
        0
 62
   257
 93
        1
300
CONTENTFORMAT
  1
CONTENTFORMAT_BEGIN
 90
        0
 91
        0
 92
        4
 93
        0
300

 40
0.0
140
1.0
 94
        5
 62
     0
340
11
144
0.18
309
CONTENTFORMAT_END
171
     1
301
MARGIN
  1
CELLMARGIN_BEGIN
 40
0.06
 40
0.06
 40
0.06
 40
0.06
 40
0.06
 40
0.06
309
CELLMARGIN_END
 94
        6
 95
        1
302
GRIDFORMAT
  1
GRIDFORMAT_BEGIN
 90
        0
 91
        1
 62
     0
 92
       -2
340
14
 93
        0
 40
0.045
309
GRIDFORMAT_END
 95
        2
302
GRIDFORMAT
  1
GRIDFORMAT_BEGIN
 90
        0
 91
        1
 62
     0
 92
       -2
340
14
 93
        0
 40
0.045
309
GRIDFORMAT_END
 95
        4
302
GRIDFORMAT
  1
GRIDFORMAT_BEGIN
 90
        0
 91
        1
 62
     0
 92
       -2
340
14
 93
        0
 40
0.045
309
GRIDFORMAT_END
 95
        8
302
GRIDFORMAT
  1
GRIDFORMAT_BEGIN
 90
        0
 91
        1
 62
     0
 92
       -2
340
14
 93
        0
 40
0.045
309
GRIDFORMAT_END
 95
       16
302
GRIDFORMAT
  1
GRIDFORMAT_BEGIN
 90
        0
 91
        1
 62
     0
 92
       -2
340
14
 93
        0
 40
0.045
309
GRIDFORMAT_END
 95
       32
302
GRIDFORMAT
  1
GRIDFORMAT_BEGIN
 90
        0
 91
        1
 62
     0
 92
       -2
340
14
 93
        0
 40
0.045
309
GRIDFORMAT_END
309
TABLEFORMAT_END
  1
CELLSTYLE_BEGIN
 90
        2
 91
        1
300
_HEADER
309
CELLSTYLE_END
300
CELLSTYLE
  1
TABLEFORMAT_BEGIN
 90
        5
170
     1
 91
        0
 92
        0
 62
   257
 93
        1
300
CONTENTFORMAT
  1
CONTENTFORMAT_BEGIN
 90
        0
 91
        0
 92
        4
 93
        0
300

 40
0.0
140
1.0
 94
        2
 62
     0
340
11
144
0.18
309
CONTENTFORMAT_END
171
     1
301
MARGIN
  1
CELLMARGIN_BEGIN
 40
0.06
 40
0.06
 40
0.06
 40
0.06
 40
0.06
 40
0.06
309
CELLMARGIN_END
 94
        6
 95
        1
302
GRIDFORMAT
  1
GRIDFORMAT_BEGIN
 90
        0
 91
        1
 62
     0
 92
       -2
340
14
 93
        0
 40
0.045
309
GRIDFORMAT_END
 95
        2
302
GRIDFORMAT
  1
GRIDFORMAT_BEGIN
 90
        0
 91
        1
 62
     0
 92
       -2
340
14
 93
        0
 40
0.045
309
GRIDFORMAT_END
 95
        4
302
GRIDFORMAT
  1
GRIDFORMAT_BEGIN
 90
        0
 91
        1
 62
     0
 92
       -2
340
14
 93
        0
 40
0.045
309
GRIDFORMAT_END
 95
        8
302
GRIDFORMAT
  1
GRIDFORMAT_BEGIN
 90
        0
 91
        1
 62
     0
 92
       -2
340
14
 93
        0
 40
0.045
309
GRIDFORMAT_END
 95
       16
302
GRIDFORMAT
  1
GRIDFORMAT_BEGIN
 90
        0
 91
        1
 62
     0
 92
       -2
340
14
 93
        0
 40
0.045
309
GRIDFORMAT_END
 95
       32
302
GRIDFORMAT
  1
GRIDFORMAT_BEGIN
 90
        0
 91
        1
 62
     0
 92
       -2
340
14
 93
        0
 40
0.045
309
GRIDFORMAT_END
309
TABLEFORMAT_END
  1
CELLSTYLE_BEGIN
 90
        3
 91
        2
300
_DATA
309
CELLSTYLE_END
  0
XRECORD
  5
2F4
102
{ACAD_REACTORS
330
2F3
102
}
330
2F3
100
AcDbXrecord
280
     1
102
RTVSPropertyOp0
 70
     1
102
RTVSPropertyOp1
 70
     1
102
RTVSPropertyOp2
 70
     1
102
RTVSPropertyOp3
 70
     1
102
RTVSPropertyOp4
 70
     1
102
RTVSPropertyOp5
 70
     1
102
RTVSPropertyOp6
 70
     1
102
RTVSPropertyOp7
 70
     1
102
RTVSPropertyOp8
 70
     1
102
RTVSPropertyOp9
 70
     1
102
RTVSPropertyOp10
 70
     1
102
RTVSPropertyOp11
 70
     1
102
RTVSPropertyOp12
 70
     1
102
RTVSPropertyOp13
 70
     1
102
RTVSPropertyOp14
 70
     1
102
RTVSPropertyOp15
 70
     1
102
RTVSPropertyOp16
 70
     1
102
RTVSPropertyOp17
 70
     1
102
RTVSPropertyOp18
 70
     1
102
RTVSPropertyOp19
 70
     1
102
RTVSPropertyOp20
 70
     1
102
RTVSPropertyOp21
 70
     1
102
RTVSPropertyOp22
 70
     1
102
RTVSPropertyOp23
 70
     1
102
RTVSPropertyOp24
 70
     1
102
RTVSPropertyOp25
 70
     1
102
RTVSPropertyOp26
 70
     1
102
RTVSPropertyOp27
 70
     1
102
RTVSPropertyOp28
 70
     1
102
RTVSPropertyOp29
 70
     1
102
RTVSPropertyOp30
 70
     1
102
RTVSPropertyOp31
 70
     1
102
RTVSPropertyOp32
 70
     1
102
RTVSPropertyOp33
 70
     1
102
RTVSPropertyOp34
 70
     1
102
RTVSPropertyOp35
 70
     1
102
RTVSPropertyOp36
 70
     1
102
RTVSPropertyOp37
 70
     1
102
RTVSPropertyOp38
 70
     1
102
RTVSPropertyOp39
 70
     1
102
RTVSPropertyOp40
 70
     1
102
RTVSPropertyOp41
 70
     1
102
RTVSPropertyOp42
 70
     1
102
RTVSPropertyOp43
 70
     1
102
RTVSPropertyOp44
 70
     1
102
RTVSPropertyOp45
 70
     1
102
RTVSPropertyOp46
 70
     1
102
RTVSPropertyOp47
 70
     1
102
RTVSPropertyOp48
 70
     1
102
RTVSPropertyOp49
 70
     1
102
RTVSPropertyOp50
 70
     1
102
RTVSPropertyOp51
 70
     0
102
RTVSPropertyOp52
 70
     0
102
RTVSPropertyOp53
 70
     1
102
RTVSPropertyOp54
 70
     1
102
RTVSPropertyOp55
 70
     1
102
RTVSPropertyOp56
 70
     1
102
RTVSPropertyOp57
 70
     1
102
RTVSPost2010Prop28
280
     1
102
RTVSPost2010PropOp28
 70
     1
102
RTVSPost2010Prop29
280
     1
102
RTVSPost2010PropOp29
 70
     1
102
RTVSPost2010Prop30
280
     0
102
RTVSPost2010PropOp30
 70
     1
102
RTVSPost2010Prop31
280
     0
102
RTVSPost2010PropOp31
 70
     1
102
RTVSPost2010Prop32
280
     0
102
RTVSPost2010PropOp32
 70
     1
102
RTVSPost2010Prop33
280
     0
102
RTVSPost2010PropOp33
 70
     1
102
RTVSPost2010Prop34
280
     0
102
RTVSPost2010PropOp34
 70
     1
102
RTVSPost2010Prop35
280
     0
102
RTVSPost2010PropOp35
 70
     1
102
RTVSPost2010Prop36
280
     0
102
RTVSPost2010PropOp36
 70
     1
102
RTVSPost2010Prop37
 90
       50
102
RTVSPost2010PropOp37
 70
     1
102
RTVSPost2010Prop38
140
0.0
102
RTVSPost2010PropOp38
 70
     1
102
RTVSPost2010Prop39
140
1.0
102
RTVSPost2010PropOp39
 70
     1
102
RTVSPost2010Prop40
 90
        0
102
RTVSPost2010PropOp40
 70
     1
102
RTVSPost2010Prop41ColorIndex
 90
       18
102
RTVSPost2010Prop41ColorRGB
 90
        0
102
RTVSPost2010PropOp41
 70
     1
102
RTVSPost2010Prop42
 90
       50
102
RTVSPost2010PropOp42
 70
     1
102
RTVSPost2010Prop43
 90
        3
102
RTVSPost2010PropOp43
 70
     1
102
RTVSPost2010Prop44ColorIndex
 90
        5
102
RTVSPost2010Prop44ColorRGB
 90
      255
102
RTVSPost2010PropOp44
 70
     1
102
RTVSPost2010Prop45
280
     0
102
RTVSPost2010PropOp45
 70
     1
102
RTVSPost2010Prop46
 90
       50
102
RTVSPost2010PropOp46
 70
     1
102
RTVSPost2010Prop47
 90
       50
102
RTVSPost2010PropOp47
 70
     1
102
RTVSPost2010Prop48
 90
       50
102
RTVSPost2010PropOp48
 70
     1
102
RTVSPost2010Prop49
280
     0
102
RTVSPost2010PropOp49
 70
     1
102
RTVSPost2010Prop50
 90
       50
102
RTVSPost2010PropOp50
 70
     1
102
RTVSPost2010Prop51ColorIndex
 90
      256
102
RTVSPost2010Prop51ColorRGB
 90
-16777216
102
RTVSPost2010PropOp51
 70
     0
102
RTVSPost2010Prop52
140
1.0
102
RTVSPost2010PropOp52
 70
     0
102
RTVSPost2010Prop53
 90
        2
102
RTVSPost2010PropOp53
 70
     1
102
RTVSPost2010Prop54
  1
strokes_ogs.tif
102
RTVSPost2010PropOp54
 70
     1
102
RTVSPost2010Prop55
280
     0
102
RTVSPost2010PropOp55
 70
     1
102
RTVSPost2010Prop56
140
1.0
102
RTVSPost2010PropOp56
 70
     1
102
RTVSPost2010Prop57
140
1.0
102
RTVSPost2010PropOp57
 70
     1
  0
XRECORD
  5
2FA
102
{ACAD_REACTORS
330
2F9
102
}
330
2F9
100
AcDbXrecord
280
     1
102
RTVSPropertyOp0
 70
     1
102
RTVSPropertyOp1
 70
     1
102
RTVSPropertyOp2
 70
     1
102
RTVSPropertyOp3
 70
     1
102
RTVSPropertyOp4
 70
     1
102
RTVSPropertyOp5
 70
     1
102
RTVSPropertyOp6
 70
     1
102
RTVSPropertyOp7
 70
     1
102
RTVSPropertyOp8
 70
     1
102
RTVSPropertyOp9
 70
     1
102
RTVSPropertyOp10
 70
     1
102
RTVSPropertyOp11
 70
     1
102
RTVSPropertyOp12
 70
     1
102
RTVSPropertyOp13
 70
     1
102
RTVSPropertyOp14
 70
     1
102
RTVSPropertyOp15
 70
     1
102
RTVSPropertyOp16
 70
     1
102
RTVSPropertyOp17
 70
     1
102
RTVSPropertyOp18
 70
     1
102
RTVSPropertyOp19
 70
     1
102
RTVSPropertyOp20
 70
     1
102
RTVSPropertyOp21
 70
     1
102
RTVSPropertyOp22
 70
     1
102
RTVSPropertyOp23
 70
     1
102
RTVSPropertyOp24
 70
     1
102
RTVSPropertyOp25
 70
     1
102
RTVSPropertyOp26
 70
     1
102
RTVSPropertyOp27
 70
     1
102
RTVSPropertyOp28
 70
     1
102
RTVSPropertyOp29
 70
     1
102
RTVSPropertyOp30
 70
     1
102
RTVSPropertyOp31
 70
     1
102
RTVSPropertyOp32
 70
     1
102
RTVSPropertyOp33
 70
     1
102
RTVSPropertyOp34
 70
     1
102
RTVSPropertyOp35
 70
     1
102
RTVSPropertyOp36
 70
     1
102
RTVSPropertyOp37
 70
     1
102
RTVSPropertyOp38
 70
     1
102
RTVSPropertyOp39
 70
     1
102
RTVSPropertyOp40
 70
     1
102
RTVSPropertyOp41
 70
     1
102
RTVSPropertyOp42
 70
     1
102
RTVSPropertyOp43
 70
     1
102
RTVSPropertyOp44
 70
     1
102
RTVSPropertyOp45
 70
     1
102
RTVSPropertyOp46
 70
     1
102
RTVSPropertyOp47
 70
     1
102
RTVSPropertyOp48
 70
     1
102
RTVSPropertyOp49
 70
     1
102
RTVSPropertyOp50
 70
     1
102
RTVSPropertyOp51
 70
     0
102
RTVSPropertyOp52
 70
     0
102
RTVSPropertyOp53
 70
     1
102
RTVSPropertyOp54
 70
     1
102
RTVSPropertyOp55
 70
     1
102
RTVSPropertyOp56
 70
     1
102
RTVSPropertyOp57
 70
     1
102
RTVSPost2010Prop28
280
     0
102
RTVSPost2010PropOp28
 70
     1
102
RTVSPost2010Prop29
280
     1
102
RTVSPost2010PropOp29
 70
     1
102
RTVSPost2010Prop30
280
     1
102
RTVSPost2010PropOp30
 70
     1
102
RTVSPost2010Prop31
280
     0
102
RTVSPost2010PropOp31
 70
     1
102
RTVSPost2010Prop32
280
     0
102
RTVSPost2010PropOp32
 70
     1
102
RTVSPost2010Prop33
280
     0
102
RTVSPost2010PropOp33
 70
     1
102
RTVSPost2010Prop34
280
     0
102
RTVSPost2010PropOp34
 70
     1
102
RTVSPost2010Prop35
280
     0
102
RTVSPost2010PropOp35
 70
     1
102
RTVSPost2010Prop36
280
     0
102
RTVSPost2010PropOp36
 70
     1
102
RTVSPost2010Prop37
 90
       50
102
RTVSPost2010PropOp37
 70
     1
102
RTVSPost2010Prop38
140
0.0
102
RTVSPost2010PropOp38
 70
     1
102
RTVSPost2010Prop39
140
1.0
102
RTVSPost2010PropOp39
 70
     1
102
RTVSPost2010Prop40
 90
        0
102
RTVSPost2010PropOp40
 70
     1
102
RTVSPost2010Prop41ColorIndex
 90
       18
102
RTVSPost2010Prop41ColorRGB
 90
        0
102
RTVSPost2010PropOp41
 70
     1
102
RTVSPost2010Prop42
 90
       50
102
RTVSPost2010PropOp42
 70
     1
102
RTVSPost2010Prop43
 90
        3
102
RTVSPost2010PropOp43
 70
     1
102
RTVSPost2010Prop44ColorIndex
 90
        5
102
RTVSPost2010Prop44ColorRGB
 90
      255
102
RTVSPost2010PropOp44
 70
     1
102
RTVSPost2010Prop45
280
     0
102
RTVSPost2010PropOp45
 70
     1
102
RTVSPost2010Prop46
 90
       50
102
RTVSPost2010PropOp46
 70
     1
102
RTVSPost2010Prop47
 90
       50
102
RTVSPost2010PropOp47
 70
     1
102
RTVSPost2010Prop48
 90
       50
102
RTVSPost2010PropOp48
 70
     1
102
RTVSPost2010Prop49
280
     0
102
RTVSPost2010PropOp49
 70
     1
102
RTVSPost2010Prop50
 90
       50
102
RTVSPost2010PropOp50
 70
     1
102
RTVSPost2010Prop51ColorIndex
 90
      256
102
RTVSPost2010Prop51ColorRGB
 90
-16777216
102
RTVSPost2010PropOp51
 70
     0
102
RTVSPost2010Prop52
140
1.0
102
RTVSPost2010PropOp52
 70
     0
102
RTVSPost2010Prop53
 90
        2
102
RTVSPost2010PropOp53
 70
     1
102
RTVSPost2010Prop54
  1
strokes_ogs.tif
102
RTVSPost2010PropOp54
 70
     1
102
RTVSPost2010Prop55
280
     0
102
RTVSPost2010PropOp55
 70
     1
102
RTVSPost2010Prop56
140
1.0
102
RTVSPost2010PropOp56
 70
     1
102
RTVSPost2010Prop57
140
1.0
102
RTVSPost2010PropOp57
 70
     1
  0
XRECORD
  5
302
102
{ACAD_REACTORS
330
301
102
}
330
301
100
AcDbXrecord
280
     1
102
RTVSPropertyOp0
 70
     1
102
RTVSPropertyOp1
 70
     1
102
RTVSPropertyOp2
 70
     1
102
RTVSPropertyOp3
 70
     1
102
RTVSPropertyOp4
 70
     1
102
RTVSPropertyOp5
 70
     1
102
RTVSPropertyOp6
 70
     1
102
RTVSPropertyOp7
 70
     1
102
RTVSPropertyOp8
 70
     1
102
RTVSPropertyOp9
 70
     1
102
RTVSPropertyOp10
 70
     1
102
RTVSPropertyOp11
 70
     1
102
RTVSPropertyOp12
 70
     1
102
RTVSPropertyOp13
 70
     1
102
RTVSPropertyOp14
 70
     1
102
RTVSPropertyOp15
 70
     1
102
RTVSPropertyOp16
 70
     1
102
RTVSPropertyOp17
 70
     1
102
RTVSPropertyOp18
 70
     1
102
RTVSPropertyOp19
 70
     1
102
RTVSPropertyOp20
 70
     1
102
RTVSPropertyOp21
 70
     1
102
RTVSPropertyOp22
 70
     1
102
RTVSPropertyOp23
 70
     1
102
RTVSPropertyOp24
 70
     1
102
RTVSPropertyOp25
 70
     1
102
RTVSPropertyOp26
 70
     1
102
RTVSPropertyOp27
 70
     1
102
RTVSPropertyOp28
 70
     1
102
RTVSPropertyOp29
 70
     1
102
RTVSPropertyOp30
 70
     1
102
RTVSPropertyOp31
 70
     1
102
RTVSPropertyOp32
 70
     1
102
RTVSPropertyOp33
 70
     1
102
RTVSPropertyOp34
 70
     1
102
RTVSPropertyOp35
 70
     1
102
RTVSPropertyOp36
 70
     1
102
RTVSPropertyOp37
 70
     1
102
RTVSPropertyOp38
 70
     1
102
RTVSPropertyOp39
 70
     1
102
RTVSPropertyOp40
 70
     1
102
RTVSPropertyOp41
 70
     1
102
RTVSPropertyOp42
 70
     1
102
RTVSPropertyOp43
 70
     1
102
RTVSPropertyOp44
 70
     1
102
RTVSPropertyOp45
 70
     1
102
RTVSPropertyOp46
 70
     1
102
RTVSPropertyOp47
 70
     1
102
RTVSPropertyOp48
 70
     1
102
RTVSPropertyOp49
 70
     1
102
RTVSPropertyOp50
 70
     1
102
RTVSPropertyOp51
 70
     0
102
RTVSPropertyOp52
 70
     0
102
RTVSPropertyOp53
 70
     1
102
RTVSPropertyOp54
 70
     1
102
RTVSPropertyOp55
 70
     1
102
RTVSPropertyOp56
 70
     1
102
RTVSPropertyOp57
 70
     1
102
RTVSPost2010Prop28
280
     0
102
RTVSPost2010PropOp28
 70
     1
102
RTVSPost2010Prop29
280
     1
102
RTVSPost2010PropOp29
 70
     1
102
RTVSPost2010Prop30
280
     1
102
RTVSPost2010PropOp30
 70
     1
102
RTVSPost2010Prop31
280
     0
102
RTVSPost2010PropOp31
 70
     1
102
RTVSPost2010Prop32
280
     0
102
RTVSPost2010PropOp32
 70
     1
102
RTVSPost2010Prop33
280
     0
102
RTVSPost2010PropOp33
 70
     1
102
RTVSPost2010Prop34
280
     0
102
RTVSPost2010PropOp34
 70
     1
102
RTVSPost2010Prop35
280
     0
102
RTVSPost2010PropOp35
 70
     1
102
RTVSPost2010Prop36
280
     0
102
RTVSPost2010PropOp36
 70
     1
102
RTVSPost2010Prop37
 90
       50
102
RTVSPost2010PropOp37
 70
     1
102
RTVSPost2010Prop38
140
0.0
102
RTVSPost2010PropOp38
 70
     1
102
RTVSPost2010Prop39
140
1.0
102
RTVSPost2010PropOp39
 70
     1
102
RTVSPost2010Prop40
 90
        0
102
RTVSPost2010PropOp40
 70
     1
102
RTVSPost2010Prop41ColorIndex
 90
       18
102
RTVSPost2010Prop41ColorRGB
 90
        0
102
RTVSPost2010PropOp41
 70
     1
102
RTVSPost2010Prop42
 90
       50
102
RTVSPost2010PropOp42
 70
     1
102
RTVSPost2010Prop43
 90
        3
102
RTVSPost2010PropOp43
 70
     1
102
RTVSPost2010Prop44ColorIndex
 90
        5
102
RTVSPost2010Prop44ColorRGB
 90
      255
102
RTVSPost2010PropOp44
 70
     1
102
RTVSPost2010Prop45
280
     0
102
RTVSPost2010PropOp45
 70
     1
102
RTVSPost2010Prop46
 90
       50
102
RTVSPost2010PropOp46
 70
     1
102
RTVSPost2010Prop47
 90
       50
102
RTVSPost2010PropOp47
 70
     1
102
RTVSPost2010Prop48
 90
       50
102
RTVSPost2010PropOp48
 70
     1
102
RTVSPost2010Prop49
280
     0
102
RTVSPost2010PropOp49
 70
     1
102
RTVSPost2010Prop50
 90
       50
102
RTVSPost2010PropOp50
 70
     1
102
RTVSPost2010Prop51ColorIndex
 90
      256
102
RTVSPost2010Prop51ColorRGB
 90
-16777216
102
RTVSPost2010PropOp51
 70
     0
102
RTVSPost2010Prop52
140
1.0
102
RTVSPost2010PropOp52
 70
     0
102
RTVSPost2010Prop53
 90
        2
102
RTVSPost2010PropOp53
 70
     1
102
RTVSPost2010Prop54
  1
strokes_ogs.tif
102
RTVSPost2010PropOp54
 70
     1
102
RTVSPost2010Prop55
280
     0
102
RTVSPost2010PropOp55
 70
     1
102
RTVSPost2010Prop56
140
1.0
102
RTVSPost2010PropOp56
 70
     1
102
RTVSPost2010Prop57
140
1.0
102
RTVSPost2010PropOp57
 70
     1
  0
XRECORD
  5
30A
102
{ACAD_REACTORS
330
309
102
}
330
309
100
AcDbXrecord
280
     1
102
RTVSPropertyOp0
 70
     1
102
RTVSPropertyOp1
 70
     1
102
RTVSPropertyOp2
 70
     1
102
RTVSPropertyOp3
 70
     1
102
RTVSPropertyOp4
 70
     1
102
RTVSPropertyOp5
 70
     1
102
RTVSPropertyOp6
 70
     1
102
RTVSPropertyOp7
 70
     1
102
RTVSPropertyOp8
 70
     1
102
RTVSPropertyOp9
 70
     1
102
RTVSPropertyOp10
 70
     1
102
RTVSPropertyOp11
 70
     1
102
RTVSPropertyOp12
 70
     1
102
RTVSPropertyOp13
 70
     1
102
RTVSPropertyOp14
 70
     1
102
RTVSPropertyOp15
 70
     1
102
RTVSPropertyOp16
 70
     1
102
RTVSPropertyOp17
 70
     1
102
RTVSPropertyOp18
 70
     1
102
RTVSPropertyOp19
 70
     1
102
RTVSPropertyOp20
 70
     1
102
RTVSPropertyOp21
 70
     1
102
RTVSPropertyOp22
 70
     1
102
RTVSPropertyOp23
 70
     1
102
RTVSPropertyOp24
 70
     1
102
RTVSPropertyOp25
 70
     1
102
RTVSPropertyOp26
 70
     1
102
RTVSPropertyOp27
 70
     1
102
RTVSPropertyOp28
 70
     1
102
RTVSPropertyOp29
 70
     1
102
RTVSPropertyOp30
 70
     1
102
RTVSPropertyOp31
 70
     1
102
RTVSPropertyOp32
 70
     1
102
RTVSPropertyOp33
 70
     1
102
RTVSPropertyOp34
 70
     1
102
RTVSPropertyOp35
 70
     1
102
RTVSPropertyOp36
 70
     1
102
RTVSPropertyOp37
 70
     1
102
RTVSPropertyOp38
 70
     1
102
RTVSPropertyOp39
 70
     1
102
RTVSPropertyOp40
 70
     1
102
RTVSPropertyOp41
 70
     1
102
RTVSPropertyOp42
 70
     1
102
RTVSPropertyOp43
 70
     1
102
RTVSPropertyOp44
 70
     1
102
RTVSPropertyOp45
 70
     1
102
RTVSPropertyOp46
 70
     1
102
RTVSPropertyOp47
 70
     1
102
RTVSPropertyOp48
 70
     1
102
RTVSPropertyOp49
 70
     1
102
RTVSPropertyOp50
 70
     1
102
RTVSPropertyOp51
 70
     0
102
RTVSPropertyOp52
 70
     0
102
RTVSPropertyOp53
 70
     1
102
RTVSPropertyOp54
 70
     1
102
RTVSPropertyOp55
 70
     1
102
RTVSPropertyOp56
 70
     1
102
RTVSPropertyOp57
 70
     1
102
RTVSPost2010Prop28
280
     0
102
RTVSPost2010PropOp28
 70
     1
102
RTVSPost2010Prop29
280
     1
102
RTVSPost2010PropOp29
 70
     1
102
RTVSPost2010Prop30
280
     1
102
RTVSPost2010PropOp30
 70
     1
102
RTVSPost2010Prop31
280
     0
102
RTVSPost2010PropOp31
 70
     1
102
RTVSPost2010Prop32
280
     0
102
RTVSPost2010PropOp32
 70
     1
102
RTVSPost2010Prop33
280
     0
102
RTVSPost2010PropOp33
 70
     1
102
RTVSPost2010Prop34
280
     0
102
RTVSPost2010PropOp34
 70
     1
102
RTVSPost2010Prop35
280
     0
102
RTVSPost2010PropOp35
 70
     1
102
RTVSPost2010Prop36
280
     0
102
RTVSPost2010PropOp36
 70
     1
102
RTVSPost2010Prop37
 90
       50
102
RTVSPost2010PropOp37
 70
     1
102
RTVSPost2010Prop38
140
0.0
102
RTVSPost2010PropOp38
 70
     1
102
RTVSPost2010Prop39
140
1.0
102
RTVSPost2010PropOp39
 70
     1
102
RTVSPost2010Prop40
 90
        0
102
RTVSPost2010PropOp40
 70
     1
102
RTVSPost2010Prop41ColorIndex
 90
       18
102
RTVSPost2010Prop41ColorRGB
 90
        0
102
RTVSPost2010PropOp41
 70
     1
102
RTVSPost2010Prop42
 90
       50
102
RTVSPost2010PropOp42
 70
     1
102
RTVSPost2010Prop43
 90
        3
102
RTVSPost2010PropOp43
 70
     1
102
RTVSPost2010Prop44ColorIndex
 90
        5
102
RTVSPost2010Prop44ColorRGB
 90
      255
102
RTVSPost2010PropOp44
 70
     1
102
RTVSPost2010Prop45
280
     0
102
RTVSPost2010PropOp45
 70
     1
102
RTVSPost2010Prop46
 90
       50
102
RTVSPost2010PropOp46
 70
     1
102
RTVSPost2010Prop47
 90
       50
102
RTVSPost2010PropOp47
 70
     1
102
RTVSPost2010Prop48
 90
       50
102
RTVSPost2010PropOp48
 70
     1
102
RTVSPost2010Prop49
280
     0
102
RTVSPost2010PropOp49
 70
     1
102
RTVSPost2010Prop50
 90
       50
102
RTVSPost2010PropOp50
 70
     1
102
RTVSPost2010Prop51ColorIndex
 90
      256
102
RTVSPost2010Prop51ColorRGB
 90
-16777216
102
RTVSPost2010PropOp51
 70
     0
102
RTVSPost2010Prop52
140
1.0
102
RTVSPost2010PropOp52
 70
     0
102
RTVSPost2010Prop53
 90
        2
102
RTVSPost2010PropOp53
 70
     1
102
RTVSPost2010Prop54
  1
strokes_ogs.tif
102
RTVSPost2010PropOp54
 70
     1
102
RTVSPost2010Prop55
280
     0
102
RTVSPost2010PropOp55
 70
     1
102
RTVSPost2010Prop56
140
1.0
102
RTVSPost2010PropOp56
 70
     1
102
RTVSPost2010Prop57
140
1.0
102
RTVSPost2010PropOp57
 70
     1
  0
XRECORD
  5
2FE
102
{ACAD_REACTORS
330
2FD
102
}
330
2FD
100
AcDbXrecord
280
     1
102
RTVSPropertyOp0
 70
     1
102
RTVSPropertyOp1
 70
     1
102
RTVSPropertyOp2
 70
     1
102
RTVSPropertyOp3
 70
     1
102
RTVSPropertyOp4
 70
     1
102
RTVSPropertyOp5
 70
     1
102
RTVSPropertyOp6
 70
     1
102
RTVSPropertyOp7
 70
     1
102
RTVSPropertyOp8
 70
     1
102
RTVSPropertyOp9
 70
     1
102
RTVSPropertyOp10
 70
     1
102
RTVSPropertyOp11
 70
     1
102
RTVSPropertyOp12
 70
     1
102
RTVSPropertyOp13
 70
     1
102
RTVSPropertyOp14
 70
     1
102
RTVSPropertyOp15
 70
     1
102
RTVSPropertyOp16
 70
     1
102
RTVSPropertyOp17
 70
     1
102
RTVSPropertyOp18
 70
     1
102
RTVSPropertyOp19
 70
     1
102
RTVSPropertyOp20
 70
     1
102
RTVSPropertyOp21
 70
     1
102
RTVSPropertyOp22
 70
     1
102
RTVSPropertyOp23
 70
     1
102
RTVSPropertyOp24
 70
     1
102
RTVSPropertyOp25
 70
     1
102
RTVSPropertyOp26
 70
     1
102
RTVSPropertyOp27
 70
     1
102
RTVSPropertyOp28
 70
     1
102
RTVSPropertyOp29
 70
     1
102
RTVSPropertyOp30
 70
     1
102
RTVSPropertyOp31
 70
     1
102
RTVSPropertyOp32
 70
     1
102
RTVSPropertyOp33
 70
     1
102
RTVSPropertyOp34
 70
     1
102
RTVSPropertyOp35
 70
     1
102
RTVSPropertyOp36
 70
     1
102
RTVSPropertyOp37
 70
     1
102
RTVSPropertyOp38
 70
     1
102
RTVSPropertyOp39
 70
     1
102
RTVSPropertyOp40
 70
     1
102
RTVSPropertyOp41
 70
     1
102
RTVSPropertyOp42
 70
     1
102
RTVSPropertyOp43
 70
     1
102
RTVSPropertyOp44
 70
     1
102
RTVSPropertyOp45
 70
     1
102
RTVSPropertyOp46
 70
     1
102
RTVSPropertyOp47
 70
     1
102
RTVSPropertyOp48
 70
     1
102
RTVSPropertyOp49
 70
     1
102
RTVSPropertyOp50
 70
     1
102
RTVSPropertyOp51
 70
     0
102
RTVSPropertyOp52
 70
     0
102
RTVSPropertyOp53
 70
     1
102
RTVSPropertyOp54
 70
     1
102
RTVSPropertyOp55
 70
     1
102
RTVSPropertyOp56
 70
     1
102
RTVSPropertyOp57
 70
     1
102
RTVSPost2010Prop28
280
     0
102
RTVSPost2010PropOp28
 70
     1
102
RTVSPost2010Prop29
280
     1
102
RTVSPost2010PropOp29
 70
     1
102
RTVSPost2010Prop30
280
     1
102
RTVSPost2010PropOp30
 70
     1
102
RTVSPost2010Prop31
280
     0
102
RTVSPost2010PropOp31
 70
     1
102
RTVSPost2010Prop32
280
     0
102
RTVSPost2010PropOp32
 70
     1
102
RTVSPost2010Prop33
280
     0
102
RTVSPost2010PropOp33
 70
     1
102
RTVSPost2010Prop34
280
     0
102
RTVSPost2010PropOp34
 70
     1
102
RTVSPost2010Prop35
280
     0
102
RTVSPost2010PropOp35
 70
     1
102
RTVSPost2010Prop36
280
     0
102
RTVSPost2010PropOp36
 70
     1
102
RTVSPost2010Prop37
 90
       50
102
RTVSPost2010PropOp37
 70
     1
102
RTVSPost2010Prop38
140
0.0
102
RTVSPost2010PropOp38
 70
     1
102
RTVSPost2010Prop39
140
1.0
102
RTVSPost2010PropOp39
 70
     1
102
RTVSPost2010Prop40
 90
        0
102
RTVSPost2010PropOp40
 70
     1
102
RTVSPost2010Prop41ColorIndex
 90
       18
102
RTVSPost2010Prop41ColorRGB
 90
        0
102
RTVSPost2010PropOp41
 70
     1
102
RTVSPost2010Prop42
 90
       50
102
RTVSPost2010PropOp42
 70
     1
102
RTVSPost2010Prop43
 90
        3
102
RTVSPost2010PropOp43
 70
     1
102
RTVSPost2010Prop44ColorIndex
 90
        5
102
RTVSPost2010Prop44ColorRGB
 90
      255
102
RTVSPost2010PropOp44
 70
     1
102
RTVSPost2010Prop45
280
     0
102
RTVSPost2010PropOp45
 70
     1
102
RTVSPost2010Prop46
 90
       50
102
RTVSPost2010PropOp46
 70
     1
102
RTVSPost2010Prop47
 90
       50
102
RTVSPost2010PropOp47
 70
     1
102
RTVSPost2010Prop48
 90
       50
102
RTVSPost2010PropOp48
 70
     1
102
RTVSPost2010Prop49
280
     0
102
RTVSPost2010PropOp49
 70
     1
102
RTVSPost2010Prop50
 90
       50
102
RTVSPost2010PropOp50
 70
     1
102
RTVSPost2010Prop51ColorIndex
 90
      256
102
RTVSPost2010Prop51ColorRGB
 90
-16777216
102
RTVSPost2010PropOp51
 70
     0
102
RTVSPost2010Prop52
140
1.0
102
RTVSPost2010PropOp52
 70
     0
102
RTVSPost2010Prop53
 90
        2
102
RTVSPost2010PropOp53
 70
     1
102
RTVSPost2010Prop54
  1
strokes_ogs.tif
102
RTVSPost2010PropOp54
 70
     1
102
RTVSPost2010Prop55
280
     0
102
RTVSPost2010PropOp55
 70
     1
102
RTVSPost2010Prop56
140
1.0
102
RTVSPost2010PropOp56
 70
     1
102
RTVSPost2010Prop57
140
1.0
102
RTVSPost2010PropOp57
 70
     1
  0
XRECORD
  5
300
102
{ACAD_REACTORS
330
2FF
102
}
330
2FF
100
AcDbXrecord
280
     1
102
RTVSPropertyOp0
 70
     1
102
RTVSPropertyOp1
 70
     1
102
RTVSPropertyOp2
 70
     1
102
RTVSPropertyOp3
 70
     1
102
RTVSPropertyOp4
 70
     1
102
RTVSPropertyOp5
 70
     1
102
RTVSPropertyOp6
 70
     1
102
RTVSPropertyOp7
 70
     1
102
RTVSPropertyOp8
 70
     1
102
RTVSPropertyOp9
 70
     1
102
RTVSPropertyOp10
 70
     1
102
RTVSPropertyOp11
 70
     1
102
RTVSPropertyOp12
 70
     1
102
RTVSPropertyOp13
 70
     1
102
RTVSPropertyOp14
 70
     1
102
RTVSPropertyOp15
 70
     1
102
RTVSPropertyOp16
 70
     1
102
RTVSPropertyOp17
 70
     1
102
RTVSPropertyOp18
 70
     1
102
RTVSPropertyOp19
 70
     1
102
RTVSPropertyOp20
 70
     1
102
RTVSPropertyOp21
 70
     1
102
RTVSPropertyOp22
 70
     1
102
RTVSPropertyOp23
 70
     1
102
RTVSPropertyOp24
 70
     1
102
RTVSPropertyOp25
 70
     1
102
RTVSPropertyOp26
 70
     1
102
RTVSPropertyOp27
 70
     1
102
RTVSPropertyOp28
 70
     1
102
RTVSPropertyOp29
 70
     1
102
RTVSPropertyOp30
 70
     1
102
RTVSPropertyOp31
 70
     1
102
RTVSPropertyOp32
 70
     1
102
RTVSPropertyOp33
 70
     1
102
RTVSPropertyOp34
 70
     1
102
RTVSPropertyOp35
 70
     1
102
RTVSPropertyOp36
 70
     1
102
RTVSPropertyOp37
 70
     1
102
RTVSPropertyOp38
 70
     1
102
RTVSPropertyOp39
 70
     1
102
RTVSPropertyOp40
 70
     1
102
RTVSPropertyOp41
 70
     1
102
RTVSPropertyOp42
 70
     1
102
RTVSPropertyOp43
 70
     1
102
RTVSPropertyOp44
 70
     1
102
RTVSPropertyOp45
 70
     1
102
RTVSPropertyOp46
 70
     1
102
RTVSPropertyOp47
 70
     1
102
RTVSPropertyOp48
 70
     1
102
RTVSPropertyOp49
 70
     1
102
RTVSPropertyOp50
 70
     1
102
RTVSPropertyOp51
 70
     0
102
RTVSPropertyOp52
 70
     0
102
RTVSPropertyOp53
 70
     1
102
RTVSPropertyOp54
 70
     1
102
RTVSPropertyOp55
 70
     1
102
RTVSPropertyOp56
 70
     1
102
RTVSPropertyOp57
 70
     1
102
RTVSPost2010Prop28
280
     0
102
RTVSPost2010PropOp28
 70
     1
102
RTVSPost2010Prop29
280
     1
102
RTVSPost2010PropOp29
 70
     1
102
RTVSPost2010Prop30
280
     1
102
RTVSPost2010PropOp30
 70
     1
102
RTVSPost2010Prop31
280
     0
102
RTVSPost2010PropOp31
 70
     1
102
RTVSPost2010Prop32
280
     0
102
RTVSPost2010PropOp32
 70
     1
102
RTVSPost2010Prop33
280
     0
102
RTVSPost2010PropOp33
 70
     1
102
RTVSPost2010Prop34
280
     0
102
RTVSPost2010PropOp34
 70
     1
102
RTVSPost2010Prop35
280
     0
102
RTVSPost2010PropOp35
 70
     1
102
RTVSPost2010Prop36
280
     0
102
RTVSPost2010PropOp36
 70
     1
102
RTVSPost2010Prop37
 90
       50
102
RTVSPost2010PropOp37
 70
     1
102
RTVSPost2010Prop38
140
0.0
102
RTVSPost2010PropOp38
 70
     1
102
RTVSPost2010Prop39
140
1.0
102
RTVSPost2010PropOp39
 70
     1
102
RTVSPost2010Prop40
 90
        0
102
RTVSPost2010PropOp40
 70
     1
102
RTVSPost2010Prop41ColorIndex
 90
       18
102
RTVSPost2010Prop41ColorRGB
 90
        0
102
RTVSPost2010PropOp41
 70
     1
102
RTVSPost2010Prop42
 90
       50
102
RTVSPost2010PropOp42
 70
     1
102
RTVSPost2010Prop43
 90
        3
102
RTVSPost2010PropOp43
 70
     1
102
RTVSPost2010Prop44ColorIndex
 90
        5
102
RTVSPost2010Prop44ColorRGB
 90
      255
102
RTVSPost2010PropOp44
 70
     1
102
RTVSPost2010Prop45
280
     0
102
RTVSPost2010PropOp45
 70
     1
102
RTVSPost2010Prop46
 90
       50
102
RTVSPost2010PropOp46
 70
     1
102
RTVSPost2010Prop47
 90
       50
102
RTVSPost2010PropOp47
 70
     1
102
RTVSPost2010Prop48
 90
       50
102
RTVSPost2010PropOp48
 70
     1
102
RTVSPost2010Prop49
280
     0
102
RTVSPost2010PropOp49
 70
     1
102
RTVSPost2010Prop50
 90
       50
102
RTVSPost2010PropOp50
 70
     1
102
RTVSPost2010Prop51ColorIndex
 90
      256
102
RTVSPost2010Prop51ColorRGB
 90
-16777216
102
RTVSPost2010PropOp51
 70
     0
102
RTVSPost2010Prop52
140
1.0
102
RTVSPost2010PropOp52
 70
     0
102
RTVSPost2010Prop53
 90
        2
102
RTVSPost2010PropOp53
 70
     1
102
RTVSPost2010Prop54
  1
strokes_ogs.tif
102
RTVSPost2010PropOp54
 70
     1
102
RTVSPost2010Prop55
280
     0
102
RTVSPost2010PropOp55
 70
     1
102
RTVSPost2010Prop56
140
1.0
102
RTVSPost2010PropOp56
 70
     1
102
RTVSPost2010Prop57
140
1.0
102
RTVSPost2010PropOp57
 70
     1
  0
XRECORD
  5
310
102
{ACAD_REACTORS
330
30F
102
}
330
30F
100
AcDbXrecord
280
     1
102
RTVSPropertyOp0
 70
     0
102
RTVSPropertyOp1
 70
     0
102
RTVSPropertyOp2
 70
     0
102
RTVSPropertyOp3
 70
     0
102
RTVSPropertyOp4
 70
     0
102
RTVSPropertyOp5
 70
     0
102
RTVSPropertyOp6
 70
     0
102
RTVSPropertyOp7
 70
     0
102
RTVSPropertyOp8
 70
     0
102
RTVSPropertyOp9
 70
     0
102
RTVSPropertyOp10
 70
     0
102
RTVSPropertyOp11
 70
     0
102
RTVSPropertyOp12
 70
     0
102
RTVSPropertyOp13
 70
     0
102
RTVSPropertyOp14
 70
     2
102
RTVSPropertyOp15
 70
     0
102
RTVSPropertyOp16
 70
     0
102
RTVSPropertyOp17
 70
     0
102
RTVSPropertyOp18
 70
     0
102
RTVSPropertyOp19
 70
     0
102
RTVSPropertyOp20
 70
     0
102
RTVSPropertyOp21
 70
     0
102
RTVSPropertyOp22
 70
     0
102
RTVSPropertyOp23
 70
     0
102
RTVSPropertyOp24
 70
     0
102
RTVSPropertyOp25
 70
     0
102
RTVSPropertyOp26
 70
     0
102
RTVSPropertyOp27
 70
     0
102
RTVSPropertyOp28
 70
     0
102
RTVSPropertyOp29
 70
     0
102
RTVSPropertyOp30
 70
     0
102
RTVSPropertyOp31
 70
     0
102
RTVSPropertyOp32
 70
     0
102
RTVSPropertyOp33
 70
     0
102
RTVSPropertyOp34
 70
     0
102
RTVSPropertyOp35
 70
     0
102
RTVSPropertyOp36
 70
     0
102
RTVSPropertyOp37
 70
     0
102
RTVSPropertyOp38
 70
     0
102
RTVSPropertyOp39
 70
     0
102
RTVSPropertyOp40
 70
     0
102
RTVSPropertyOp41
 70
     0
102
RTVSPropertyOp42
 70
     0
102
RTVSPropertyOp43
 70
     0
102
RTVSPropertyOp44
 70
     0
102
RTVSPropertyOp45
 70
     0
102
RTVSPropertyOp46
 70
     0
102
RTVSPropertyOp47
 70
     0
102
RTVSPropertyOp48
 70
     0
102
RTVSPropertyOp49
 70
     0
102
RTVSPropertyOp50
 70
     0
102
RTVSPropertyOp51
 70
     0
102
RTVSPropertyOp52
 70
     0
102
RTVSPropertyOp53
 70
     0
102
RTVSPropertyOp54
 70
     0
102
RTVSPropertyOp55
 70
     0
102
RTVSPropertyOp56
 70
     0
102
RTVSPropertyOp57
 70
     0
102
RTVSPost2010Prop28
280
     0
102
RTVSPost2010PropOp28
 70
     0
102
RTVSPost2010Prop29
280
     1
102
RTVSPost2010PropOp29
 70
     0
102
RTVSPost2010Prop30
280
     1
102
RTVSPost2010PropOp30
 70
     0
102
RTVSPost2010Prop31
280
     0
102
RTVSPost2010PropOp31
 70
     0
102
RTVSPost2010Prop32
280
     0
102
RTVSPost2010PropOp32
 70
     0
102
RTVSPost2010Prop33
280
     0
102
RTVSPost2010PropOp33
 70
     0
102
RTVSPost2010Prop34
280
     0
102
RTVSPost2010PropOp34
 70
     0
102
RTVSPost2010Prop35
280
     0
102
RTVSPost2010PropOp35
 70
     0
102
RTVSPost2010Prop36
280
     0
102
RTVSPost2010PropOp36
 70
     0
102
RTVSPost2010Prop37
 90
       50
102
RTVSPost2010PropOp37
 70
     0
102
RTVSPost2010Prop38
140
0.0
102
RTVSPost2010PropOp38
 70
     0
102
RTVSPost2010Prop39
140
1.0
102
RTVSPost2010PropOp39
 70
     0
102
RTVSPost2010Prop40
 90
        0
102
RTVSPost2010PropOp40
 70
     0
102
RTVSPost2010Prop41ColorIndex
 90
       18
102
RTVSPost2010Prop41ColorRGB
 90
        0
102
RTVSPost2010PropOp41
 70
     0
102
RTVSPost2010Prop42
 90
       50
102
RTVSPost2010PropOp42
 70
     0
102
RTVSPost2010Prop43
 90
        3
102
RTVSPost2010PropOp43
 70
     0
102
RTVSPost2010Prop44ColorIndex
 90
        5
102
RTVSPost2010Prop44ColorRGB
 90
      255
102
RTVSPost2010PropOp44
 70
     0
102
RTVSPost2010Prop45
280
     0
102
RTVSPost2010PropOp45
 70
     0
102
RTVSPost2010Prop46
 90
       50
102
RTVSPost2010PropOp46
 70
     0
102
RTVSPost2010Prop47
 90
       50
102
RTVSPost2010PropOp47
 70
     0
102
RTVSPost2010Prop48
 90
       50
102
RTVSPost2010PropOp48
 70
     0
102
RTVSPost2010Prop49
280
     0
102
RTVSPost2010PropOp49
 70
     0
102
RTVSPost2010Prop50
 90
       50
102
RTVSPost2010PropOp50
 70
     0
102
RTVSPost2010Prop51ColorIndex
 90
      256
102
RTVSPost2010Prop51ColorRGB
 90
-16777216
102
RTVSPost2010PropOp51
 70
     0
102
RTVSPost2010Prop52
140
1.0
102
RTVSPost2010PropOp52
 70
     0
102
RTVSPost2010Prop53
 90
        2
102
RTVSPost2010PropOp53
 70
     0
102
RTVSPost2010Prop54
  1
strokes_ogs.tif
102
RTVSPost2010PropOp54
 70
     0
102
RTVSPost2010Prop55
280
     0
102
RTVSPost2010PropOp55
 70
     0
102
RTVSPost2010Prop56
140
1.0
102
RTVSPost2010PropOp56
 70
     0
102
RTVSPost2010Prop57
140
1.0
102
RTVSPost2010PropOp57
 70
     0
  0
XRECORD
  5
308
102
{ACAD_REACTORS
330
307
102
}
330
307
100
AcDbXrecord
280
     1
102
RTVSPropertyOp0
 70
     1
102
RTVSPropertyOp1
 70
     1
102
RTVSPropertyOp2
 70
     1
102
RTVSPropertyOp3
 70
     1
102
RTVSPropertyOp4
 70
     1
102
RTVSPropertyOp5
 70
     1
102
RTVSPropertyOp6
 70
     1
102
RTVSPropertyOp7
 70
     1
102
RTVSPropertyOp8
 70
     1
102
RTVSPropertyOp9
 70
     1
102
RTVSPropertyOp10
 70
     1
102
RTVSPropertyOp11
 70
     1
102
RTVSPropertyOp12
 70
     1
102
RTVSPropertyOp13
 70
     1
102
RTVSPropertyOp14
 70
     1
102
RTVSPropertyOp15
 70
     1
102
RTVSPropertyOp16
 70
     1
102
RTVSPropertyOp17
 70
     1
102
RTVSPropertyOp18
 70
     1
102
RTVSPropertyOp19
 70
     1
102
RTVSPropertyOp20
 70
     1
102
RTVSPropertyOp21
 70
     1
102
RTVSPropertyOp22
 70
     1
102
RTVSPropertyOp23
 70
     1
102
RTVSPropertyOp24
 70
     1
102
RTVSPropertyOp25
 70
     1
102
RTVSPropertyOp26
 70
     1
102
RTVSPropertyOp27
 70
     1
102
RTVSPropertyOp28
 70
     1
102
RTVSPropertyOp29
 70
     1
102
RTVSPropertyOp30
 70
     1
102
RTVSPropertyOp31
 70
     1
102
RTVSPropertyOp32
 70
     1
102
RTVSPropertyOp33
 70
     1
102
RTVSPropertyOp34
 70
     1
102
RTVSPropertyOp35
 70
     1
102
RTVSPropertyOp36
 70
     1
102
RTVSPropertyOp37
 70
     1
102
RTVSPropertyOp38
 70
     1
102
RTVSPropertyOp39
 70
     1
102
RTVSPropertyOp40
 70
     1
102
RTVSPropertyOp41
 70
     1
102
RTVSPropertyOp42
 70
     1
102
RTVSPropertyOp43
 70
     1
102
RTVSPropertyOp44
 70
     1
102
RTVSPropertyOp45
 70
     1
102
RTVSPropertyOp46
 70
     1
102
RTVSPropertyOp47
 70
     1
102
RTVSPropertyOp48
 70
     1
102
RTVSPropertyOp49
 70
     1
102
RTVSPropertyOp50
 70
     1
102
RTVSPropertyOp51
 70
     0
102
RTVSPropertyOp52
 70
     0
102
RTVSPropertyOp53
 70
     1
102
RTVSPropertyOp54
 70
     1
102
RTVSPropertyOp55
 70
     1
102
RTVSPropertyOp56
 70
     1
102
RTVSPropertyOp57
 70
     1
102
RTVSPost2010Prop28
280
     0
102
RTVSPost2010PropOp28
 70
     1
102
RTVSPost2010Prop29
280
     1
102
RTVSPost2010PropOp29
 70
     1
102
RTVSPost2010Prop30
280
     1
102
RTVSPost2010PropOp30
 70
     1
102
RTVSPost2010Prop31
280
     0
102
RTVSPost2010PropOp31
 70
     1
102
RTVSPost2010Prop32
280
     0
102
RTVSPost2010PropOp32
 70
     1
102
RTVSPost2010Prop33
280
     0
102
RTVSPost2010PropOp33
 70
     1
102
RTVSPost2010Prop34
280
     0
102
RTVSPost2010PropOp34
 70
     1
102
RTVSPost2010Prop35
280
     0
102
RTVSPost2010PropOp35
 70
     1
102
RTVSPost2010Prop36
280
     0
102
RTVSPost2010PropOp36
 70
     1
102
RTVSPost2010Prop37
 90
       50
102
RTVSPost2010PropOp37
 70
     1
102
RTVSPost2010Prop38
140
0.0
102
RTVSPost2010PropOp38
 70
     1
102
RTVSPost2010Prop39
140
1.0
102
RTVSPost2010PropOp39
 70
     1
102
RTVSPost2010Prop40
 90
        0
102
RTVSPost2010PropOp40
 70
     1
102
RTVSPost2010Prop41ColorIndex
 90
       18
102
RTVSPost2010Prop41ColorRGB
 90
        0
102
RTVSPost2010PropOp41
 70
     1
102
RTVSPost2010Prop42
 90
       50
102
RTVSPost2010PropOp42
 70
     1
102
RTVSPost2010Prop43
 90
        3
102
RTVSPost2010PropOp43
 70
     1
102
RTVSPost2010Prop44ColorIndex
 90
        5
102
RTVSPost2010Prop44ColorRGB
 90
      255
102
RTVSPost2010PropOp44
 70
     1
102
RTVSPost2010Prop45
280
     0
102
RTVSPost2010PropOp45
 70
     1
102
RTVSPost2010Prop46
 90
       50
102
RTVSPost2010PropOp46
 70
     1
102
RTVSPost2010Prop47
 90
       50
102
RTVSPost2010PropOp47
 70
     1
102
RTVSPost2010Prop48
 90
       50
102
RTVSPost2010PropOp48
 70
     1
102
RTVSPost2010Prop49
280
     0
102
RTVSPost2010PropOp49
 70
     1
102
RTVSPost2010Prop50
 90
       50
102
RTVSPost2010PropOp50
 70
     1
102
RTVSPost2010Prop51ColorIndex
 90
      256
102
RTVSPost2010Prop51ColorRGB
 90
-16777216
102
RTVSPost2010PropOp51
 70
     0
102
RTVSPost2010Prop52
140
1.0
102
RTVSPost2010PropOp52
 70
     0
102
RTVSPost2010Prop53
 90
        2
102
RTVSPost2010PropOp53
 70
     1
102
RTVSPost2010Prop54
  1
strokes_ogs.tif
102
RTVSPost2010PropOp54
 70
     1
102
RTVSPost2010Prop55
280
     0
102
RTVSPost2010PropOp55
 70
     1
102
RTVSPost2010Prop56
140
1.0
102
RTVSPost2010PropOp56
 70
     1
102
RTVSPost2010Prop57
140
1.0
102
RTVSPost2010PropOp57
 70
     1
  0
XRECORD
  5
2EC
102
{ACAD_REACTORS
330
2EB
102
}
330
2EB
100
AcDbXrecord
280
     1
102
RTVSPropertyOp0
 70
     1
102
RTVSPropertyOp1
 70
     1
102
RTVSPropertyOp2
 70
     1
102
RTVSPropertyOp3
 70
     1
102
RTVSPropertyOp4
 70
     1
102
RTVSPropertyOp5
 70
     1
102
RTVSPropertyOp6
 70
     1
102
RTVSPropertyOp7
 70
     1
102
RTVSPropertyOp8
 70
     1
102
RTVSPropertyOp9
 70
     1
102
RTVSPropertyOp10
 70
     1
102
RTVSPropertyOp11
 70
     1
102
RTVSPropertyOp12
 70
     1
102
RTVSPropertyOp13
 70
     1
102
RTVSPropertyOp14
 70
     1
102
RTVSPropertyOp15
 70
     1
102
RTVSPropertyOp16
 70
     1
102
RTVSPropertyOp17
 70
     1
102
RTVSPropertyOp18
 70
     1
102
RTVSPropertyOp19
 70
     1
102
RTVSPropertyOp20
 70
     1
102
RTVSPropertyOp21
 70
     1
102
RTVSPropertyOp22
 70
     1
102
RTVSPropertyOp23
 70
     1
102
RTVSPropertyOp24
 70
     1
102
RTVSPropertyOp25
 70
     1
102
RTVSPropertyOp26
 70
     1
102
RTVSPropertyOp27
 70
     1
102
RTVSPropertyOp28
 70
     1
102
RTVSPropertyOp29
 70
     1
102
RTVSPropertyOp30
 70
     1
102
RTVSPropertyOp31
 70
     1
102
RTVSPropertyOp32
 70
     1
102
RTVSPropertyOp33
 70
     1
102
RTVSPropertyOp34
 70
     1
102
RTVSPropertyOp35
 70
     1
102
RTVSPropertyOp36
 70
     1
102
RTVSPropertyOp37
 70
     1
102
RTVSPropertyOp38
 70
     1
102
RTVSPropertyOp39
 70
     1
102
RTVSPropertyOp40
 70
     1
102
RTVSPropertyOp41
 70
     1
102
RTVSPropertyOp42
 70
     1
102
RTVSPropertyOp43
 70
     1
102
RTVSPropertyOp44
 70
     1
102
RTVSPropertyOp45
 70
     1
102
RTVSPropertyOp46
 70
     1
102
RTVSPropertyOp47
 70
     1
102
RTVSPropertyOp48
 70
     1
102
RTVSPropertyOp49
 70
     1
102
RTVSPropertyOp50
 70
     1
102
RTVSPropertyOp51
 70
     0
102
RTVSPropertyOp52
 70
     0
102
RTVSPropertyOp53
 70
     1
102
RTVSPropertyOp54
 70
     1
102
RTVSPropertyOp55
 70
     1
102
RTVSPropertyOp56
 70
     1
102
RTVSPropertyOp57
 70
     1
102
RTVSPost2010Prop28
280
     0
102
RTVSPost2010PropOp28
 70
     1
102
RTVSPost2010Prop29
280
     1
102
RTVSPost2010PropOp29
 70
     1
102
RTVSPost2010Prop30
280
     1
102
RTVSPost2010PropOp30
 70
     1
102
RTVSPost2010Prop31
280
     0
102
RTVSPost2010PropOp31
 70
     1
102
RTVSPost2010Prop32
280
     0
102
RTVSPost2010PropOp32
 70
     1
102
RTVSPost2010Prop33
280
     0
102
RTVSPost2010PropOp33
 70
     1
102
RTVSPost2010Prop34
280
     0
102
RTVSPost2010PropOp34
 70
     1
102
RTVSPost2010Prop35
280
     0
102
RTVSPost2010PropOp35
 70
     1
102
RTVSPost2010Prop36
280
     0
102
RTVSPost2010PropOp36
 70
     1
102
RTVSPost2010Prop37
 90
       50
102
RTVSPost2010PropOp37
 70
     1
102
RTVSPost2010Prop38
140
0.0
102
RTVSPost2010PropOp38
 70
     1
102
RTVSPost2010Prop39
140
1.0
102
RTVSPost2010PropOp39
 70
     1
102
RTVSPost2010Prop40
 90
        0
102
RTVSPost2010PropOp40
 70
     1
102
RTVSPost2010Prop41ColorIndex
 90
       18
102
RTVSPost2010Prop41ColorRGB
 90
        0
102
RTVSPost2010PropOp41
 70
     1
102
RTVSPost2010Prop42
 90
       50
102
RTVSPost2010PropOp42
 70
     1
102
RTVSPost2010Prop43
 90
        3
102
RTVSPost2010PropOp43
 70
     1
102
RTVSPost2010Prop44ColorIndex
 90
        5
102
RTVSPost2010Prop44ColorRGB
 90
      255
102
RTVSPost2010PropOp44
 70
     1
102
RTVSPost2010Prop45
280
     0
102
RTVSPost2010PropOp45
 70
     1
102
RTVSPost2010Prop46
 90
       50
102
RTVSPost2010PropOp46
 70
     1
102
RTVSPost2010Prop47
 90
       50
102
RTVSPost2010PropOp47
 70
     1
102
RTVSPost2010Prop48
 90
       50
102
RTVSPost2010PropOp48
 70
     1
102
RTVSPost2010Prop49
280
     0
102
RTVSPost2010PropOp49
 70
     1
102
RTVSPost2010Prop50
 90
       50
102
RTVSPost2010PropOp50
 70
     1
102
RTVSPost2010Prop51ColorIndex
 90
      256
102
RTVSPost2010Prop51ColorRGB
 90
-16777216
102
RTVSPost2010PropOp51
 70
     0
102
RTVSPost2010Prop52
140
1.0
102
RTVSPost2010PropOp52
 70
     0
102
RTVSPost2010Prop53
 90
        2
102
RTVSPost2010PropOp53
 70
     1
102
RTVSPost2010Prop54
  1
strokes_ogs.tif
102
RTVSPost2010PropOp54
 70
     1
102
RTVSPost2010Prop55
280
     0
102
RTVSPost2010PropOp55
 70
     1
102
RTVSPost2010Prop56
140
1.0
102
RTVSPost2010PropOp56
 70
     1
102
RTVSPost2010Prop57
140
1.0
102
RTVSPost2010PropOp57
 70
     1
  0
XRECORD
  5
2EE
102
{ACAD_REACTORS
330
2ED
102
}
330
2ED
100
AcDbXrecord
280
     1
102
RTVSPropertyOp0
 70
     1
102
RTVSPropertyOp1
 70
     1
102
RTVSPropertyOp2
 70
     1
102
RTVSPropertyOp3
 70
     1
102
RTVSPropertyOp4
 70
     1
102
RTVSPropertyOp5
 70
     1
102
RTVSPropertyOp6
 70
     1
102
RTVSPropertyOp7
 70
     1
102
RTVSPropertyOp8
 70
     1
102
RTVSPropertyOp9
 70
     1
102
RTVSPropertyOp10
 70
     1
102
RTVSPropertyOp11
 70
     1
102
RTVSPropertyOp12
 70
     1
102
RTVSPropertyOp13
 70
     1
102
RTVSPropertyOp14
 70
     1
102
RTVSPropertyOp15
 70
     1
102
RTVSPropertyOp16
 70
     1
102
RTVSPropertyOp17
 70
     1
102
RTVSPropertyOp18
 70
     1
102
RTVSPropertyOp19
 70
     1
102
RTVSPropertyOp20
 70
     1
102
RTVSPropertyOp21
 70
     1
102
RTVSPropertyOp22
 70
     1
102
RTVSPropertyOp23
 70
     1
102
RTVSPropertyOp24
 70
     1
102
RTVSPropertyOp25
 70
     1
102
RTVSPropertyOp26
 70
     1
102
RTVSPropertyOp27
 70
     1
102
RTVSPropertyOp28
 70
     1
102
RTVSPropertyOp29
 70
     1
102
RTVSPropertyOp30
 70
     1
102
RTVSPropertyOp31
 70
     1
102
RTVSPropertyOp32
 70
     1
102
RTVSPropertyOp33
 70
     1
102
RTVSPropertyOp34
 70
     1
102
RTVSPropertyOp35
 70
     1
102
RTVSPropertyOp36
 70
     1
102
RTVSPropertyOp37
 70
     1
102
RTVSPropertyOp38
 70
     1
102
RTVSPropertyOp39
 70
     1
102
RTVSPropertyOp40
 70
     1
102
RTVSPropertyOp41
 70
     1
102
RTVSPropertyOp42
 70
     1
102
RTVSPropertyOp43
 70
     1
102
RTVSPropertyOp44
 70
     1
102
RTVSPropertyOp45
 70
     1
102
RTVSPropertyOp46
 70
     1
102
RTVSPropertyOp47
 70
     1
102
RTVSPropertyOp48
 70
     1
102
RTVSPropertyOp49
 70
     1
102
RTVSPropertyOp50
 70
     1
102
RTVSPropertyOp51
 70
     0
102
RTVSPropertyOp52
 70
     0
102
RTVSPropertyOp53
 70
     1
102
RTVSPropertyOp54
 70
     1
102
RTVSPropertyOp55
 70
     1
102
RTVSPropertyOp56
 70
     1
102
RTVSPropertyOp57
 70
     1
102
RTVSPost2010Prop28
280
     0
102
RTVSPost2010PropOp28
 70
     1
102
RTVSPost2010Prop29
280
     1
102
RTVSPost2010PropOp29
 70
     1
102
RTVSPost2010Prop30
280
     1
102
RTVSPost2010PropOp30
 70
     1
102
RTVSPost2010Prop31
280
     0
102
RTVSPost2010PropOp31
 70
     1
102
RTVSPost2010Prop32
280
     0
102
RTVSPost2010PropOp32
 70
     1
102
RTVSPost2010Prop33
280
     0
102
RTVSPost2010PropOp33
 70
     1
102
RTVSPost2010Prop34
280
     0
102
RTVSPost2010PropOp34
 70
     1
102
RTVSPost2010Prop35
280
     0
102
RTVSPost2010PropOp35
 70
     1
102
RTVSPost2010Prop36
280
     0
102
RTVSPost2010PropOp36
 70
     1
102
RTVSPost2010Prop37
 90
       50
102
RTVSPost2010PropOp37
 70
     1
102
RTVSPost2010Prop38
140
0.0
102
RTVSPost2010PropOp38
 70
     1
102
RTVSPost2010Prop39
140
1.0
102
RTVSPost2010PropOp39
 70
     1
102
RTVSPost2010Prop40
 90
        0
102
RTVSPost2010PropOp40
 70
     1
102
RTVSPost2010Prop41ColorIndex
 90
       18
102
RTVSPost2010Prop41ColorRGB
 90
        0
102
RTVSPost2010PropOp41
 70
     1
102
RTVSPost2010Prop42
 90
       50
102
RTVSPost2010PropOp42
 70
     1
102
RTVSPost2010Prop43
 90
        3
102
RTVSPost2010PropOp43
 70
     1
102
RTVSPost2010Prop44ColorIndex
 90
        5
102
RTVSPost2010Prop44ColorRGB
 90
      255
102
RTVSPost2010PropOp44
 70
     1
102
RTVSPost2010Prop45
280
     0
102
RTVSPost2010PropOp45
 70
     1
102
RTVSPost2010Prop46
 90
       50
102
RTVSPost2010PropOp46
 70
     1
102
RTVSPost2010Prop47
 90
       50
102
RTVSPost2010PropOp47
 70
     1
102
RTVSPost2010Prop48
 90
       50
102
RTVSPost2010PropOp48
 70
     1
102
RTVSPost2010Prop49
280
     0
102
RTVSPost2010PropOp49
 70
     1
102
RTVSPost2010Prop50
 90
       50
102
RTVSPost2010PropOp50
 70
     1
102
RTVSPost2010Prop51ColorIndex
 90
      256
102
RTVSPost2010Prop51ColorRGB
 90
-16777216
102
RTVSPost2010PropOp51
 70
     0
102
RTVSPost2010Prop52
140
1.0
102
RTVSPost2010PropOp52
 70
     0
102
RTVSPost2010Prop53
 90
        2
102
RTVSPost2010PropOp53
 70
     1
102
RTVSPost2010Prop54
  1
strokes_ogs.tif
102
RTVSPost2010PropOp54
 70
     1
102
RTVSPost2010Prop55
280
     0
102
RTVSPost2010PropOp55
 70
     1
102
RTVSPost2010Prop56
140
1.0
102
RTVSPost2010PropOp56
 70
     1
102
RTVSPost2010Prop57
140
1.0
102
RTVSPost2010PropOp57
 70
     1
  0
XRECORD
  5
2F0
102
{ACAD_REACTORS
330
2EF
102
}
330
2EF
100
AcDbXrecord
280
     1
102
RTVSPropertyOp0
 70
     1
102
RTVSPropertyOp1
 70
     1
102
RTVSPropertyOp2
 70
     1
102
RTVSPropertyOp3
 70
     1
102
RTVSPropertyOp4
 70
     1
102
RTVSPropertyOp5
 70
     1
102
RTVSPropertyOp6
 70
     1
102
RTVSPropertyOp7
 70
     1
102
RTVSPropertyOp8
 70
     1
102
RTVSPropertyOp9
 70
     1
102
RTVSPropertyOp10
 70
     1
102
RTVSPropertyOp11
 70
     1
102
RTVSPropertyOp12
 70
     1
102
RTVSPropertyOp13
 70
     1
102
RTVSPropertyOp14
 70
     1
102
RTVSPropertyOp15
 70
     1
102
RTVSPropertyOp16
 70
     1
102
RTVSPropertyOp17
 70
     1
102
RTVSPropertyOp18
 70
     1
102
RTVSPropertyOp19
 70
     1
102
RTVSPropertyOp20
 70
     1
102
RTVSPropertyOp21
 70
     1
102
RTVSPropertyOp22
 70
     1
102
RTVSPropertyOp23
 70
     1
102
RTVSPropertyOp24
 70
     1
102
RTVSPropertyOp25
 70
     1
102
RTVSPropertyOp26
 70
     1
102
RTVSPropertyOp27
 70
     1
102
RTVSPropertyOp28
 70
     1
102
RTVSPropertyOp29
 70
     1
102
RTVSPropertyOp30
 70
     1
102
RTVSPropertyOp31
 70
     1
102
RTVSPropertyOp32
 70
     1
102
RTVSPropertyOp33
 70
     1
102
RTVSPropertyOp34
 70
     1
102
RTVSPropertyOp35
 70
     1
102
RTVSPropertyOp36
 70
     1
102
RTVSPropertyOp37
 70
     1
102
RTVSPropertyOp38
 70
     1
102
RTVSPropertyOp39
 70
     1
102
RTVSPropertyOp40
 70
     1
102
RTVSPropertyOp41
 70
     1
102
RTVSPropertyOp42
 70
     1
102
RTVSPropertyOp43
 70
     1
102
RTVSPropertyOp44
 70
     1
102
RTVSPropertyOp45
 70
     1
102
RTVSPropertyOp46
 70
     1
102
RTVSPropertyOp47
 70
     1
102
RTVSPropertyOp48
 70
     1
102
RTVSPropertyOp49
 70
     1
102
RTVSPropertyOp50
 70
     1
102
RTVSPropertyOp51
 70
     0
102
RTVSPropertyOp52
 70
     0
102
RTVSPropertyOp53
 70
     1
102
RTVSPropertyOp54
 70
     1
102
RTVSPropertyOp55
 70
     1
102
RTVSPropertyOp56
 70
     1
102
RTVSPropertyOp57
 70
     1
102
RTVSPost2010Prop28
280
     0
102
RTVSPost2010PropOp28
 70
     1
102
RTVSPost2010Prop29
280
     1
102
RTVSPost2010PropOp29
 70
     1
102
RTVSPost2010Prop30
280
     1
102
RTVSPost2010PropOp30
 70
     1
102
RTVSPost2010Prop31
280
     0
102
RTVSPost2010PropOp31
 70
     1
102
RTVSPost2010Prop32
280
     0
102
RTVSPost2010PropOp32
 70
     1
102
RTVSPost2010Prop33
280
     0
102
RTVSPost2010PropOp33
 70
     1
102
RTVSPost2010Prop34
280
     0
102
RTVSPost2010PropOp34
 70
     1
102
RTVSPost2010Prop35
280
     0
102
RTVSPost2010PropOp35
 70
     1
102
RTVSPost2010Prop36
280
     0
102
RTVSPost2010PropOp36
 70
     1
102
RTVSPost2010Prop37
 90
       50
102
RTVSPost2010PropOp37
 70
     1
102
RTVSPost2010Prop38
140
0.0
102
RTVSPost2010PropOp38
 70
     1
102
RTVSPost2010Prop39
140
1.0
102
RTVSPost2010PropOp39
 70
     1
102
RTVSPost2010Prop40
 90
        0
102
RTVSPost2010PropOp40
 70
     1
102
RTVSPost2010Prop41ColorIndex
 90
       18
102
RTVSPost2010Prop41ColorRGB
 90
        0
102
RTVSPost2010PropOp41
 70
     1
102
RTVSPost2010Prop42
 90
       50
102
RTVSPost2010PropOp42
 70
     1
102
RTVSPost2010Prop43
 90
        3
102
RTVSPost2010PropOp43
 70
     1
102
RTVSPost2010Prop44ColorIndex
 90
        5
102
RTVSPost2010Prop44ColorRGB
 90
      255
102
RTVSPost2010PropOp44
 70
     1
102
RTVSPost2010Prop45
280
     0
102
RTVSPost2010PropOp45
 70
     1
102
RTVSPost2010Prop46
 90
       50
102
RTVSPost2010PropOp46
 70
     1
102
RTVSPost2010Prop47
 90
       50
102
RTVSPost2010PropOp47
 70
     1
102
RTVSPost2010Prop48
 90
       50
102
RTVSPost2010PropOp48
 70
     1
102
RTVSPost2010Prop49
280
     0
102
RTVSPost2010PropOp49
 70
     1
102
RTVSPost2010Prop50
 90
       50
102
RTVSPost2010PropOp50
 70
     1
102
RTVSPost2010Prop51ColorIndex
 90
      256
102
RTVSPost2010Prop51ColorRGB
 90
-16777216
102
RTVSPost2010PropOp51
 70
     0
102
RTVSPost2010Prop52
140
1.0
102
RTVSPost2010PropOp52
 70
     0
102
RTVSPost2010Prop53
 90
        2
102
RTVSPost2010PropOp53
 70
     1
102
RTVSPost2010Prop54
  1
strokes_ogs.tif
102
RTVSPost2010PropOp54
 70
     1
102
RTVSPost2010Prop55
280
     0
102
RTVSPost2010PropOp55
 70
     1
102
RTVSPost2010Prop56
140
1.0
102
RTVSPost2010PropOp56
 70
     1
102
RTVSPost2010Prop57
140
1.0
102
RTVSPost2010PropOp57
 70
     1
  0
XRECORD
  5
2F2
102
{ACAD_REACTORS
330
2F1
102
}
330
2F1
100
AcDbXrecord
280
     1
102
RTVSPropertyOp0
 70
     1
102
RTVSPropertyOp1
 70
     1
102
RTVSPropertyOp2
 70
     1
102
RTVSPropertyOp3
 70
     1
102
RTVSPropertyOp4
 70
     1
102
RTVSPropertyOp5
 70
     1
102
RTVSPropertyOp6
 70
     1
102
RTVSPropertyOp7
 70
     1
102
RTVSPropertyOp8
 70
     1
102
RTVSPropertyOp9
 70
     1
102
RTVSPropertyOp10
 70
     1
102
RTVSPropertyOp11
 70
     1
102
RTVSPropertyOp12
 70
     1
102
RTVSPropertyOp13
 70
     1
102
RTVSPropertyOp14
 70
     1
102
RTVSPropertyOp15
 70
     1
102
RTVSPropertyOp16
 70
     1
102
RTVSPropertyOp17
 70
     1
102
RTVSPropertyOp18
 70
     1
102
RTVSPropertyOp19
 70
     1
102
RTVSPropertyOp20
 70
     1
102
RTVSPropertyOp21
 70
     1
102
RTVSPropertyOp22
 70
     1
102
RTVSPropertyOp23
 70
     1
102
RTVSPropertyOp24
 70
     1
102
RTVSPropertyOp25
 70
     1
102
RTVSPropertyOp26
 70
     1
102
RTVSPropertyOp27
 70
     1
102
RTVSPropertyOp28
 70
     1
102
RTVSPropertyOp29
 70
     1
102
RTVSPropertyOp30
 70
     1
102
RTVSPropertyOp31
 70
     1
102
RTVSPropertyOp32
 70
     1
102
RTVSPropertyOp33
 70
     1
102
RTVSPropertyOp34
 70
     1
102
RTVSPropertyOp35
 70
     1
102
RTVSPropertyOp36
 70
     1
102
RTVSPropertyOp37
 70
     1
102
RTVSPropertyOp38
 70
     1
102
RTVSPropertyOp39
 70
     1
102
RTVSPropertyOp40
 70
     1
102
RTVSPropertyOp41
 70
     1
102
RTVSPropertyOp42
 70
     1
102
RTVSPropertyOp43
 70
     1
102
RTVSPropertyOp44
 70
     1
102
RTVSPropertyOp45
 70
     1
102
RTVSPropertyOp46
 70
     1
102
RTVSPropertyOp47
 70
     1
102
RTVSPropertyOp48
 70
     1
102
RTVSPropertyOp49
 70
     1
102
RTVSPropertyOp50
 70
     1
102
RTVSPropertyOp51
 70
     0
102
RTVSPropertyOp52
 70
     0
102
RTVSPropertyOp53
 70
     1
102
RTVSPropertyOp54
 70
     1
102
RTVSPropertyOp55
 70
     1
102
RTVSPropertyOp56
 70
     1
102
RTVSPropertyOp57
 70
     1
102
RTVSPost2010Prop28
280
     0
102
RTVSPost2010PropOp28
 70
     1
102
RTVSPost2010Prop29
280
     1
102
RTVSPost2010PropOp29
 70
     1
102
RTVSPost2010Prop30
280
     1
102
RTVSPost2010PropOp30
 70
     1
102
RTVSPost2010Prop31
280
     0
102
RTVSPost2010PropOp31
 70
     1
102
RTVSPost2010Prop32
280
     0
102
RTVSPost2010PropOp32
 70
     1
102
RTVSPost2010Prop33
280
     0
102
RTVSPost2010PropOp33
 70
     1
102
RTVSPost2010Prop34
280
     0
102
RTVSPost2010PropOp34
 70
     1
102
RTVSPost2010Prop35
280
     0
102
RTVSPost2010PropOp35
 70
     1
102
RTVSPost2010Prop36
280
     0
102
RTVSPost2010PropOp36
 70
     1
102
RTVSPost2010Prop37
 90
       50
102
RTVSPost2010PropOp37
 70
     1
102
RTVSPost2010Prop38
140
0.0
102
RTVSPost2010PropOp38
 70
     1
102
RTVSPost2010Prop39
140
1.0
102
RTVSPost2010PropOp39
 70
     1
102
RTVSPost2010Prop40
 90
        0
102
RTVSPost2010PropOp40
 70
     1
102
RTVSPost2010Prop41ColorIndex
 90
       18
102
RTVSPost2010Prop41ColorRGB
 90
        0
102
RTVSPost2010PropOp41
 70
     1
102
RTVSPost2010Prop42
 90
       50
102
RTVSPost2010PropOp42
 70
     1
102
RTVSPost2010Prop43
 90
        3
102
RTVSPost2010PropOp43
 70
     1
102
RTVSPost2010Prop44ColorIndex
 90
        5
102
RTVSPost2010Prop44ColorRGB
 90
      255
102
RTVSPost2010PropOp44
 70
     1
102
RTVSPost2010Prop45
280
     0
102
RTVSPost2010PropOp45
 70
     1
102
RTVSPost2010Prop46
 90
       50
102
RTVSPost2010PropOp46
 70
     1
102
RTVSPost2010Prop47
 90
       50
102
RTVSPost2010PropOp47
 70
     1
102
RTVSPost2010Prop48
 90
       50
102
RTVSPost2010PropOp48
 70
     1
102
RTVSPost2010Prop49
280
     0
102
RTVSPost2010PropOp49
 70
     1
102
RTVSPost2010Prop50
 90
       50
102
RTVSPost2010PropOp50
 70
     1
102
RTVSPost2010Prop51ColorIndex
 90
      256
102
RTVSPost2010Prop51ColorRGB
 90
-16777216
102
RTVSPost2010PropOp51
 70
     0
102
RTVSPost2010Prop52
140
1.0
102
RTVSPost2010PropOp52
 70
     0
102
RTVSPost2010Prop53
 90
        2
102
RTVSPost2010PropOp53
 70
     1
102
RTVSPost2010Prop54
  1
strokes_ogs.tif
102
RTVSPost2010PropOp54
 70
     1
102
RTVSPost2010Prop55
280
     0
102
RTVSPost2010PropOp55
 70
     1
102
RTVSPost2010Prop56
140
1.0
102
RTVSPost2010PropOp56
 70
     1
102
RTVSPost2010Prop57
140
1.0
102
RTVSPost2010PropOp57
 70
     1
  0
XRECORD
  5
2F8
102
{ACAD_REACTORS
330
2F7
102
}
330
2F7
100
AcDbXrecord
280
     1
102
RTVSPropertyOp0
 70
     1
102
RTVSPropertyOp1
 70
     1
102
RTVSPropertyOp2
 70
     1
102
RTVSPropertyOp3
 70
     1
102
RTVSPropertyOp4
 70
     1
102
RTVSPropertyOp5
 70
     1
102
RTVSPropertyOp6
 70
     1
102
RTVSPropertyOp7
 70
     1
102
RTVSPropertyOp8
 70
     1
102
RTVSPropertyOp9
 70
     1
102
RTVSPropertyOp10
 70
     1
102
RTVSPropertyOp11
 70
     1
102
RTVSPropertyOp12
 70
     1
102
RTVSPropertyOp13
 70
     1
102
RTVSPropertyOp14
 70
     1
102
RTVSPropertyOp15
 70
     1
102
RTVSPropertyOp16
 70
     1
102
RTVSPropertyOp17
 70
     1
102
RTVSPropertyOp18
 70
     1
102
RTVSPropertyOp19
 70
     1
102
RTVSPropertyOp20
 70
     1
102
RTVSPropertyOp21
 70
     1
102
RTVSPropertyOp22
 70
     1
102
RTVSPropertyOp23
 70
     1
102
RTVSPropertyOp24
 70
     1
102
RTVSPropertyOp25
 70
     1
102
RTVSPropertyOp26
 70
     1
102
RTVSPropertyOp27
 70
     1
102
RTVSPropertyOp28
 70
     1
102
RTVSPropertyOp29
 70
     1
102
RTVSPropertyOp30
 70
     1
102
RTVSPropertyOp31
 70
     1
102
RTVSPropertyOp32
 70
     1
102
RTVSPropertyOp33
 70
     1
102
RTVSPropertyOp34
 70
     1
102
RTVSPropertyOp35
 70
     1
102
RTVSPropertyOp36
 70
     1
102
RTVSPropertyOp37
 70
     1
102
RTVSPropertyOp38
 70
     1
102
RTVSPropertyOp39
 70
     1
102
RTVSPropertyOp40
 70
     1
102
RTVSPropertyOp41
 70
     1
102
RTVSPropertyOp42
 70
     1
102
RTVSPropertyOp43
 70
     1
102
RTVSPropertyOp44
 70
     1
102
RTVSPropertyOp45
 70
     1
102
RTVSPropertyOp46
 70
     1
102
RTVSPropertyOp47
 70
     1
102
RTVSPropertyOp48
 70
     1
102
RTVSPropertyOp49
 70
     1
102
RTVSPropertyOp50
 70
     1
102
RTVSPropertyOp51
 70
     0
102
RTVSPropertyOp52
 70
     0
102
RTVSPropertyOp53
 70
     1
102
RTVSPropertyOp54
 70
     1
102
RTVSPropertyOp55
 70
     1
102
RTVSPropertyOp56
 70
     1
102
RTVSPropertyOp57
 70
     1
102
RTVSPost2010Prop28
280
     0
102
RTVSPost2010PropOp28
 70
     1
102
RTVSPost2010Prop29
280
     1
102
RTVSPost2010PropOp29
 70
     1
102
RTVSPost2010Prop30
280
     1
102
RTVSPost2010PropOp30
 70
     1
102
RTVSPost2010Prop31
280
     0
102
RTVSPost2010PropOp31
 70
     1
102
RTVSPost2010Prop32
280
     0
102
RTVSPost2010PropOp32
 70
     1
102
RTVSPost2010Prop33
280
     0
102
RTVSPost2010PropOp33
 70
     1
102
RTVSPost2010Prop34
280
     0
102
RTVSPost2010PropOp34
 70
     1
102
RTVSPost2010Prop35
280
     0
102
RTVSPost2010PropOp35
 70
     1
102
RTVSPost2010Prop36
280
     0
102
RTVSPost2010PropOp36
 70
     1
102
RTVSPost2010Prop37
 90
       50
102
RTVSPost2010PropOp37
 70
     1
102
RTVSPost2010Prop38
140
0.0
102
RTVSPost2010PropOp38
 70
     1
102
RTVSPost2010Prop39
140
1.0
102
RTVSPost2010PropOp39
 70
     1
102
RTVSPost2010Prop40
 90
        0
102
RTVSPost2010PropOp40
 70
     1
102
RTVSPost2010Prop41ColorIndex
 90
       18
102
RTVSPost2010Prop41ColorRGB
 90
        0
102
RTVSPost2010PropOp41
 70
     1
102
RTVSPost2010Prop42
 90
       50
102
RTVSPost2010PropOp42
 70
     1
102
RTVSPost2010Prop43
 90
        3
102
RTVSPost2010PropOp43
 70
     1
102
RTVSPost2010Prop44ColorIndex
 90
        5
102
RTVSPost2010Prop44ColorRGB
 90
      255
102
RTVSPost2010PropOp44
 70
     1
102
RTVSPost2010Prop45
280
     0
102
RTVSPost2010PropOp45
 70
     1
102
RTVSPost2010Prop46
 90
       50
102
RTVSPost2010PropOp46
 70
     1
102
RTVSPost2010Prop47
 90
       50
102
RTVSPost2010PropOp47
 70
     1
102
RTVSPost2010Prop48
 90
       50
102
RTVSPost2010PropOp48
 70
     1
102
RTVSPost2010Prop49
280
     0
102
RTVSPost2010PropOp49
 70
     1
102
RTVSPost2010Prop50
 90
       50
102
RTVSPost2010PropOp50
 70
     1
102
RTVSPost2010Prop51ColorIndex
 90
      256
102
RTVSPost2010Prop51ColorRGB
 90
-16777216
102
RTVSPost2010PropOp51
 70
     0
102
RTVSPost2010Prop52
140
1.0
102
RTVSPost2010PropOp52
 70
     0
102
RTVSPost2010Prop53
 90
        2
102
RTVSPost2010PropOp53
 70
     1
102
RTVSPost2010Prop54
  1
strokes_ogs.tif
102
RTVSPost2010PropOp54
 70
     1
102
RTVSPost2010Prop55
280
     0
102
RTVSPost2010PropOp55
 70
     1
102
RTVSPost2010Prop56
140
1.0
102
RTVSPost2010PropOp56
 70
     1
102
RTVSPost2010Prop57
140
1.0
102
RTVSPost2010PropOp57
 70
     1
  0
XRECORD
  5
30C
102
{ACAD_REACTORS
330
30B
102
}
330
30B
100
AcDbXrecord
280
     1
102
RTVSPropertyOp0
 70
     0
102
RTVSPropertyOp1
 70
     0
102
RTVSPropertyOp2
 70
     0
102
RTVSPropertyOp3
 70
     0
102
RTVSPropertyOp4
 70
     0
102
RTVSPropertyOp5
 70
     0
102
RTVSPropertyOp6
 70
     0
102
RTVSPropertyOp7
 70
     0
102
RTVSPropertyOp8
 70
     0
102
RTVSPropertyOp9
 70
     0
102
RTVSPropertyOp10
 70
     0
102
RTVSPropertyOp11
 70
     0
102
RTVSPropertyOp12
 70
     0
102
RTVSPropertyOp13
 70
     0
102
RTVSPropertyOp14
 70
     2
102
RTVSPropertyOp15
 70
     0
102
RTVSPropertyOp16
 70
     0
102
RTVSPropertyOp17
 70
     0
102
RTVSPropertyOp18
 70
     0
102
RTVSPropertyOp19
 70
     0
102
RTVSPropertyOp20
 70
     0
102
RTVSPropertyOp21
 70
     0
102
RTVSPropertyOp22
 70
     0
102
RTVSPropertyOp23
 70
     0
102
RTVSPropertyOp24
 70
     0
102
RTVSPropertyOp25
 70
     0
102
RTVSPropertyOp26
 70
     0
102
RTVSPropertyOp27
 70
     0
102
RTVSPropertyOp28
 70
     0
102
RTVSPropertyOp29
 70
     0
102
RTVSPropertyOp30
 70
     0
102
RTVSPropertyOp31
 70
     0
102
RTVSPropertyOp32
 70
     0
102
RTVSPropertyOp33
 70
     0
102
RTVSPropertyOp34
 70
     0
102
RTVSPropertyOp35
 70
     0
102
RTVSPropertyOp36
 70
     0
102
RTVSPropertyOp37
 70
     0
102
RTVSPropertyOp38
 70
     0
102
RTVSPropertyOp39
 70
     0
102
RTVSPropertyOp40
 70
     0
102
RTVSPropertyOp41
 70
     0
102
RTVSPropertyOp42
 70
     0
102
RTVSPropertyOp43
 70
     0
102
RTVSPropertyOp44
 70
     0
102
RTVSPropertyOp45
 70
     0
102
RTVSPropertyOp46
 70
     0
102
RTVSPropertyOp47
 70
     0
102
RTVSPropertyOp48
 70
     0
102
RTVSPropertyOp49
 70
     0
102
RTVSPropertyOp50
 70
     0
102
RTVSPropertyOp51
 70
     0
102
RTVSPropertyOp52
 70
     0
102
RTVSPropertyOp53
 70
     0
102
RTVSPropertyOp54
 70
     0
102
RTVSPropertyOp55
 70
     0
102
RTVSPropertyOp56
 70
     0
102
RTVSPropertyOp57
 70
     0
102
RTVSPost2010Prop28
280
     0
102
RTVSPost2010PropOp28
 70
     0
102
RTVSPost2010Prop29
280
     1
102
RTVSPost2010PropOp29
 70
     0
102
RTVSPost2010Prop30
280
     1
102
RTVSPost2010PropOp30
 70
     0
102
RTVSPost2010Prop31
280
     0
102
RTVSPost2010PropOp31
 70
     0
102
RTVSPost2010Prop32
280
     0
102
RTVSPost2010PropOp32
 70
     0
102
RTVSPost2010Prop33
280
     0
102
RTVSPost2010PropOp33
 70
     0
102
RTVSPost2010Prop34
280
     0
102
RTVSPost2010PropOp34
 70
     0
102
RTVSPost2010Prop35
280
     0
102
RTVSPost2010PropOp35
 70
     0
102
RTVSPost2010Prop36
280
     0
102
RTVSPost2010PropOp36
 70
     0
102
RTVSPost2010Prop37
 90
       50
102
RTVSPost2010PropOp37
 70
     0
102
RTVSPost2010Prop38
140
0.0
102
RTVSPost2010PropOp38
 70
     0
102
RTVSPost2010Prop39
140
1.0
102
RTVSPost2010PropOp39
 70
     0
102
RTVSPost2010Prop40
 90
        0
102
RTVSPost2010PropOp40
 70
     0
102
RTVSPost2010Prop41ColorIndex
 90
       18
102
RTVSPost2010Prop41ColorRGB
 90
        0
102
RTVSPost2010PropOp41
 70
     0
102
RTVSPost2010Prop42
 90
       50
102
RTVSPost2010PropOp42
 70
     0
102
RTVSPost2010Prop43
 90
        3
102
RTVSPost2010PropOp43
 70
     0
102
RTVSPost2010Prop44ColorIndex
 90
        5
102
RTVSPost2010Prop44ColorRGB
 90
      255
102
RTVSPost2010PropOp44
 70
     0
102
RTVSPost2010Prop45
280
     0
102
RTVSPost2010PropOp45
 70
     0
102
RTVSPost2010Prop46
 90
       50
102
RTVSPost2010PropOp46
 70
     0
102
RTVSPost2010Prop47
 90
       50
102
RTVSPost2010PropOp47
 70
     0
102
RTVSPost2010Prop48
 90
       50
102
RTVSPost2010PropOp48
 70
     0
102
RTVSPost2010Prop49
280
     0
102
RTVSPost2010PropOp49
 70
     0
102
RTVSPost2010Prop50
 90
       50
102
RTVSPost2010PropOp50
 70
     0
102
RTVSPost2010Prop51ColorIndex
 90
      256
102
RTVSPost2010Prop51ColorRGB
 90
-16777216
102
RTVSPost2010PropOp51
 70
     0
102
RTVSPost2010Prop52
140
1.0
102
RTVSPost2010PropOp52
 70
     0
102
RTVSPost2010Prop53
 90
        2
102
RTVSPost2010PropOp53
 70
     0
102
RTVSPost2010Prop54
  1
strokes_ogs.tif
102
RTVSPost2010PropOp54
 70
     0
102
RTVSPost2010Prop55
280
     0
102
RTVSPost2010PropOp55
 70
     0
102
RTVSPost2010Prop56
140
1.0
102
RTVSPost2010PropOp56
 70
     0
102
RTVSPost2010Prop57
140
1.0
102
RTVSPost2010PropOp57
 70
     0
  0
XRECORD
  5
306
102
{ACAD_REACTORS
330
305
102
}
330
305
100
AcDbXrecord
280
     1
102
RTVSPropertyOp0
 70
     1
102
RTVSPropertyOp1
 70
     1
102
RTVSPropertyOp2
 70
     1
102
RTVSPropertyOp3
 70
     1
102
RTVSPropertyOp4
 70
     1
102
RTVSPropertyOp5
 70
     1
102
RTVSPropertyOp6
 70
     1
102
RTVSPropertyOp7
 70
     1
102
RTVSPropertyOp8
 70
     1
102
RTVSPropertyOp9
 70
     1
102
RTVSPropertyOp10
 70
     1
102
RTVSPropertyOp11
 70
     1
102
RTVSPropertyOp12
 70
     1
102
RTVSPropertyOp13
 70
     1
102
RTVSPropertyOp14
 70
     1
102
RTVSPropertyOp15
 70
     1
102
RTVSPropertyOp16
 70
     1
102
RTVSPropertyOp17
 70
     1
102
RTVSPropertyOp18
 70
     1
102
RTVSPropertyOp19
 70
     1
102
RTVSPropertyOp20
 70
     1
102
RTVSPropertyOp21
 70
     1
102
RTVSPropertyOp22
 70
     1
102
RTVSPropertyOp23
 70
     1
102
RTVSPropertyOp24
 70
     1
102
RTVSPropertyOp25
 70
     1
102
RTVSPropertyOp26
 70
     1
102
RTVSPropertyOp27
 70
     1
102
RTVSPropertyOp28
 70
     1
102
RTVSPropertyOp29
 70
     1
102
RTVSPropertyOp30
 70
     1
102
RTVSPropertyOp31
 70
     1
102
RTVSPropertyOp32
 70
     1
102
RTVSPropertyOp33
 70
     1
102
RTVSPropertyOp34
 70
     1
102
RTVSPropertyOp35
 70
     1
102
RTVSPropertyOp36
 70
     1
102
RTVSPropertyOp37
 70
     1
102
RTVSPropertyOp38
 70
     1
102
RTVSPropertyOp39
 70
     1
102
RTVSPropertyOp40
 70
     1
102
RTVSPropertyOp41
 70
     1
102
RTVSPropertyOp42
 70
     1
102
RTVSPropertyOp43
 70
     1
102
RTVSPropertyOp44
 70
     1
102
RTVSPropertyOp45
 70
     1
102
RTVSPropertyOp46
 70
     1
102
RTVSPropertyOp47
 70
     1
102
RTVSPropertyOp48
 70
     1
102
RTVSPropertyOp49
 70
     1
102
RTVSPropertyOp50
 70
     1
102
RTVSPropertyOp51
 70
     0
102
RTVSPropertyOp52
 70
     0
102
RTVSPropertyOp53
 70
     1
102
RTVSPropertyOp54
 70
     1
102
RTVSPropertyOp55
 70
     1
102
RTVSPropertyOp56
 70
     1
102
RTVSPropertyOp57
 70
     1
102
RTVSPost2010Prop28
280
     0
102
RTVSPost2010PropOp28
 70
     1
102
RTVSPost2010Prop29
280
     1
102
RTVSPost2010PropOp29
 70
     1
102
RTVSPost2010Prop30
280
     1
102
RTVSPost2010PropOp30
 70
     1
102
RTVSPost2010Prop31
280
     0
102
RTVSPost2010PropOp31
 70
     1
102
RTVSPost2010Prop32
280
     0
102
RTVSPost2010PropOp32
 70
     1
102
RTVSPost2010Prop33
280
     0
102
RTVSPost2010PropOp33
 70
     1
102
RTVSPost2010Prop34
280
     0
102
RTVSPost2010PropOp34
 70
     1
102
RTVSPost2010Prop35
280
     0
102
RTVSPost2010PropOp35
 70
     1
102
RTVSPost2010Prop36
280
     0
102
RTVSPost2010PropOp36
 70
     1
102
RTVSPost2010Prop37
 90
       50
102
RTVSPost2010PropOp37
 70
     1
102
RTVSPost2010Prop38
140
0.0
102
RTVSPost2010PropOp38
 70
     1
102
RTVSPost2010Prop39
140
1.0
102
RTVSPost2010PropOp39
 70
     1
102
RTVSPost2010Prop40
 90
        0
102
RTVSPost2010PropOp40
 70
     1
102
RTVSPost2010Prop41ColorIndex
 90
       18
102
RTVSPost2010Prop41ColorRGB
 90
        0
102
RTVSPost2010PropOp41
 70
     1
102
RTVSPost2010Prop42
 90
       50
102
RTVSPost2010PropOp42
 70
     1
102
RTVSPost2010Prop43
 90
        3
102
RTVSPost2010PropOp43
 70
     1
102
RTVSPost2010Prop44ColorIndex
 90
        5
102
RTVSPost2010Prop44ColorRGB
 90
      255
102
RTVSPost2010PropOp44
 70
     1
102
RTVSPost2010Prop45
280
     0
102
RTVSPost2010PropOp45
 70
     1
102
RTVSPost2010Prop46
 90
       50
102
RTVSPost2010PropOp46
 70
     1
102
RTVSPost2010Prop47
 90
       50
102
RTVSPost2010PropOp47
 70
     1
102
RTVSPost2010Prop48
 90
       50
102
RTVSPost2010PropOp48
 70
     1
102
RTVSPost2010Prop49
280
     0
102
RTVSPost2010PropOp49
 70
     1
102
RTVSPost2010Prop50
 90
       50
102
RTVSPost2010PropOp50
 70
     1
102
RTVSPost2010Prop51ColorIndex
 90
      256
102
RTVSPost2010Prop51ColorRGB
 90
-16777216
102
RTVSPost2010PropOp51
 70
     0
102
RTVSPost2010Prop52
140
1.0
102
RTVSPost2010PropOp52
 70
     0
102
RTVSPost2010Prop53
 90
        2
102
RTVSPost2010PropOp53
 70
     1
102
RTVSPost2010Prop54
  1
strokes_ogs.tif
102
RTVSPost2010PropOp54
 70
     1
102
RTVSPost2010Prop55
280
     0
102
RTVSPost2010PropOp55
 70
     1
102
RTVSPost2010Prop56
140
1.0
102
RTVSPost2010PropOp56
 70
     1
102
RTVSPost2010Prop57
140
1.0
102
RTVSPost2010PropOp57
 70
     1
  0
XRECORD
  5
30E
102
{ACAD_REACTORS
330
30D
102
}
330
30D
100
AcDbXrecord
280
     1
102
RTVSPropertyOp0
 70
     0
102
RTVSPropertyOp1
 70
     0
102
RTVSPropertyOp2
 70
     0
102
RTVSPropertyOp3
 70
     0
102
RTVSPropertyOp4
 70
     0
102
RTVSPropertyOp5
 70
     0
102
RTVSPropertyOp6
 70
     0
102
RTVSPropertyOp7
 70
     0
102
RTVSPropertyOp8
 70
     0
102
RTVSPropertyOp9
 70
     0
102
RTVSPropertyOp10
 70
     0
102
RTVSPropertyOp11
 70
     0
102
RTVSPropertyOp12
 70
     0
102
RTVSPropertyOp13
 70
     0
102
RTVSPropertyOp14
 70
     2
102
RTVSPropertyOp15
 70
     0
102
RTVSPropertyOp16
 70
     0
102
RTVSPropertyOp17
 70
     0
102
RTVSPropertyOp18
 70
     0
102
RTVSPropertyOp19
 70
     0
102
RTVSPropertyOp20
 70
     0
102
RTVSPropertyOp21
 70
     0
102
RTVSPropertyOp22
 70
     0
102
RTVSPropertyOp23
 70
     0
102
RTVSPropertyOp24
 70
     0
102
RTVSPropertyOp25
 70
     0
102
RTVSPropertyOp26
 70
     0
102
RTVSPropertyOp27
 70
     0
102
RTVSPropertyOp28
 70
     0
102
RTVSPropertyOp29
 70
     0
102
RTVSPropertyOp30
 70
     0
102
RTVSPropertyOp31
 70
     0
102
RTVSPropertyOp32
 70
     0
102
RTVSPropertyOp33
 70
     0
102
RTVSPropertyOp34
 70
     0
102
RTVSPropertyOp35
 70
     0
102
RTVSPropertyOp36
 70
     0
102
RTVSPropertyOp37
 70
     0
102
RTVSPropertyOp38
 70
     0
102
RTVSPropertyOp39
 70
     0
102
RTVSPropertyOp40
 70
     0
102
RTVSPropertyOp41
 70
     0
102
RTVSPropertyOp42
 70
     0
102
RTVSPropertyOp43
 70
     0
102
RTVSPropertyOp44
 70
     0
102
RTVSPropertyOp45
 70
     0
102
RTVSPropertyOp46
 70
     0
102
RTVSPropertyOp47
 70
     0
102
RTVSPropertyOp48
 70
     0
102
RTVSPropertyOp49
 70
     0
102
RTVSPropertyOp50
 70
     0
102
RTVSPropertyOp51
 70
     0
102
RTVSPropertyOp52
 70
     0
102
RTVSPropertyOp53
 70
     0
102
RTVSPropertyOp54
 70
     0
102
RTVSPropertyOp55
 70
     0
102
RTVSPropertyOp56
 70
     0
102
RTVSPropertyOp57
 70
     0
102
RTVSPost2010Prop28
280
     0
102
RTVSPost2010PropOp28
 70
     0
102
RTVSPost2010Prop29
280
     1
102
RTVSPost2010PropOp29
 70
     0
102
RTVSPost2010Prop30
280
     1
102
RTVSPost2010PropOp30
 70
     0
102
RTVSPost2010Prop31
280
     0
102
RTVSPost2010PropOp31
 70
     0
102
RTVSPost2010Prop32
280
     0
102
RTVSPost2010PropOp32
 70
     0
102
RTVSPost2010Prop33
280
     0
102
RTVSPost2010PropOp33
 70
     0
102
RTVSPost2010Prop34
280
     0
102
RTVSPost2010PropOp34
 70
     0
102
RTVSPost2010Prop35
280
     0
102
RTVSPost2010PropOp35
 70
     0
102
RTVSPost2010Prop36
280
     0
102
RTVSPost2010PropOp36
 70
     0
102
RTVSPost2010Prop37
 90
       50
102
RTVSPost2010PropOp37
 70
     0
102
RTVSPost2010Prop38
140
0.0
102
RTVSPost2010PropOp38
 70
     0
102
RTVSPost2010Prop39
140
1.0
102
RTVSPost2010PropOp39
 70
     0
102
RTVSPost2010Prop40
 90
        0
102
RTVSPost2010PropOp40
 70
     0
102
RTVSPost2010Prop41ColorIndex
 90
       18
102
RTVSPost2010Prop41ColorRGB
 90
        0
102
RTVSPost2010PropOp41
 70
     0
102
RTVSPost2010Prop42
 90
       50
102
RTVSPost2010PropOp42
 70
     0
102
RTVSPost2010Prop43
 90
        3
102
RTVSPost2010PropOp43
 70
     0
102
RTVSPost2010Prop44ColorIndex
 90
        5
102
RTVSPost2010Prop44ColorRGB
 90
      255
102
RTVSPost2010PropOp44
 70
     0
102
RTVSPost2010Prop45
280
     0
102
RTVSPost2010PropOp45
 70
     0
102
RTVSPost2010Prop46
 90
       50
102
RTVSPost2010PropOp46
 70
     0
102
RTVSPost2010Prop47
 90
       50
102
RTVSPost2010PropOp47
 70
     0
102
RTVSPost2010Prop48
 90
       50
102
RTVSPost2010PropOp48
 70
     0
102
RTVSPost2010Prop49
280
     0
102
RTVSPost2010PropOp49
 70
     0
102
RTVSPost2010Prop50
 90
       50
102
RTVSPost2010PropOp50
 70
     0
102
RTVSPost2010Prop51ColorIndex
 90
      256
102
RTVSPost2010Prop51ColorRGB
 90
-16777216
102
RTVSPost2010PropOp51
 70
     0
102
RTVSPost2010Prop52
140
1.0
102
RTVSPost2010PropOp52
 70
     0
102
RTVSPost2010Prop53
 90
        2
102
RTVSPost2010PropOp53
 70
     0
102
RTVSPost2010Prop54
  1
strokes_ogs.tif
102
RTVSPost2010PropOp54
 70
     0
102
RTVSPost2010Prop55
280
     0
102
RTVSPost2010PropOp55
 70
     0
102
RTVSPost2010Prop56
140
1.0
102
RTVSPost2010PropOp56
 70
     0
102
RTVSPost2010Prop57
140
1.0
102
RTVSPost2010PropOp57
 70
     0
  0
XRECORD
  5
2FC
102
{ACAD_REACTORS
330
2FB
102
}
330
2FB
100
AcDbXrecord
280
     1
102
RTVSPropertyOp0
 70
     1
102
RTVSPropertyOp1
 70
     1
102
RTVSPropertyOp2
 70
     1
102
RTVSPropertyOp3
 70
     1
102
RTVSPropertyOp4
 70
     1
102
RTVSPropertyOp5
 70
     1
102
RTVSPropertyOp6
 70
     1
102
RTVSPropertyOp7
 70
     1
102
RTVSPropertyOp8
 70
     1
102
RTVSPropertyOp9
 70
     1
102
RTVSPropertyOp10
 70
     1
102
RTVSPropertyOp11
 70
     1
102
RTVSPropertyOp12
 70
     1
102
RTVSPropertyOp13
 70
     1
102
RTVSPropertyOp14
 70
     1
102
RTVSPropertyOp15
 70
     1
102
RTVSPropertyOp16
 70
     1
102
RTVSPropertyOp17
 70
     1
102
RTVSPropertyOp18
 70
     1
102
RTVSPropertyOp19
 70
     1
102
RTVSPropertyOp20
 70
     1
102
RTVSPropertyOp21
 70
     1
102
RTVSPropertyOp22
 70
     1
102
RTVSPropertyOp23
 70
     1
102
RTVSPropertyOp24
 70
     1
102
RTVSPropertyOp25
 70
     1
102
RTVSPropertyOp26
 70
     1
102
RTVSPropertyOp27
 70
     1
102
RTVSPropertyOp28
 70
     1
102
RTVSPropertyOp29
 70
     1
102
RTVSPropertyOp30
 70
     1
102
RTVSPropertyOp31
 70
     1
102
RTVSPropertyOp32
 70
     1
102
RTVSPropertyOp33
 70
     1
102
RTVSPropertyOp34
 70
     1
102
RTVSPropertyOp35
 70
     1
102
RTVSPropertyOp36
 70
     1
102
RTVSPropertyOp37
 70
     1
102
RTVSPropertyOp38
 70
     1
102
RTVSPropertyOp39
 70
     1
102
RTVSPropertyOp40
 70
     1
102
RTVSPropertyOp41
 70
     1
102
RTVSPropertyOp42
 70
     1
102
RTVSPropertyOp43
 70
     1
102
RTVSPropertyOp44
 70
     1
102
RTVSPropertyOp45
 70
     1
102
RTVSPropertyOp46
 70
     1
102
RTVSPropertyOp47
 70
     1
102
RTVSPropertyOp48
 70
     1
102
RTVSPropertyOp49
 70
     1
102
RTVSPropertyOp50
 70
     1
102
RTVSPropertyOp51
 70
     0
102
RTVSPropertyOp52
 70
     0
102
RTVSPropertyOp53
 70
     1
102
RTVSPropertyOp54
 70
     1
102
RTVSPropertyOp55
 70
     1
102
RTVSPropertyOp56
 70
     1
102
RTVSPropertyOp57
 70
     1
102
RTVSPost2010Prop28
280
     0
102
RTVSPost2010PropOp28
 70
     1
102
RTVSPost2010Prop29
280
     1
102
RTVSPost2010PropOp29
 70
     1
102
RTVSPost2010Prop30
280
     1
102
RTVSPost2010PropOp30
 70
     1
102
RTVSPost2010Prop31
280
     0
102
RTVSPost2010PropOp31
 70
     1
102
RTVSPost2010Prop32
280
     0
102
RTVSPost2010PropOp32
 70
     1
102
RTVSPost2010Prop33
280
     0
102
RTVSPost2010PropOp33
 70
     1
102
RTVSPost2010Prop34
280
     0
102
RTVSPost2010PropOp34
 70
     1
102
RTVSPost2010Prop35
280
     0
102
RTVSPost2010PropOp35
 70
     1
102
RTVSPost2010Prop36
280
     0
102
RTVSPost2010PropOp36
 70
     1
102
RTVSPost2010Prop37
 90
       50
102
RTVSPost2010PropOp37
 70
     1
102
RTVSPost2010Prop38
140
0.0
102
RTVSPost2010PropOp38
 70
     1
102
RTVSPost2010Prop39
140
1.0
102
RTVSPost2010PropOp39
 70
     1
102
RTVSPost2010Prop40
 90
        0
102
RTVSPost2010PropOp40
 70
     1
102
RTVSPost2010Prop41ColorIndex
 90
       18
102
RTVSPost2010Prop41ColorRGB
 90
        0
102
RTVSPost2010PropOp41
 70
     1
102
RTVSPost2010Prop42
 90
       50
102
RTVSPost2010PropOp42
 70
     1
102
RTVSPost2010Prop43
 90
        3
102
RTVSPost2010PropOp43
 70
     1
102
RTVSPost2010Prop44ColorIndex
 90
        5
102
RTVSPost2010Prop44ColorRGB
 90
      255
102
RTVSPost2010PropOp44
 70
     1
102
RTVSPost2010Prop45
280
     0
102
RTVSPost2010PropOp45
 70
     1
102
RTVSPost2010Prop46
 90
       50
102
RTVSPost2010PropOp46
 70
     1
102
RTVSPost2010Prop47
 90
       50
102
RTVSPost2010PropOp47
 70
     1
102
RTVSPost2010Prop48
 90
       50
102
RTVSPost2010PropOp48
 70
     1
102
RTVSPost2010Prop49
280
     0
102
RTVSPost2010PropOp49
 70
     1
102
RTVSPost2010Prop50
 90
       50
102
RTVSPost2010PropOp50
 70
     1
102
RTVSPost2010Prop51ColorIndex
 90
      256
102
RTVSPost2010Prop51ColorRGB
 90
-16777216
102
RTVSPost2010PropOp51
 70
     0
102
RTVSPost2010Prop52
140
1.0
102
RTVSPost2010PropOp52
 70
     0
102
RTVSPost2010Prop53
 90
        2
102
RTVSPost2010PropOp53
 70
     1
102
RTVSPost2010Prop54
  1
strokes_ogs.tif
102
RTVSPost2010PropOp54
 70
     1
102
RTVSPost2010Prop55
280
     0
102
RTVSPost2010PropOp55
 70
     1
102
RTVSPost2010Prop56
140
1.0
102
RTVSPost2010PropOp56
 70
     1
102
RTVSPost2010Prop57
140
1.0
102
RTVSPost2010PropOp57
 70
     1
  0
XRECORD
  5
31A
102
{ACAD_REACTORS
330
319
102
}
330
319
100
AcDbXrecord
280
     1
102
RTVSPropertyOp0
 70
     1
102
RTVSPropertyOp1
 70
     1
102
RTVSPropertyOp2
 70
     1
102
RTVSPropertyOp3
 70
     1
102
RTVSPropertyOp4
 70
     1
102
RTVSPropertyOp5
 70
     1
102
RTVSPropertyOp6
 70
     1
102
RTVSPropertyOp7
 70
     1
102
RTVSPropertyOp8
 70
     1
102
RTVSPropertyOp9
 70
     1
102
RTVSPropertyOp10
 70
     1
102
RTVSPropertyOp11
 70
     1
102
RTVSPropertyOp12
 70
     1
102
RTVSPropertyOp13
 70
     1
102
RTVSPropertyOp14
 70
     1
102
RTVSPropertyOp15
 70
     1
102
RTVSPropertyOp16
 70
     1
102
RTVSPropertyOp17
 70
     1
102
RTVSPropertyOp18
 70
     1
102
RTVSPropertyOp19
 70
     1
102
RTVSPropertyOp20
 70
     1
102
RTVSPropertyOp21
 70
     1
102
RTVSPropertyOp22
 70
     1
102
RTVSPropertyOp23
 70
     1
102
RTVSPropertyOp24
 70
     1
102
RTVSPropertyOp25
 70
     1
102
RTVSPropertyOp26
 70
     1
102
RTVSPropertyOp27
 70
     1
102
RTVSPropertyOp28
 70
     1
102
RTVSPropertyOp29
 70
     1
102
RTVSPropertyOp30
 70
     1
102
RTVSPropertyOp31
 70
     1
102
RTVSPropertyOp32
 70
     1
102
RTVSPropertyOp33
 70
     1
102
RTVSPropertyOp34
 70
     1
102
RTVSPropertyOp35
 70
     1
102
RTVSPropertyOp36
 70
     1
102
RTVSPropertyOp37
 70
     1
102
RTVSPropertyOp38
 70
     1
102
RTVSPropertyOp39
 70
     1
102
RTVSPropertyOp40
 70
     1
102
RTVSPropertyOp41
 70
     1
102
RTVSPropertyOp42
 70
     1
102
RTVSPropertyOp43
 70
     1
102
RTVSPropertyOp44
 70
     1
102
RTVSPropertyOp45
 70
     1
102
RTVSPropertyOp46
 70
     1
102
RTVSPropertyOp47
 70
     1
102
RTVSPropertyOp48
 70
     1
102
RTVSPropertyOp49
 70
     1
102
RTVSPropertyOp50
 70
     1
102
RTVSPropertyOp51
 70
     0
102
RTVSPropertyOp52
 70
     0
102
RTVSPropertyOp53
 70
     1
102
RTVSPropertyOp54
 70
     1
102
RTVSPropertyOp55
 70
     1
102
RTVSPropertyOp56
 70
     1
102
RTVSPropertyOp57
 70
     1
102
RTVSPost2010Prop28
280
     0
102
RTVSPost2010PropOp28
 70
     1
102
RTVSPost2010Prop29
280
     1
102
RTVSPost2010PropOp29
 70
     1
102
RTVSPost2010Prop30
280
     1
102
RTVSPost2010PropOp30
 70
     1
102
RTVSPost2010Prop31
280
     0
102
RTVSPost2010PropOp31
 70
     1
102
RTVSPost2010Prop32
280
     0
102
RTVSPost2010PropOp32
 70
     1
102
RTVSPost2010Prop33
280
     0
102
RTVSPost2010PropOp33
 70
     1
102
RTVSPost2010Prop34
280
     0
102
RTVSPost2010PropOp34
 70
     1
102
RTVSPost2010Prop35
280
     0
102
RTVSPost2010PropOp35
 70
     1
102
RTVSPost2010Prop36
280
     0
102
RTVSPost2010PropOp36
 70
     1
102
RTVSPost2010Prop37
 90
       50
102
RTVSPost2010PropOp37
 70
     1
102
RTVSPost2010Prop38
140
0.0
102
RTVSPost2010PropOp38
 70
     1
102
RTVSPost2010Prop39
140
1.0
102
RTVSPost2010PropOp39
 70
     1
102
RTVSPost2010Prop40
 90
        0
102
RTVSPost2010PropOp40
 70
     1
102
RTVSPost2010Prop41ColorIndex
 90
       18
102
RTVSPost2010Prop41ColorRGB
 90
        0
102
RTVSPost2010PropOp41
 70
     1
102
RTVSPost2010Prop42
 90
       50
102
RTVSPost2010PropOp42
 70
     1
102
RTVSPost2010Prop43
 90
        3
102
RTVSPost2010PropOp43
 70
     1
102
RTVSPost2010Prop44ColorIndex
 90
        5
102
RTVSPost2010Prop44ColorRGB
 90
      255
102
RTVSPost2010PropOp44
 70
     1
102
RTVSPost2010Prop45
280
     0
102
RTVSPost2010PropOp45
 70
     1
102
RTVSPost2010Prop46
 90
       50
102
RTVSPost2010PropOp46
 70
     1
102
RTVSPost2010Prop47
 90
       50
102
RTVSPost2010PropOp47
 70
     1
102
RTVSPost2010Prop48
 90
       50
102
RTVSPost2010PropOp48
 70
     1
102
RTVSPost2010Prop49
280
     0
102
RTVSPost2010PropOp49
 70
     1
102
RTVSPost2010Prop50
 90
       50
102
RTVSPost2010PropOp50
 70
     1
102
RTVSPost2010Prop51ColorIndex
 90
      256
102
RTVSPost2010Prop51ColorRGB
 90
-16777216
102
RTVSPost2010PropOp51
 70
     0
102
RTVSPost2010Prop52
140
1.0
102
RTVSPost2010PropOp52
 70
     0
102
RTVSPost2010Prop53
 90
        2
102
RTVSPost2010PropOp53
 70
     1
102
RTVSPost2010Prop54
  1
strokes_ogs.tif
102
RTVSPost2010PropOp54
 70
     1
102
RTVSPost2010Prop55
280
     0
102
RTVSPost2010PropOp55
 70
     1
102
RTVSPost2010Prop56
140
1.0
102
RTVSPost2010PropOp56
 70
     1
102
RTVSPost2010Prop57
140
1.0
102
RTVSPost2010PropOp57
 70
     1
  0
XRECORD
  5
318
102
{ACAD_REACTORS
330
317
102
}
330
317
100
AcDbXrecord
280
     1
102
RTVSPropertyOp0
 70
     1
102
RTVSPropertyOp1
 70
     1
102
RTVSPropertyOp2
 70
     1
102
RTVSPropertyOp3
 70
     1
102
RTVSPropertyOp4
 70
     1
102
RTVSPropertyOp5
 70
     1
102
RTVSPropertyOp6
 70
     1
102
RTVSPropertyOp7
 70
     1
102
RTVSPropertyOp8
 70
     1
102
RTVSPropertyOp9
 70
     1
102
RTVSPropertyOp10
 70
     1
102
RTVSPropertyOp11
 70
     1
102
RTVSPropertyOp12
 70
     1
102
RTVSPropertyOp13
 70
     1
102
RTVSPropertyOp14
 70
     1
102
RTVSPropertyOp15
 70
     1
102
RTVSPropertyOp16
 70
     1
102
RTVSPropertyOp17
 70
     1
102
RTVSPropertyOp18
 70
     1
102
RTVSPropertyOp19
 70
     1
102
RTVSPropertyOp20
 70
     1
102
RTVSPropertyOp21
 70
     1
102
RTVSPropertyOp22
 70
     1
102
RTVSPropertyOp23
 70
     1
102
RTVSPropertyOp24
 70
     1
102
RTVSPropertyOp25
 70
     1
102
RTVSPropertyOp26
 70
     1
102
RTVSPropertyOp27
 70
     1
102
RTVSPropertyOp28
 70
     1
102
RTVSPropertyOp29
 70
     1
102
RTVSPropertyOp30
 70
     1
102
RTVSPropertyOp31
 70
     1
102
RTVSPropertyOp32
 70
     1
102
RTVSPropertyOp33
 70
     1
102
RTVSPropertyOp34
 70
     1
102
RTVSPropertyOp35
 70
     1
102
RTVSPropertyOp36
 70
     1
102
RTVSPropertyOp37
 70
     1
102
RTVSPropertyOp38
 70
     1
102
RTVSPropertyOp39
 70
     1
102
RTVSPropertyOp40
 70
     1
102
RTVSPropertyOp41
 70
     1
102
RTVSPropertyOp42
 70
     1
102
RTVSPropertyOp43
 70
     1
102
RTVSPropertyOp44
 70
     1
102
RTVSPropertyOp45
 70
     1
102
RTVSPropertyOp46
 70
     1
102
RTVSPropertyOp47
 70
     1
102
RTVSPropertyOp48
 70
     1
102
RTVSPropertyOp49
 70
     1
102
RTVSPropertyOp50
 70
     1
102
RTVSPropertyOp51
 70
     0
102
RTVSPropertyOp52
 70
     0
102
RTVSPropertyOp53
 70
     1
102
RTVSPropertyOp54
 70
     1
102
RTVSPropertyOp55
 70
     1
102
RTVSPropertyOp56
 70
     1
102
RTVSPropertyOp57
 70
     1
102
RTVSPost2010Prop28
280
     0
102
RTVSPost2010PropOp28
 70
     1
102
RTVSPost2010Prop29
280
     1
102
RTVSPost2010PropOp29
 70
     1
102
RTVSPost2010Prop30
280
     1
102
RTVSPost2010PropOp30
 70
     1
102
RTVSPost2010Prop31
280
     0
102
RTVSPost2010PropOp31
 70
     1
102
RTVSPost2010Prop32
280
     0
102
RTVSPost2010PropOp32
 70
     1
102
RTVSPost2010Prop33
280
     0
102
RTVSPost2010PropOp33
 70
     1
102
RTVSPost2010Prop34
280
     0
102
RTVSPost2010PropOp34
 70
     1
102
RTVSPost2010Prop35
280
     0
102
RTVSPost2010PropOp35
 70
     1
102
RTVSPost2010Prop36
280
     0
102
RTVSPost2010PropOp36
 70
     1
102
RTVSPost2010Prop37
 90
       50
102
RTVSPost2010PropOp37
 70
     1
102
RTVSPost2010Prop38
140
0.0
102
RTVSPost2010PropOp38
 70
     1
102
RTVSPost2010Prop39
140
1.0
102
RTVSPost2010PropOp39
 70
     1
102
RTVSPost2010Prop40
 90
        0
102
RTVSPost2010PropOp40
 70
     1
102
RTVSPost2010Prop41ColorIndex
 90
       18
102
RTVSPost2010Prop41ColorRGB
 90
        0
102
RTVSPost2010PropOp41
 70
     1
102
RTVSPost2010Prop42
 90
       50
102
RTVSPost2010PropOp42
 70
     1
102
RTVSPost2010Prop43
 90
        3
102
RTVSPost2010PropOp43
 70
     1
102
RTVSPost2010Prop44ColorIndex
 90
        5
102
RTVSPost2010Prop44ColorRGB
 90
      255
102
RTVSPost2010PropOp44
 70
     1
102
RTVSPost2010Prop45
280
     0
102
RTVSPost2010PropOp45
 70
     1
102
RTVSPost2010Prop46
 90
       50
102
RTVSPost2010PropOp46
 70
     1
102
RTVSPost2010Prop47
 90
       50
102
RTVSPost2010PropOp47
 70
     1
102
RTVSPost2010Prop48
 90
       50
102
RTVSPost2010PropOp48
 70
     1
102
RTVSPost2010Prop49
280
     0
102
RTVSPost2010PropOp49
 70
     1
102
RTVSPost2010Prop50
 90
       50
102
RTVSPost2010PropOp50
 70
     1
102
RTVSPost2010Prop51ColorIndex
 90
      256
102
RTVSPost2010Prop51ColorRGB
 90
-16777216
102
RTVSPost2010PropOp51
 70
     0
102
RTVSPost2010Prop52
140
1.0
102
RTVSPost2010PropOp52
 70
     0
102
RTVSPost2010Prop53
 90
        2
102
RTVSPost2010PropOp53
 70
     1
102
RTVSPost2010Prop54
  1
strokes_ogs.tif
102
RTVSPost2010PropOp54
 70
     1
102
RTVSPost2010Prop55
280
     0
102
RTVSPost2010PropOp55
 70
     1
102
RTVSPost2010Prop56
140
1.0
102
RTVSPost2010PropOp56
 70
     1
102
RTVSPost2010Prop57
140
1.0
102
RTVSPost2010PropOp57
 70
     1
  0
XRECORD
  5
312
102
{ACAD_REACTORS
330
311
102
}
330
311
100
AcDbXrecord
280
     1
102
RTVSPropertyOp0
 70
     1
102
RTVSPropertyOp1
 70
     1
102
RTVSPropertyOp2
 70
     1
102
RTVSPropertyOp3
 70
     1
102
RTVSPropertyOp4
 70
     1
102
RTVSPropertyOp5
 70
     1
102
RTVSPropertyOp6
 70
     1
102
RTVSPropertyOp7
 70
     1
102
RTVSPropertyOp8
 70
     1
102
RTVSPropertyOp9
 70
     1
102
RTVSPropertyOp10
 70
     1
102
RTVSPropertyOp11
 70
     1
102
RTVSPropertyOp12
 70
     1
102
RTVSPropertyOp13
 70
     1
102
RTVSPropertyOp14
 70
     1
102
RTVSPropertyOp15
 70
     1
102
RTVSPropertyOp16
 70
     1
102
RTVSPropertyOp17
 70
     1
102
RTVSPropertyOp18
 70
     1
102
RTVSPropertyOp19
 70
     1
102
RTVSPropertyOp20
 70
     1
102
RTVSPropertyOp21
 70
     1
102
RTVSPropertyOp22
 70
     1
102
RTVSPropertyOp23
 70
     1
102
RTVSPropertyOp24
 70
     1
102
RTVSPropertyOp25
 70
     1
102
RTVSPropertyOp26
 70
     1
102
RTVSPropertyOp27
 70
     1
102
RTVSPropertyOp28
 70
     1
102
RTVSPropertyOp29
 70
     1
102
RTVSPropertyOp30
 70
     1
102
RTVSPropertyOp31
 70
     1
102
RTVSPropertyOp32
 70
     1
102
RTVSPropertyOp33
 70
     1
102
RTVSPropertyOp34
 70
     1
102
RTVSPropertyOp35
 70
     1
102
RTVSPropertyOp36
 70
     1
102
RTVSPropertyOp37
 70
     1
102
RTVSPropertyOp38
 70
     1
102
RTVSPropertyOp39
 70
     1
102
RTVSPropertyOp40
 70
     1
102
RTVSPropertyOp41
 70
     1
102
RTVSPropertyOp42
 70
     1
102
RTVSPropertyOp43
 70
     1
102
RTVSPropertyOp44
 70
     1
102
RTVSPropertyOp45
 70
     1
102
RTVSPropertyOp46
 70
     1
102
RTVSPropertyOp47
 70
     1
102
RTVSPropertyOp48
 70
     1
102
RTVSPropertyOp49
 70
     1
102
RTVSPropertyOp50
 70
     1
102
RTVSPropertyOp51
 70
     0
102
RTVSPropertyOp52
 70
     0
102
RTVSPropertyOp53
 70
     1
102
RTVSPropertyOp54
 70
     1
102
RTVSPropertyOp55
 70
     1
102
RTVSPropertyOp56
 70
     1
102
RTVSPropertyOp57
 70
     1
102
RTVSPost2010Prop28
280
     0
102
RTVSPost2010PropOp28
 70
     1
102
RTVSPost2010Prop29
280
     1
102
RTVSPost2010PropOp29
 70
     1
102
RTVSPost2010Prop30
280
     1
102
RTVSPost2010PropOp30
 70
     1
102
RTVSPost2010Prop31
280
     0
102
RTVSPost2010PropOp31
 70
     1
102
RTVSPost2010Prop32
280
     0
102
RTVSPost2010PropOp32
 70
     1
102
RTVSPost2010Prop33
280
     0
102
RTVSPost2010PropOp33
 70
     1
102
RTVSPost2010Prop34
280
     0
102
RTVSPost2010PropOp34
 70
     1
102
RTVSPost2010Prop35
280
     0
102
RTVSPost2010PropOp35
 70
     1
102
RTVSPost2010Prop36
280
     0
102
RTVSPost2010PropOp36
 70
     1
102
RTVSPost2010Prop37
 90
       50
102
RTVSPost2010PropOp37
 70
     1
102
RTVSPost2010Prop38
140
0.0
102
RTVSPost2010PropOp38
 70
     1
102
RTVSPost2010Prop39
140
1.0
102
RTVSPost2010PropOp39
 70
     1
102
RTVSPost2010Prop40
 90
        0
102
RTVSPost2010PropOp40
 70
     1
102
RTVSPost2010Prop41ColorIndex
 90
       18
102
RTVSPost2010Prop41ColorRGB
 90
        0
102
RTVSPost2010PropOp41
 70
     1
102
RTVSPost2010Prop42
 90
       50
102
RTVSPost2010PropOp42
 70
     1
102
RTVSPost2010Prop43
 90
        3
102
RTVSPost2010PropOp43
 70
     1
102
RTVSPost2010Prop44ColorIndex
 90
        5
102
RTVSPost2010Prop44ColorRGB
 90
      255
102
RTVSPost2010PropOp44
 70
     1
102
RTVSPost2010Prop45
280
     0
102
RTVSPost2010PropOp45
 70
     1
102
RTVSPost2010Prop46
 90
       50
102
RTVSPost2010PropOp46
 70
     1
102
RTVSPost2010Prop47
 90
       50
102
RTVSPost2010PropOp47
 70
     1
102
RTVSPost2010Prop48
 90
       50
102
RTVSPost2010PropOp48
 70
     1
102
RTVSPost2010Prop49
280
     0
102
RTVSPost2010PropOp49
 70
     1
102
RTVSPost2010Prop50
 90
       50
102
RTVSPost2010PropOp50
 70
     1
102
RTVSPost2010Prop51ColorIndex
 90
      256
102
RTVSPost2010Prop51ColorRGB
 90
-16777216
102
RTVSPost2010PropOp51
 70
     0
102
RTVSPost2010Prop52
140
1.0
102
RTVSPost2010PropOp52
 70
     0
102
RTVSPost2010Prop53
 90
        2
102
RTVSPost2010PropOp53
 70
     1
102
RTVSPost2010Prop54
  1
strokes_ogs.tif
102
RTVSPost2010PropOp54
 70
     1
102
RTVSPost2010Prop55
280
     0
102
RTVSPost2010PropOp55
 70
     1
102
RTVSPost2010Prop56
140
1.0
102
RTVSPost2010PropOp56
 70
     1
102
RTVSPost2010Prop57
140
1.0
102
RTVSPost2010PropOp57
 70
     1
  0
XRECORD
  5
314
102
{ACAD_REACTORS
330
313
102
}
330
313
100
AcDbXrecord
280
     1
102
RTVSPropertyOp0
 70
     1
102
RTVSPropertyOp1
 70
     1
102
RTVSPropertyOp2
 70
     1
102
RTVSPropertyOp3
 70
     1
102
RTVSPropertyOp4
 70
     1
102
RTVSPropertyOp5
 70
     1
102
RTVSPropertyOp6
 70
     1
102
RTVSPropertyOp7
 70
     1
102
RTVSPropertyOp8
 70
     1
102
RTVSPropertyOp9
 70
     1
102
RTVSPropertyOp10
 70
     1
102
RTVSPropertyOp11
 70
     1
102
RTVSPropertyOp12
 70
     1
102
RTVSPropertyOp13
 70
     1
102
RTVSPropertyOp14
 70
     1
102
RTVSPropertyOp15
 70
     1
102
RTVSPropertyOp16
 70
     1
102
RTVSPropertyOp17
 70
     1
102
RTVSPropertyOp18
 70
     1
102
RTVSPropertyOp19
 70
     1
102
RTVSPropertyOp20
 70
     1
102
RTVSPropertyOp21
 70
     1
102
RTVSPropertyOp22
 70
     1
102
RTVSPropertyOp23
 70
     1
102
RTVSPropertyOp24
 70
     1
102
RTVSPropertyOp25
 70
     1
102
RTVSPropertyOp26
 70
     1
102
RTVSPropertyOp27
 70
     1
102
RTVSPropertyOp28
 70
     1
102
RTVSPropertyOp29
 70
     1
102
RTVSPropertyOp30
 70
     1
102
RTVSPropertyOp31
 70
     1
102
RTVSPropertyOp32
 70
     1
102
RTVSPropertyOp33
 70
     1
102
RTVSPropertyOp34
 70
     1
102
RTVSPropertyOp35
 70
     1
102
RTVSPropertyOp36
 70
     1
102
RTVSPropertyOp37
 70
     1
102
RTVSPropertyOp38
 70
     1
102
RTVSPropertyOp39
 70
     1
102
RTVSPropertyOp40
 70
     1
102
RTVSPropertyOp41
 70
     1
102
RTVSPropertyOp42
 70
     1
102
RTVSPropertyOp43
 70
     1
102
RTVSPropertyOp44
 70
     1
102
RTVSPropertyOp45
 70
     1
102
RTVSPropertyOp46
 70
     1
102
RTVSPropertyOp47
 70
     1
102
RTVSPropertyOp48
 70
     1
102
RTVSPropertyOp49
 70
     1
102
RTVSPropertyOp50
 70
     1
102
RTVSPropertyOp51
 70
     0
102
RTVSPropertyOp52
 70
     0
102
RTVSPropertyOp53
 70
     1
102
RTVSPropertyOp54
 70
     1
102
RTVSPropertyOp55
 70
     1
102
RTVSPropertyOp56
 70
     1
102
RTVSPropertyOp57
 70
     1
102
RTVSPost2010Prop28
280
     0
102
RTVSPost2010PropOp28
 70
     1
102
RTVSPost2010Prop29
280
     1
102
RTVSPost2010PropOp29
 70
     1
102
RTVSPost2010Prop30
280
     1
102
RTVSPost2010PropOp30
 70
     1
102
RTVSPost2010Prop31
280
     0
102
RTVSPost2010PropOp31
 70
     1
102
RTVSPost2010Prop32
280
     0
102
RTVSPost2010PropOp32
 70
     1
102
RTVSPost2010Prop33
280
     0
102
RTVSPost2010PropOp33
 70
     1
102
RTVSPost2010Prop34
280
     0
102
RTVSPost2010PropOp34
 70
     1
102
RTVSPost2010Prop35
280
     0
102
RTVSPost2010PropOp35
 70
     1
102
RTVSPost2010Prop36
280
     0
102
RTVSPost2010PropOp36
 70
     1
102
RTVSPost2010Prop37
 90
       50
102
RTVSPost2010PropOp37
 70
     1
102
RTVSPost2010Prop38
140
0.0
102
RTVSPost2010PropOp38
 70
     1
102
RTVSPost2010Prop39
140
1.0
102
RTVSPost2010PropOp39
 70
     1
102
RTVSPost2010Prop40
 90
        0
102
RTVSPost2010PropOp40
 70
     1
102
RTVSPost2010Prop41ColorIndex
 90
       18
102
RTVSPost2010Prop41ColorRGB
 90
        0
102
RTVSPost2010PropOp41
 70
     1
102
RTVSPost2010Prop42
 90
       50
102
RTVSPost2010PropOp42
 70
     1
102
RTVSPost2010Prop43
 90
        3
102
RTVSPost2010PropOp43
 70
     1
102
RTVSPost2010Prop44ColorIndex
 90
        5
102
RTVSPost2010Prop44ColorRGB
 90
      255
102
RTVSPost2010PropOp44
 70
     1
102
RTVSPost2010Prop45
280
     0
102
RTVSPost2010PropOp45
 70
     1
102
RTVSPost2010Prop46
 90
       50
102
RTVSPost2010PropOp46
 70
     1
102
RTVSPost2010Prop47
 90
       50
102
RTVSPost2010PropOp47
 70
     1
102
RTVSPost2010Prop48
 90
       50
102
RTVSPost2010PropOp48
 70
     1
102
RTVSPost2010Prop49
280
     0
102
RTVSPost2010PropOp49
 70
     1
102
RTVSPost2010Prop50
 90
       50
102
RTVSPost2010PropOp50
 70
     1
102
RTVSPost2010Prop51ColorIndex
 90
      256
102
RTVSPost2010Prop51ColorRGB
 90
-16777216
102
RTVSPost2010PropOp51
 70
     0
102
RTVSPost2010Prop52
140
1.0
102
RTVSPost2010PropOp52
 70
     0
102
RTVSPost2010Prop53
 90
        2
102
RTVSPost2010PropOp53
 70
     1
102
RTVSPost2010Prop54
  1
strokes_ogs.tif
102
RTVSPost2010PropOp54
 70
     1
102
RTVSPost2010Prop55
280
     0
102
RTVSPost2010PropOp55
 70
     1
102
RTVSPost2010Prop56
140
1.0
102
RTVSPost2010PropOp56
 70
     1
102
RTVSPost2010Prop57
140
1.0
102
RTVSPost2010PropOp57
 70
     1
  0
XRECORD
  5
304
102
{ACAD_REACTORS
330
303
102
}
330
303
100
AcDbXrecord
280
     1
102
RTVSPropertyOp0
 70
     1
102
RTVSPropertyOp1
 70
     1
102
RTVSPropertyOp2
 70
     1
102
RTVSPropertyOp3
 70
     1
102
RTVSPropertyOp4
 70
     1
102
RTVSPropertyOp5
 70
     1
102
RTVSPropertyOp6
 70
     1
102
RTVSPropertyOp7
 70
     1
102
RTVSPropertyOp8
 70
     1
102
RTVSPropertyOp9
 70
     1
102
RTVSPropertyOp10
 70
     1
102
RTVSPropertyOp11
 70
     1
102
RTVSPropertyOp12
 70
     1
102
RTVSPropertyOp13
 70
     1
102
RTVSPropertyOp14
 70
     1
102
RTVSPropertyOp15
 70
     1
102
RTVSPropertyOp16
 70
     1
102
RTVSPropertyOp17
 70
     1
102
RTVSPropertyOp18
 70
     1
102
RTVSPropertyOp19
 70
     1
102
RTVSPropertyOp20
 70
     1
102
RTVSPropertyOp21
 70
     1
102
RTVSPropertyOp22
 70
     1
102
RTVSPropertyOp23
 70
     1
102
RTVSPropertyOp24
 70
     1
102
RTVSPropertyOp25
 70
     1
102
RTVSPropertyOp26
 70
     1
102
RTVSPropertyOp27
 70
     1
102
RTVSPropertyOp28
 70
     1
102
RTVSPropertyOp29
 70
     1
102
RTVSPropertyOp30
 70
     1
102
RTVSPropertyOp31
 70
     1
102
RTVSPropertyOp32
 70
     1
102
RTVSPropertyOp33
 70
     1
102
RTVSPropertyOp34
 70
     1
102
RTVSPropertyOp35
 70
     1
102
RTVSPropertyOp36
 70
     1
102
RTVSPropertyOp37
 70
     1
102
RTVSPropertyOp38
 70
     1
102
RTVSPropertyOp39
 70
     1
102
RTVSPropertyOp40
 70
     1
102
RTVSPropertyOp41
 70
     1
102
RTVSPropertyOp42
 70
     1
102
RTVSPropertyOp43
 70
     1
102
RTVSPropertyOp44
 70
     1
102
RTVSPropertyOp45
 70
     1
102
RTVSPropertyOp46
 70
     1
102
RTVSPropertyOp47
 70
     1
102
RTVSPropertyOp48
 70
     1
102
RTVSPropertyOp49
 70
     1
102
RTVSPropertyOp50
 70
     1
102
RTVSPropertyOp51
 70
     0
102
RTVSPropertyOp52
 70
     0
102
RTVSPropertyOp53
 70
     1
102
RTVSPropertyOp54
 70
     1
102
RTVSPropertyOp55
 70
     1
102
RTVSPropertyOp56
 70
     1
102
RTVSPropertyOp57
 70
     1
102
RTVSPost2010Prop28
280
     0
102
RTVSPost2010PropOp28
 70
     1
102
RTVSPost2010Prop29
280
     1
102
RTVSPost2010PropOp29
 70
     1
102
RTVSPost2010Prop30
280
     1
102
RTVSPost2010PropOp30
 70
     1
102
RTVSPost2010Prop31
280
     0
102
RTVSPost2010PropOp31
 70
     1
102
RTVSPost2010Prop32
280
     0
102
RTVSPost2010PropOp32
 70
     1
102
RTVSPost2010Prop33
280
     0
102
RTVSPost2010PropOp33
 70
     1
102
RTVSPost2010Prop34
280
     0
102
RTVSPost2010PropOp34
 70
     1
102
RTVSPost2010Prop35
280
     0
102
RTVSPost2010PropOp35
 70
     1
102
RTVSPost2010Prop36
280
     0
102
RTVSPost2010PropOp36
 70
     1
102
RTVSPost2010Prop37
 90
       50
102
RTVSPost2010PropOp37
 70
     1
102
RTVSPost2010Prop38
140
0.0
102
RTVSPost2010PropOp38
 70
     1
102
RTVSPost2010Prop39
140
1.0
102
RTVSPost2010PropOp39
 70
     1
102
RTVSPost2010Prop40
 90
        0
102
RTVSPost2010PropOp40
 70
     1
102
RTVSPost2010Prop41ColorIndex
 90
       18
102
RTVSPost2010Prop41ColorRGB
 90
        0
102
RTVSPost2010PropOp41
 70
     1
102
RTVSPost2010Prop42
 90
       50
102
RTVSPost2010PropOp42
 70
     1
102
RTVSPost2010Prop43
 90
        3
102
RTVSPost2010PropOp43
 70
     1
102
RTVSPost2010Prop44ColorIndex
 90
        5
102
RTVSPost2010Prop44ColorRGB
 90
      255
102
RTVSPost2010PropOp44
 70
     1
102
RTVSPost2010Prop45
280
     0
102
RTVSPost2010PropOp45
 70
     1
102
RTVSPost2010Prop46
 90
       50
102
RTVSPost2010PropOp46
 70
     1
102
RTVSPost2010Prop47
 90
       50
102
RTVSPost2010PropOp47
 70
     1
102
RTVSPost2010Prop48
 90
       50
102
RTVSPost2010PropOp48
 70
     1
102
RTVSPost2010Prop49
280
     0
102
RTVSPost2010PropOp49
 70
     1
102
RTVSPost2010Prop50
 90
       50
102
RTVSPost2010PropOp50
 70
     1
102
RTVSPost2010Prop51ColorIndex
 90
      256
102
RTVSPost2010Prop51ColorRGB
 90
-16777216
102
RTVSPost2010PropOp51
 70
     0
102
RTVSPost2010Prop52
140
1.0
102
RTVSPost2010PropOp52
 70
     0
102
RTVSPost2010Prop53
 90
        2
102
RTVSPost2010PropOp53
 70
     1
102
RTVSPost2010Prop54
  1
strokes_ogs.tif
102
RTVSPost2010PropOp54
 70
     1
102
RTVSPost2010Prop55
280
     0
102
RTVSPost2010PropOp55
 70
     1
102
RTVSPost2010Prop56
140
1.0
102
RTVSPost2010PropOp56
 70
     1
102
RTVSPost2010Prop57
140
1.0
102
RTVSPost2010PropOp57
 70
     1
  0
XRECORD
  5
2F6
102
{ACAD_REACTORS
330
2F5
102
}
330
2F5
100
AcDbXrecord
280
     1
102
RTVSPropertyOp0
 70
     1
102
RTVSPropertyOp1
 70
     1
102
RTVSPropertyOp2
 70
     1
102
RTVSPropertyOp3
 70
     1
102
RTVSPropertyOp4
 70
     1
102
RTVSPropertyOp5
 70
     1
102
RTVSPropertyOp6
 70
     1
102
RTVSPropertyOp7
 70
     1
102
RTVSPropertyOp8
 70
     1
102
RTVSPropertyOp9
 70
     1
102
RTVSPropertyOp10
 70
     1
102
RTVSPropertyOp11
 70
     1
102
RTVSPropertyOp12
 70
     1
102
RTVSPropertyOp13
 70
     1
102
RTVSPropertyOp14
 70
     1
102
RTVSPropertyOp15
 70
     1
102
RTVSPropertyOp16
 70
     1
102
RTVSPropertyOp17
 70
     1
102
RTVSPropertyOp18
 70
     1
102
RTVSPropertyOp19
 70
     1
102
RTVSPropertyOp20
 70
     1
102
RTVSPropertyOp21
 70
     1
102
RTVSPropertyOp22
 70
     1
102
RTVSPropertyOp23
 70
     1
102
RTVSPropertyOp24
 70
     1
102
RTVSPropertyOp25
 70
     1
102
RTVSPropertyOp26
 70
     1
102
RTVSPropertyOp27
 70
     1
102
RTVSPropertyOp28
 70
     1
102
RTVSPropertyOp29
 70
     1
102
RTVSPropertyOp30
 70
     1
102
RTVSPropertyOp31
 70
     1
102
RTVSPropertyOp32
 70
     1
102
RTVSPropertyOp33
 70
     1
102
RTVSPropertyOp34
 70
     1
102
RTVSPropertyOp35
 70
     1
102
RTVSPropertyOp36
 70
     1
102
RTVSPropertyOp37
 70
     1
102
RTVSPropertyOp38
 70
     1
102
RTVSPropertyOp39
 70
     1
102
RTVSPropertyOp40
 70
     1
102
RTVSPropertyOp41
 70
     1
102
RTVSPropertyOp42
 70
     1
102
RTVSPropertyOp43
 70
     1
102
RTVSPropertyOp44
 70
     1
102
RTVSPropertyOp45
 70
     1
102
RTVSPropertyOp46
 70
     1
102
RTVSPropertyOp47
 70
     1
102
RTVSPropertyOp48
 70
     1
102
RTVSPropertyOp49
 70
     1
102
RTVSPropertyOp50
 70
     1
102
RTVSPropertyOp51
 70
     0
102
RTVSPropertyOp52
 70
     0
102
RTVSPropertyOp53
 70
     1
102
RTVSPropertyOp54
 70
     1
102
RTVSPropertyOp55
 70
     1
102
RTVSPropertyOp56
 70
     1
102
RTVSPropertyOp57
 70
     1
102
RTVSPost2010Prop28
280
     0
102
RTVSPost2010PropOp28
 70
     1
102
RTVSPost2010Prop29
280
     1
102
RTVSPost2010PropOp29
 70
     1
102
RTVSPost2010Prop30
280
     1
102
RTVSPost2010PropOp30
 70
     1
102
RTVSPost2010Prop31
280
     0
102
RTVSPost2010PropOp31
 70
     1
102
RTVSPost2010Prop32
280
     0
102
RTVSPost2010PropOp32
 70
     1
102
RTVSPost2010Prop33
280
     0
102
RTVSPost2010PropOp33
 70
     1
102
RTVSPost2010Prop34
280
     0
102
RTVSPost2010PropOp34
 70
     1
102
RTVSPost2010Prop35
280
     0
102
RTVSPost2010PropOp35
 70
     1
102
RTVSPost2010Prop36
280
     0
102
RTVSPost2010PropOp36
 70
     1
102
RTVSPost2010Prop37
 90
       50
102
RTVSPost2010PropOp37
 70
     1
102
RTVSPost2010Prop38
140
0.0
102
RTVSPost2010PropOp38
 70
     1
102
RTVSPost2010Prop39
140
1.0
102
RTVSPost2010PropOp39
 70
     1
102
RTVSPost2010Prop40
 90
        0
102
RTVSPost2010PropOp40
 70
     1
102
RTVSPost2010Prop41ColorIndex
 90
       18
102
RTVSPost2010Prop41ColorRGB
 90
        0
102
RTVSPost2010PropOp41
 70
     1
102
RTVSPost2010Prop42
 90
       50
102
RTVSPost2010PropOp42
 70
     1
102
RTVSPost2010Prop43
 90
        3
102
RTVSPost2010PropOp43
 70
     1
102
RTVSPost2010Prop44ColorIndex
 90
        5
102
RTVSPost2010Prop44ColorRGB
 90
      255
102
RTVSPost2010PropOp44
 70
     1
102
RTVSPost2010Prop45
280
     0
102
RTVSPost2010PropOp45
 70
     1
102
RTVSPost2010Prop46
 90
       50
102
RTVSPost2010PropOp46
 70
     1
102
RTVSPost2010Prop47
 90
       50
102
RTVSPost2010PropOp47
 70
     1
102
RTVSPost2010Prop48
 90
       50
102
RTVSPost2010PropOp48
 70
     1
102
RTVSPost2010Prop49
280
     0
102
RTVSPost2010PropOp49
 70
     1
102
RTVSPost2010Prop50
 90
       50
102
RTVSPost2010PropOp50
 70
     1
102
RTVSPost2010Prop51ColorIndex
 90
      256
102
RTVSPost2010Prop51ColorRGB
 90
-16777216
102
RTVSPost2010PropOp51
 70
     0
102
RTVSPost2010Prop52
140
1.0
102
RTVSPost2010PropOp52
 70
     0
102
RTVSPost2010Prop53
 90
        2
102
RTVSPost2010PropOp53
 70
     1
102
RTVSPost2010Prop54
  1
strokes_ogs.tif
102
RTVSPost2010PropOp54
 70
     1
102
RTVSPost2010Prop55
280
     0
102
RTVSPost2010PropOp55
 70
     1
102
RTVSPost2010Prop56
140
1.0
102
RTVSPost2010PropOp56
 70
     1
102
RTVSPost2010Prop57
140
1.0
102
RTVSPost2010PropOp57
 70
     1
  0
XRECORD
  5
316
102
{ACAD_REACTORS
330
315
102
}
330
315
100
AcDbXrecord
280
     1
102
RTVSPropertyOp0
 70
     1
102
RTVSPropertyOp1
 70
     1
102
RTVSPropertyOp2
 70
     1
102
RTVSPropertyOp3
 70
     1
102
RTVSPropertyOp4
 70
     1
102
RTVSPropertyOp5
 70
     1
102
RTVSPropertyOp6
 70
     1
102
RTVSPropertyOp7
 70
     1
102
RTVSPropertyOp8
 70
     1
102
RTVSPropertyOp9
 70
     1
102
RTVSPropertyOp10
 70
     1
102
RTVSPropertyOp11
 70
     1
102
RTVSPropertyOp12
 70
     1
102
RTVSPropertyOp13
 70
     1
102
RTVSPropertyOp14
 70
     1
102
RTVSPropertyOp15
 70
     1
102
RTVSPropertyOp16
 70
     1
102
RTVSPropertyOp17
 70
     1
102
RTVSPropertyOp18
 70
     1
102
RTVSPropertyOp19
 70
     1
102
RTVSPropertyOp20
 70
     1
102
RTVSPropertyOp21
 70
     1
102
RTVSPropertyOp22
 70
     1
102
RTVSPropertyOp23
 70
     1
102
RTVSPropertyOp24
 70
     1
102
RTVSPropertyOp25
 70
     1
102
RTVSPropertyOp26
 70
     1
102
RTVSPropertyOp27
 70
     1
102
RTVSPropertyOp28
 70
     1
102
RTVSPropertyOp29
 70
     1
102
RTVSPropertyOp30
 70
     1
102
RTVSPropertyOp31
 70
     1
102
RTVSPropertyOp32
 70
     1
102
RTVSPropertyOp33
 70
     1
102
RTVSPropertyOp34
 70
     1
102
RTVSPropertyOp35
 70
     1
102
RTVSPropertyOp36
 70
     1
102
RTVSPropertyOp37
 70
     1
102
RTVSPropertyOp38
 70
     1
102
RTVSPropertyOp39
 70
     1
102
RTVSPropertyOp40
 70
     1
102
RTVSPropertyOp41
 70
     1
102
RTVSPropertyOp42
 70
     1
102
RTVSPropertyOp43
 70
     1
102
RTVSPropertyOp44
 70
     1
102
RTVSPropertyOp45
 70
     1
102
RTVSPropertyOp46
 70
     1
102
RTVSPropertyOp47
 70
     1
102
RTVSPropertyOp48
 70
     1
102
RTVSPropertyOp49
 70
     1
102
RTVSPropertyOp50
 70
     1
102
RTVSPropertyOp51
 70
     0
102
RTVSPropertyOp52
 70
     0
102
RTVSPropertyOp53
 70
     1
102
RTVSPropertyOp54
 70
     1
102
RTVSPropertyOp55
 70
     1
102
RTVSPropertyOp56
 70
     1
102
RTVSPropertyOp57
 70
     1
102
RTVSPost2010Prop28
280
     0
102
RTVSPost2010PropOp28
 70
     1
102
RTVSPost2010Prop29
280
     1
102
RTVSPost2010PropOp29
 70
     1
102
RTVSPost2010Prop30
280
     1
102
RTVSPost2010PropOp30
 70
     1
102
RTVSPost2010Prop31
280
     0
102
RTVSPost2010PropOp31
 70
     1
102
RTVSPost2010Prop32
280
     0
102
RTVSPost2010PropOp32
 70
     1
102
RTVSPost2010Prop33
280
     0
102
RTVSPost2010PropOp33
 70
     1
102
RTVSPost2010Prop34
280
     0
102
RTVSPost2010PropOp34
 70
     1
102
RTVSPost2010Prop35
280
     0
102
RTVSPost2010PropOp35
 70
     1
102
RTVSPost2010Prop36
280
     0
102
RTVSPost2010PropOp36
 70
     1
102
RTVSPost2010Prop37
 90
       50
102
RTVSPost2010PropOp37
 70
     1
102
RTVSPost2010Prop38
140
0.0
102
RTVSPost2010PropOp38
 70
     1
102
RTVSPost2010Prop39
140
1.0
102
RTVSPost2010PropOp39
 70
     1
102
RTVSPost2010Prop40
 90
        0
102
RTVSPost2010PropOp40
 70
     1
102
RTVSPost2010Prop41ColorIndex
 90
       18
102
RTVSPost2010Prop41ColorRGB
 90
        0
102
RTVSPost2010PropOp41
 70
     1
102
RTVSPost2010Prop42
 90
       50
102
RTVSPost2010PropOp42
 70
     1
102
RTVSPost2010Prop43
 90
        3
102
RTVSPost2010PropOp43
 70
     1
102
RTVSPost2010Prop44ColorIndex
 90
        5
102
RTVSPost2010Prop44ColorRGB
 90
      255
102
RTVSPost2010PropOp44
 70
     1
102
RTVSPost2010Prop45
280
     0
102
RTVSPost2010PropOp45
 70
     1
102
RTVSPost2010Prop46
 90
       50
102
RTVSPost2010PropOp46
 70
     1
102
RTVSPost2010Prop47
 90
       50
102
RTVSPost2010PropOp47
 70
     1
102
RTVSPost2010Prop48
 90
       50
102
RTVSPost2010PropOp48
 70
     1
102
RTVSPost2010Prop49
280
     0
102
RTVSPost2010PropOp49
 70
     1
102
RTVSPost2010Prop50
 90
       50
102
RTVSPost2010PropOp50
 70
     1
102
RTVSPost2010Prop51ColorIndex
 90
      256
102
RTVSPost2010Prop51ColorRGB
 90
-16777216
102
RTVSPost2010PropOp51
 70
     0
102
RTVSPost2010Prop52
140
1.0
102
RTVSPost2010PropOp52
 70
     0
102
RTVSPost2010Prop53
 90
        2
102
RTVSPost2010PropOp53
 70
     1
102
RTVSPost2010Prop54
  1
strokes_ogs.tif
102
RTVSPost2010PropOp54
 70
     1
102
RTVSPost2010Prop55
280
     0
102
RTVSPost2010PropOp55
 70
     1
102
RTVSPost2010Prop56
140
1.0
102
RTVSPost2010PropOp56
 70
     1
102
RTVSPost2010Prop57
140
1.0
102
RTVSPost2010PropOp57
 70
     1
  0
ENDSEC
  0
EOF
