  0
SECTION
  2
HEADER
  9
$ACADVER
  1
AC1021
  9
$ACADMAINTVER
 70
    25
  9
$DWGCODEPAGE
  3
ANSI_1252
  9
$INSBASE
 10
0.0
 20
0.0
 30
0.0
  9
$EXTMIN
 10
1.000000000000000E+20
 20
1.000000000000000E+20
 30
1.000000000000000E+20
  9
$EXTMAX
 10
-1.000000000000000E+20
 20
-1.000000000000000E+20
 30
-1.000000000000000E+20
  9
$LIMMIN
 10
0.0
 20
0.0
  9
$LIMMAX
 10
12.0
 20
9.0
  9
$ORTHOMODE
 70
     0
  9
$REGENMODE
 70
     1
  9
$FILLMODE
 70
     1
  9
$QTEXTMODE
 70
     0
  9
$MIRRTEXT
 70
     1
  9
$LTSCALE
 40
137.5
  9
$ATTMODE
 70
     1
  9
$TEXTSIZE
 40
0.2
  9
$TRACEWID
 40
0.05
  9
$TEXTSTYLE
  7
Standard
  9
$CLAYER
  8
FISHER_PAYKEL
  9
$CELTYPE
  6
ByLayer
  9
$CECOLOR
 62
   256
  9
$CELTSCALE
 40
1.0
  9
$DISPSILH
 70
     0
  9
$DIMSCALE
 40
1.0
  9
$DIMASZ
 40
0.18
  9
$DIMEXO
 40
0.0625
  9
$DIMDLI
 40
0.38
  9
$DIMRND
 40
0.0
  9
$DIMDLE
 40
0.0
  9
$DIMEXE
 40
0.18
  9
$DIMTP
 40
0.0
  9
$DIMTM
 40
0.0
  9
$DIMTXT
 40
0.18
  9
$DIMCEN
 40
0.09
  9
$DIMTSZ
 40
0.0
  9
$DIMTOL
 70
     0
  9
$DIMLIM
 70
     0
  9
$DIMTIH
 70
     1
  9
$DIMTOH
 70
     1
  9
$DIMSE1
 70
     0
  9
$DIMSE2
 70
     0
  9
$DIMTAD
 70
     0
  9
$DIMZIN
 70
     0
  9
$DIMBLK
  1

  9
$DIMASO
 70
     1
  9
$DIMSHO
 70
     1
  9
$DIMPOST
  1

  9
$DIMAPOST
  1

  9
$DIMALT
 70
     0
  9
$DIMALTD
 70
     2
  9
$DIMALTF
 40
25.4
  9
$DIMLFAC
 40
1.0
  9
$DIMTOFL
 70
     0
  9
$DIMTVP
 40
0.0
  9
$DIMTIX
 70
     0
  9
$DIMSOXD
 70
     0
  9
$DIMSAH
 70
     0
  9
$DIMBLK1
  1

  9
$DIMBLK2
  1

  9
$DIMSTYLE
  2
STANDARD_ACAD
  9
$DIMCLRD
 70
     0
  9
$DIMCLRE
 70
     0
  9
$DIMCLRT
 70
     0
  9
$DIMTFAC
 40
1.0
  9
$DIMGAP
 40
0.09
  9
$DIMJUST
 70
     0
  9
$DIMSD1
 70
     0
  9
$DIMSD2
 70
     0
  9
$DIMTOLJ
 70
     1
  9
$DIMTZIN
 70
     0
  9
$DIMALTZ
 70
     0
  9
$DIMALTTZ
 70
     0
  9
$DIMUPT
 70
     0
  9
$DIMDEC
 70
     4
  9
$DIMTDEC
 70
     4
  9
$DIMALTU
 70
     2
  9
$DIMALTTD
 70
     2
  9
$DIMTXSTY
  7
Standard
  9
$DIMAUNIT
 70
     0
  9
$DIMADEC
 70
     0
  9
$DIMALTRND
 40
0.0
  9
$DIMAZIN
 70
     0
  9
$DIMDSEP
 70
    46
  9
$DIMATFIT
 70
     3
  9
$DIMFRAC
 70
     0
  9
$DIMLDRBLK
  1

  9
$DIMLUNIT
 70
     2
  9
$DIMLWD
 70
    -2
  9
$DIMLWE
 70
    -2
  9
$DIMTMOVE
 70
     2
  9
$DIMFXL
 40
1.0
  9
$DIMFXLON
 70
     0
  9
$DIMJOGANG
 40
0.7853981633974483
  9
$DIMTFILL
 70
     0
  9
$DIMTFILLCLR
 70
     0
  9
$DIMARCSYM
 70
     0
  9
$DIMLTYPE
  6

  9
$DIMLTEX1
  6

  9
$DIMLTEX2
  6

  9
$LUNITS
 70
     2
  9
$LUPREC
 70
     3
  9
$SKETCHINC
 40
0.1
  9
$FILLETRAD
 40
0.5
  9
$AUNITS
 70
     0
  9
$AUPREC
 70
     0
  9
$MENU
  1
.
  9
$ELEVATION
 40
0.0
  9
$PELEVATION
 40
0.0
  9
$THICKNESS
 40
0.0
  9
$LIMCHECK
 70
     0
  9
$CHAMFERA
 40
0.0
  9
$CHAMFERB
 40
0.0
  9
$CHAMFERC
 40
0.0
  9
$CHAMFERD
 40
0.0
  9
$SKPOLY
 70
     0
  9
$TDCREATE
 40
2460194.464205995
  9
$TDUCREATE
 40
2460193.964205995
  9
$TDUPDATE
 40
2460194.464218657
  9
$TDUUPDATE
 40
2460193.964218657
  9
$TDINDWG
 40
0.0000000116
  9
$TDUSRTIMER
 40
0.0000000116
  9
$USRTIMER
 70
     1
  9
$ANGBASE
 50
0.0
  9
$ANGDIR
 70
     0
  9
$PDMODE
 70
     0
  9
$PDSIZE
 40
0.0
  9
$PLINEWID
 40
0.0
  9
$SPLFRAME
 70
     0
  9
$SPLINETYPE
 70
     6
  9
$SPLINESEGS
 70
     8
  9
$HANDSEED
  5
305
  9
$SURFTAB1
 70
     6
  9
$SURFTAB2
 70
     6
  9
$SURFTYPE
 70
     6
  9
$SURFU
 70
     6
  9
$SURFV
 70
     6
  9
$UCSBASE
  2

  9
$UCSNAME
  2

  9
$UCSORG
 10
0.0
 20
0.0
 30
0.0
  9
$UCSXDIR
 10
1.0
 20
0.0
 30
0.0
  9
$UCSYDIR
 10
0.0
 20
1.0
 30
0.0
  9
$UCSORTHOREF
  2

  9
$UCSORTHOVIEW
 70
     0
  9
$UCSORGTOP
 10
0.0
 20
0.0
 30
0.0
  9
$UCSORGBOTTOM
 10
0.0
 20
0.0
 30
0.0
  9
$UCSORGLEFT
 10
0.0
 20
0.0
 30
0.0
  9
$UCSORGRIGHT
 10
0.0
 20
0.0
 30
0.0
  9
$UCSORGFRONT
 10
0.0
 20
0.0
 30
0.0
  9
$UCSORGBACK
 10
0.0
 20
0.0
 30
0.0
  9
$PUCSBASE
  2

  9
$PUCSNAME
  2

  9
$PUCSORG
 10
0.0
 20
0.0
 30
0.0
  9
$PUCSXDIR
 10
1.0
 20
0.0
 30
0.0
  9
$PUCSYDIR
 10
0.0
 20
1.0
 30
0.0
  9
$PUCSORTHOREF
  2

  9
$PUCSORTHOVIEW
 70
     0
  9
$PUCSORGTOP
 10
0.0
 20
0.0
 30
0.0
  9
$PUCSORGBOTTOM
 10
0.0
 20
0.0
 30
0.0
  9
$PUCSORGLEFT
 10
0.0
 20
0.0
 30
0.0
  9
$PUCSORGRIGHT
 10
0.0
 20
0.0
 30
0.0
  9
$PUCSORGFRONT
 10
0.0
 20
0.0
 30
0.0
  9
$PUCSORGBACK
 10
0.0
 20
0.0
 30
0.0
  9
$USERI1
 70
     0
  9
$USERI2
 70
     0
  9
$USERI3
 70
     0
  9
$USERI4
 70
     0
  9
$USERI5
 70
     0
  9
$USERR1
 40
0.0
  9
$USERR2
 40
0.0
  9
$USERR3
 40
0.0
  9
$USERR4
 40
0.0
  9
$USERR5
 40
0.0
  9
$WORLDVIEW
 70
     1
  9
$SHADEDGE
 70
     3
  9
$SHADEDIF
 70
    70
  9
$TILEMODE
 70
     1
  9
$MAXACTVP
 70
    64
  9
$PINSBASE
 10
0.0
 20
0.0
 30
0.0
  9
$PLIMCHECK
 70
     0
  9
$PEXTMIN
 10
1.000000000000000E+20
 20
1.000000000000000E+20
 30
1.000000000000000E+20
  9
$PEXTMAX
 10
-1.000000000000000E+20
 20
-1.000000000000000E+20
 30
-1.000000000000000E+20
  9
$PLIMMIN
 10
0.0
 20
0.0
  9
$PLIMMAX
 10
12.0
 20
9.0
  9
$UNITMODE
 70
     0
  9
$VISRETAIN
 70
     1
  9
$PLINEGEN
 70
     0
  9
$PSLTSCALE
 70
     1
  9
$TREEDEPTH
 70
  3020
  9
$CMLSTYLE
  2
Standard
  9
$CMLJUST
 70
     0
  9
$CMLSCALE
 40
1.0
  9
$PROXYGRAPHICS
 70
     1
  9
$MEASUREMENT
 70
     1
  9
$CELWEIGHT
370
    -1
  9
$ENDCAPS
280
     0
  9
$JOINSTYLE
280
     0
  9
$LWDISPLAY
290
     0
  9
$INSUNITS
 70
     4
  9
$HYPERLINKBASE
  1

  9
$STYLESHEET
  1

  9
$XEDIT
290
     1
  9
$CEPSNTYPE
380
     0
  9
$PSTYLEMODE
290
     1
  9
$FINGERPRINTGUID
  2
{30ba0d31-3a7d-418b-b512-46f1f32bc658}
  9
$VERSIONGUID
  2
{FAEB1C32-E019-11D5-929B-00C0DF256EC4}
  9
$EXTNAMES
290
     1
  9
$PSVPSCALE
 40
0.0
  9
$OLESTARTUP
290
     0
  9
$SORTENTS
280
   127
  9
$INDEXCTL
280
     0
  9
$HIDETEXT
280
     1
  9
$XCLIPFRAME
290
     0
  9
$HALOGAP
280
     0
  9
$OBSCOLOR
 70
   257
  9
$OBSLTYPE
280
     0
  9
$INTERSECTIONDISPLAY
280
     0
  9
$INTERSECTIONCOLOR
 70
   257
  9
$DIMASSOC
280
     2
  9
$PROJECTNAME
  1

  9
$CAMERADISPLAY
290
     0
  9
$LENSLENGTH
 40
50.0
  9
$CAMERAHEIGHT
 40
0.0
  9
$STEPSPERSEC
 40
2.0
  9
$STEPSIZE
 40
6.0
  9
$3DDWFPREC
 40
2.0
  9
$PSOLWIDTH
 40
0.25
  9
$PSOLHEIGHT
 40
4.0
  9
$LOFTANG1
 40
1.570796326794897
  9
$LOFTANG2
 40
1.570796326794897
  9
$LOFTMAG1
 40
0.0
  9
$LOFTMAG2
 40
0.0
  9
$LOFTPARAM
 70
     7
  9
$LOFTNORMALS
280
     1
  9
$LATITUDE
 40
37.795
  9
$LONGITUDE
 40
-122.394
  9
$NORTHDIRECTION
 40
0.0
  9
$TIMEZONE
 70
 -8000
  9
$LIGHTGLYPHDISPLAY
280
     1
  9
$TILEMODELIGHTSYNCH
280
     1
  9
$CMATERIAL
347
44
  9
$SOLIDHIST
280
     0
  9
$SHOWHIST
280
     1
  9
$DWFFRAME
280
     2
  9
$DGNFRAME
280
     2
  9
$REALWORLDSCALE
290
     1
  9
$INTERFERECOLOR
 62
   256
  9
$CSHADOW
280
     0
  9
$SHADOWPLANELOCATION
 40
0.0
  0
ENDSEC
  0
SECTION
  2
CLASSES
  0
CLASS
  1
ACDBDICTIONARYWDFLT
  2
AcDbDictionaryWithDefault
  3
ObjectDBX Classes
 90
        0
 91
        3
280
     0
281
     0
  0
CLASS
  1
VISUALSTYLE
  2
AcDbVisualStyle
  3
ObjectDBX Classes
 90
     4095
 91
        3
280
     0
281
     0
  0
CLASS
  1
MATERIAL
  2
AcDbMaterial
  3
ObjectDBX Classes
 90
     1153
 91
        3
280
     0
281
     0
  0
CLASS
  1
SCALE
  2
AcDbScale
  3
ObjectDBX Classes
 90
     1153
 91
        3
280
     0
281
     0
  0
CLASS
  1
TABLESTYLE
  2
AcDbTableStyle
  3
ObjectDBX Classes
 90
     4095
 91
        3
280
     0
281
     0
  0
CLASS
  1
MLEADERSTYLE
  2
AcDbMLeaderStyle
  3
ACDB_MLEADERSTYLE_CLASS
 90
     4095
 91
        3
280
     0
281
     0
  0
CLASS
  1
SUN
  2
AcDbSun
  3
SCENEOE
 90
     1153
 91
        3
280
     0
281
     0
  0
CLASS
  1
DICTIONARYVAR
  2
AcDbDictionaryVar
  3
ObjectDBX Classes
 90
        0
 91
        3
280
     0
281
     0
  0
CLASS
  1
CELLSTYLEMAP
  2
AcDbCellStyleMap
  3
ObjectDBX Classes
 90
     1152
 91
        3
280
     0
281
     0
  0
ENDSEC
  0
SECTION
  2
TABLES
  0
TABLE
  2
VPORT
  5
8
330
0
100
AcDbSymbolTable
 70
     1
  0
VPORT
  5
29
330
8
100
AcDbSymbolTableRecord
100
AcDbViewportTableRecord
  2
*Active
 70
     0
 10
0.0
 20
0.0
 11
1.0
 21
1.0
 12
10.42990654205607
 22
4.5
 13
0.0
 23
0.0
 14
0.5
 24
0.5
 15
0.5
 25
0.5
 16
0.0
 26
0.0
 36
1.0
 17
0.0
 27
0.0
 37
0.0
 40
9.0
 41
1.972972972850329
 42
50.0
 43
0.0
 44
0.0
 50
0.0
 51
0.0
 71
     0
 72
   100
 73
     1
 74
     3
 75
     0
 76
     0
 77
     0
 78
     0
281
     0
 65
     1
110
0.0
120
0.0
130
0.0
111
1.0
121
0.0
131
0.0
112
0.0
122
1.0
132
0.0
 79
     0
146
0.0
348
2F
 60
     3
 61
     5
292
     1
282
     1
141
0.0
142
0.0
 63
   250
361
6D
  0
ENDTAB
  0
TABLE
  2
LTYPE
  5
5
330
0
100
AcDbSymbolTable
 70
     1
  0
LTYPE
  5
14
330
5
100
AcDbSymbolTableRecord
100
AcDbLinetypeTableRecord
  2
ByBlock
 70
     0
  3

 72
    65
 73
     0
 40
0.0
  0
LTYPE
  5
15
330
5
100
AcDbSymbolTableRecord
100
AcDbLinetypeTableRecord
  2
ByLayer
 70
     0
  3

 72
    65
 73
     0
 40
0.0
  0
LTYPE
  5
16
330
5
100
AcDbSymbolTableRecord
100
AcDbLinetypeTableRecord
  2
Continuous
 70
     0
  3
Solid line
 72
    65
 73
     0
 40
0.0
  0
ENDTAB
  0
TABLE
  2
LAYER
  5
2
330
0
100
AcDbSymbolTable
 70
     2
  0
LAYER
  5
10
330
2
100
AcDbSymbolTableRecord
100
AcDbLayerTableRecord
  2
0
 70
     0
 62
    18
420
        0
  6
Continuous
370
    -3
390
F
347
46
  0
LAYER
  5
6E
330
2
100
AcDbSymbolTableRecord
100
AcDbLayerTableRecord
  2
FISHER_PAYKEL
 70
     0
 62
    18
420
        0
  6
Continuous
370
    -3
390
F
347
46
  0
ENDTAB
  0
TABLE
  2
STYLE
  5
3
330
0
100
AcDbSymbolTable
 70
     1
  0
STYLE
  5
11
330
3
100
AcDbSymbolTableRecord
100
AcDbTextStyleTableRecord
  2
Standard
 70
     0
 40
0.0
 41
1.0
 50
0.0
 71
     0
 42
0.2
  3
txt
  4

  0
ENDTAB
  0
TABLE
  2
VIEW
  5
6
330
0
100
AcDbSymbolTable
 70
     0
  0
ENDTAB
  0
TABLE
  2
UCS
  5
7
330
0
100
AcDbSymbolTable
 70
     0
  0
ENDTAB
  0
TABLE
  2
APPID
  5
9
330
0
100
AcDbSymbolTable
 70
     2
  0
APPID
  5
12
330
9
100
AcDbSymbolTableRecord
100
AcDbRegAppTableRecord
  2
ACAD
 70
     0
  0
APPID
  5
2FD
330
9
100
AcDbSymbolTableRecord
100
AcDbRegAppTableRecord
  2
ACAD_MLEADERVER
 70
     0
  0
ENDTAB
  0
TABLE
  2
DIMSTYLE
  5
A
330
0
100
AcDbSymbolTable
 70
     1
100
AcDbDimStyleTable
  0
DIMSTYLE
105
27
330
A
100
AcDbSymbolTableRecord
100
AcDbDimStyleTableRecord
  2
STANDARD_ACAD
 70
     0
178
     0
340
11
  0
ENDTAB
  0
TABLE
  2
BLOCK_RECORD
  5
1
330
0
100
AcDbSymbolTable
 70
     2
  0
BLOCK_RECORD
  5
1F
330
1
100
AcDbSymbolTableRecord
100
AcDbBlockTableRecord
  2
*Model_Space
340
22
 70
     0
280
     1
281
     0
  0
BLOCK_RECORD
  5
1B
330
1
100
AcDbSymbolTableRecord
100
AcDbBlockTableRecord
  2
*Paper_Space
340
1E
 70
     0
280
     1
281
     0
  0
BLOCK_RECORD
  5
23
330
1
100
AcDbSymbolTableRecord
100
AcDbBlockTableRecord
  2
*Paper_Space0
340
26
 70
     0
280
     1
281
     0
  0
BLOCK_RECORD
  5
2C0
330
1
100
AcDbSymbolTableRecord
100
AcDbBlockTableRecord
  2
_FILLED
340
0
 70
     0
280
     1
281
     0
  0
ENDTAB
  0
ENDSEC
  0
SECTION
  2
BLOCKS
  0
BLOCK
  5
20
330
1F
100
AcDbEntity
  8
0
100
AcDbBlockBegin
  2
*Model_Space
 70
     0
 10
0.0
 20
0.0
 30
0.0
  3
*Model_Space
  1

  0
ENDBLK
  5
21
330
1F
100
AcDbEntity
  8
0
100
AcDbBlockEnd
  0
BLOCK
  5
1C
330
1B
100
AcDbEntity
 67
     1
  8
0
100
AcDbBlockBegin
  2
*Paper_Space
 70
     0
 10
0.0
 20
0.0
 30
0.0
  3
*Paper_Space
  1

  0
ENDBLK
  5
1D
330
1B
100
AcDbEntity
 67
     1
  8
0
100
AcDbBlockEnd
  0
BLOCK
  5
24
330
23
100
AcDbEntity
  8
0
100
AcDbBlockBegin
  2
*Paper_Space0
 70
     0
 10
0.0
 20
0.0
 30
0.0
  3
*Paper_Space0
  1

  0
ENDBLK
  5
25
330
23
100
AcDbEntity
  8
0
100
AcDbBlockEnd
  0
BLOCK
  5
2C6
330
2C0
100
AcDbEntity
  8
0
100
AcDbBlockBegin
  2
_FILLED
 70
     0
 10
0.0
 20
0.0
 30
0.0
  3
_FILLED
  1

  0
LINE
  5
2C1
330
2C0
100
AcDbEntity
  8
0
  6
ByBlock
 62
     0
370
    -2
100
AcDbLine
 10
0.0
 20
0.0
 30
0.0
 11
-1.0
 21
0.125
 31
0.0
  0
LINE
  5
2C2
330
2C0
100
AcDbEntity
  8
0
  6
ByBlock
 62
     0
370
    -2
100
AcDbLine
 10
-1.0
 20
0.125
 30
0.0
 11
-1.0
 21
-0.125
 31
0.0
  0
LINE
  5
2C3
330
2C0
100
AcDbEntity
  8
0
  6
ByBlock
 62
     0
370
    -2
100
AcDbLine
 10
-1.0
 20
-0.125
 30
0.0
 11
0.0
 21
0.0
 31
0.0
  0
LINE
  5
2C4
330
2C0
100
AcDbEntity
  8
0
  6
ByBlock
 62
     0
370
    -2
100
AcDbLine
 10
-0.5000000000000001
 20
-0.0625
 30
0.0
 11
-1.0
 21
0.0
 31
0.0
  0
LINE
  5
2C5
330
2C0
100
AcDbEntity
  8
0
  6
ByBlock
 62
     0
370
    -2
100
AcDbLine
 10
-0.5000000000000001
 20
0.0625
 30
0.0
 11
-0.515873015873016
 21
-0.064484126984127
 31
0.0
  0
ENDBLK
  5
2C7
330
2C0
100
AcDbEntity
  8
0
100
AcDbBlockEnd
  0
ENDSEC
  0
SECTION
  2
ENTITIES
  0
POLYLINE
  5
6F
330
1F
100
AcDbEntity
  8
FISHER_PAYKEL
 62
     5
420
      255
100
AcDb2dPolyline
 66
     1
 10
0.0
 20
0.0
 30
0.0
  0
VERTEX
  5
70
330
6F
100
AcDbEntity
  8
FISHER_PAYKEL
 62
     5
420
      255
100
AcDbVertex
100
AcDb2dVertex
 10
1992.728938350791
 20
680.9392309863734
 30
0.0
  0
VERTEX
  5
71
330
6F
100
AcDbEntity
  8
FISHER_PAYKEL
 62
     5
420
      255
100
AcDbVertex
100
AcDb2dVertex
 10
2012.728938350791
 20
680.9392309863734
 30
0.0
  0
SEQEND
  5
72
330
6F
100
AcDbEntity
  8
FISHER_PAYKEL
 62
     5
420
      255
  0
POLYLINE
  5
73
330
1F
100
AcDbEntity
  8
FISHER_PAYKEL
 62
     5
420
      255
100
AcDb2dPolyline
 66
     1
 10
0.0
 20
0.0
 30
0.0
  0
VERTEX
  5
74
330
73
100
AcDbEntity
  8
FISHER_PAYKEL
 62
     5
420
      255
100
AcDbVertex
100
AcDb2dVertex
 10
322.7289383507912
 20
680.9392309863734
 30
0.0
  0
VERTEX
  5
75
330
73
100
AcDbEntity
  8
FISHER_PAYKEL
 62
     5
420
      255
100
AcDbVertex
100
AcDb2dVertex
 10
302.7289383507912
 20
680.9392309863734
 30
0.0
  0
SEQEND
  5
76
330
73
100
AcDbEntity
  8
FISHER_PAYKEL
 62
     5
420
      255
  0
POLYLINE
  5
77
330
1F
100
AcDbEntity
  8
FISHER_PAYKEL
 62
     5
420
      255
100
AcDb2dPolyline
 66
     1
 10
0.0
 20
0.0
 30
0.0
  0
VERTEX
  5
78
330
77
100
AcDbEntity
  8
FISHER_PAYKEL
 62
     5
420
      255
100
AcDbVertex
100
AcDb2dVertex
 10
322.7289383507912
 20
680.9392309863734
 30
0.0
  0
VERTEX
  5
79
330
77
100
AcDbEntity
  8
FISHER_PAYKEL
 62
     5
420
      255
100
AcDbVertex
100
AcDb2dVertex
 10
1992.728938350791
 20
680.9392309863734
 30
0.0
  0
SEQEND
  5
7A
330
77
100
AcDbEntity
  8
FISHER_PAYKEL
 62
     5
420
      255
  0
LINE
  5
7B
330
1F
100
AcDbEntity
  8
FISHER_PAYKEL
 62
   250
420
  1316376
370
     9
100
AcDbLine
 10
444.4910810022953
 20
121.1788016719427
 30
0.0
 11
445.2813158863861
 21
121.9619808874259
 31
0.0
  0
SPLINE
  5
7C
330
1F
100
AcDbEntity
  8
FISHER_PAYKEL
 62
   250
420
  1316376
370
     9
100
AcDbSpline
210
0.0
220
0.0
230
1.0
 70
     8
 71
     3
 72
     8
 73
     4
 74
     0
 42
0.000000001
 43
0.0000000001
 40
0.3153727952756245
 40
0.3153727952756245
 40
0.3153727952756245
 40
0.3153727952756245
 40
1.315372795275624
 40
1.315372795275624
 40
1.315372795275624
 40
1.315372795275624
 10
445.2813158863861
 20
121.9619808874259
 30
0.0
 10
446.6289485905057
 20
120.6284595205223
 30
0.0
 10
448.1882513528639
 20
119.7817792875676
 30
0.0
 10
449.768721121046
 20
119.7817792875676
 30
0.0
  0
SPLINE
  5
7D
330
1F
100
AcDbEntity
  8
FISHER_PAYKEL
 62
   250
420
  1316376
370
     9
100
AcDbSpline
210
0.0
220
0.0
230
1.0
 70
     8
 71
     3
 72
     8
 73
     4
 74
     0
 42
0.000000001
 43
0.0000000001
 40
1.315372795275624
 40
1.315372795275624
 40
1.315372795275624
 40
1.315372795275624
 40
2.315372795275624
 40
2.315372795275624
 40
2.315372795275624
 40
2.315372795275624
 10
449.768721121046
 20
119.7817792875676
 30
0.0
 10
452.1429536076231
 20
119.7817792875676
 30
0.0
 10
453.7869243932768
 20
121.4328057418293
 30
0.0
 10
453.7869243932768
 20
123.5036444782641
 30
0.0
  0
LINE
  5
7E
330
1F
100
AcDbEntity
  8
FISHER_PAYKEL
 62
   250
420
  1316376
370
     9
100
AcDbLine
 10
453.7869243932768
 20
123.5036444782641
 30
0.0
 11
453.7869243932768
 21
123.5495063242161
 31
0.0
  0
SPLINE
  5
7F
330
1F
100
AcDbEntity
  8
FISHER_PAYKEL
 62
   250
420
  1316376
370
     9
100
AcDbSpline
210
0.0
220
0.0
230
1.0
 70
     8
 71
     3
 72
     8
 73
     4
 74
     0
 42
0.000000001
 43
0.0000000001
 40
2.328372795275658
 40
2.328372795275658
 40
2.328372795275658
 40
2.328372795275658
 40
3.328372795275658
 40
3.328372795275658
 40
3.328372795275658
 40
3.328372795275658
 10
453.7869243932768
 20
123.5495063242161
 30
0.0
 10
453.7869243932768
 20
125.599178054827
 30
0.0
 10
452.1006195959754
 20
127.0597014566738
 30
0.0
 10
449.6840530977505
 20
127.0597014566738
 30
0.0
  0
SPLINE
  5
80
330
1F
100
AcDbEntity
  8
FISHER_PAYKEL
 62
   250
420
  1316376
370
     9
100
AcDbSpline
210
0.0
220
0.0
230
1.0
 70
     8
 71
     3
 72
     8
 73
     4
 74
     0
 42
0.000000001
 43
0.0000000001
 40
3.328372795275658
 40
3.328372795275658
 40
3.328372795275658
 40
3.328372795275658
 40
4.328372795275659
 40
4.328372795275659
 40
4.328372795275659
 40
4.328372795275659
 10
449.6840530977505
 20
127.0597014566738
 30
0.0
 10
448.2940863819832
 20
127.0597014566738
 30
0.0
 10
447.2498474280059
 20
126.6363613401966
 30
0.0
 10
446.3079156688435
 20
126.1248253661197
 30
0.0
  0
LINE
  5
81
330
1F
100
AcDbEntity
  8
FISHER_PAYKEL
 62
   250
420
  1316376
370
     9
100
AcDbLine
 10
446.3079156688435
 20
126.1248253661197
 30
0.0
 11
445.4506519329769
 21
126.6786953518442
 31
0.0
  0
LINE
  5
82
330
1F
100
AcDbEntity
  8
FISHER_PAYKEL
 62
   250
420
  1316376
370
     9
100
AcDbLine
 10
445.4506519329769
 20
126.6786953518442
 30
0.0
 11
445.8810477180624
 21
133.8507824918311
 31
0.0
  0
LINE
  5
83
330
1F
100
AcDbEntity
  8
FISHER_PAYKEL
 62
   250
420
  1316376
370
     9
100
AcDbLine
 10
445.8810477180624
 20
133.8507824918311
 30
0.0
 11
454.2772933615298
 21
133.8507824918311
 31
0.0
  0
LINE
  5
84
330
1F
100
AcDbEntity
  8
FISHER_PAYKEL
 62
   250
420
  1316376
370
     9
100
AcDbLine
 10
454.2772933615298
 20
133.8507824918311
 30
0.0
 11
454.2772933615298
 21
132.7924322006377
 31
0.0
  0
LINE
  5
85
330
1F
100
AcDbEntity
  8
FISHER_PAYKEL
 62
   250
420
  1316376
370
     9
100
AcDbLine
 10
454.2772933615298
 20
132.7924322006377
 30
0.0
 11
446.8617856545683
 21
132.7924322006377
 31
0.0
  0
LINE
  5
86
330
1F
100
AcDbEntity
  8
FISHER_PAYKEL
 62
   250
420
  1316376
370
     9
100
AcDbLine
 10
446.8617856545683
 20
132.7924322006377
 30
0.0
 11
446.4984187212584
 21
127.2502045090887
 31
0.0
  0
SPLINE
  5
87
330
1F
100
AcDbEntity
  8
FISHER_PAYKEL
 62
   250
420
  1316376
370
     9
100
AcDbSpline
210
0.0
220
0.0
230
1.0
 70
     8
 71
     3
 72
     8
 73
     4
 74
     0
 42
0.000000001
 43
0.0000000001
 40
13.01070906300447
 40
13.01070906300447
 40
13.01070906300447
 40
13.01070906300447
 40
14.01070906300447
 40
14.01070906300447
 40
14.01070906300447
 40
14.01070906300447
 10
446.4984187212584
 20
127.2502045090887
 30
0.0
 10
447.4615174862446
 20
127.7158786372138
 30
0.0
 10
448.4246162512303
 20
128.0545507303957
 30
0.0
 10
449.8110551326937
 20
128.0545507303957
 30
0.0
  0
SPLINE
  5
88
330
1F
100
AcDbEntity
  8
FISHER_PAYKEL
 62
   250
420
  1316376
370
     9
100
AcDbSpline
210
0.0
220
0.0
230
1.0
 70
     8
 71
     3
 72
     8
 73
     4
 74
     0
 42
0.000000001
 43
0.0000000001
 40
14.01070906300447
 40
14.01070906300447
 40
14.01070906300447
 40
14.01070906300447
 40
15.01070906300447
 40
15.01070906300447
 40
15.01070906300447
 40
15.01070906300447
 10
449.8110551326937
 20
128.0545507303957
 30
0.0
 10
452.6968235933476
 20
128.0545507303957
 30
0.0
 10
454.9405262106774
 20
126.234188229543
 30
0.0
 10
454.9405262106774
 20
123.5918403358637
 30
0.0
  0
LINE
  5
89
330
1F
100
AcDbEntity
  8
FISHER_PAYKEL
 62
   250
420
  1316376
370
     9
100
AcDbLine
 10
454.9405262106774
 20
123.5918403358637
 30
0.0
 11
454.9405262106774
 21
123.5495063242161
 31
0.0
  0
SPLINE
  5
8A
330
1F
100
AcDbEntity
  8
FISHER_PAYKEL
 62
   250
420
  1316376
370
     9
100
AcDbSpline
210
0.0
220
0.0
230
1.0
 70
     8
 71
     3
 72
     8
 73
     4
 74
     0
 42
0.000000001
 43
0.0000000001
 40
15.02270906300447
 40
15.02270906300447
 40
15.02270906300447
 40
15.02270906300447
 40
16.02270906300447
 40
16.02270906300447
 40
16.02270906300447
 40
16.02270906300447
 10
454.9405262106774
 20
123.5495063242161
 30
0.0
 10
454.9405262106774
 20
120.7554615554654
 30
0.0
 10
452.7391576049953
 20
118.7869300138459
 30
0.0
 10
449.7263871093984
 20
118.7869300138459
 30
0.0
  0
SPLINE
  5
8B
330
1F
100
AcDbEntity
  8
FISHER_PAYKEL
 62
   250
420
  1316376
370
     9
100
AcDbSpline
210
0.0
220
0.0
230
1.0
 70
     8
 71
     3
 72
     8
 73
     4
 74
     0
 42
0.000000001
 43
0.0000000001
 40
16.02270906300447
 40
16.02270906300447
 40
16.02270906300447
 40
16.02270906300447
 40
17.02270906300447
 40
17.02270906300447
 40
17.02270906300447
 40
17.02270906300447
 10
449.7263871093984
 20
118.7869300138459
 30
0.0
 10
447.6978828682442
 20
118.7869300138459
 30
0.0
 10
445.7963806014742
 20
119.8664467961091
 30
0.0
 10
444.4910810022953
 20
121.1788016719427
 30
0.0
  0
POLYLINE
  5
8C
330
1F
100
AcDbEntity
  8
FISHER_PAYKEL
 62
   250
420
  1316376
370
     9
100
AcDb2dPolyline
 66
     1
 10
0.0
 20
0.0
 30
0.0
 70
     1
  0
VERTEX
  5
8D
330
8C
100
AcDbEntity
  8
FISHER_PAYKEL
 62
   250
420
  1316376
370
     9
100
AcDbVertex
100
AcDb2dVertex
 10
569.4138104067326
 20
132.8132464230314
 30
0.0
  0
VERTEX
  5
8E
330
8C
100
AcDbEntity
  8
FISHER_PAYKEL
 62
   250
420
  1316376
370
     9
100
AcDbVertex
100
AcDb2dVertex
 10
566.5280419460789
 20
131.8395641551335
 30
0.0
  0
VERTEX
  5
8F
330
8C
100
AcDbEntity
  8
FISHER_PAYKEL
 62
   250
420
  1316376
370
     9
100
AcDbVertex
100
AcDb2dVertex
 10
566.2281760302408
 20
132.7074113939123
 30
0.0
  0
VERTEX
  5
90
330
8C
100
AcDbEntity
  8
FISHER_PAYKEL
 62
   250
420
  1316376
370
     9
100
AcDbVertex
100
AcDb2dVertex
 10
569.6466474707952
 20
133.9562647375203
 30
0.0
  0
VERTEX
  5
91
330
8C
100
AcDbEntity
  8
FISHER_PAYKEL
 62
   250
420
  1316376
370
     9
100
AcDbVertex
100
AcDb2dVertex
 10
570.5039112066622
 20
133.9562647375203
 30
0.0
  0
VERTEX
  5
92
330
8C
100
AcDbEntity
  8
FISHER_PAYKEL
 62
   250
420
  1316376
370
     9
100
AcDbVertex
100
AcDb2dVertex
 10
570.5039112066622
 20
119.0441091346058
 30
0.0
  0
VERTEX
  5
93
330
8C
100
AcDbEntity
  8
FISHER_PAYKEL
 62
   250
420
  1316376
370
     9
100
AcDbVertex
100
AcDb2dVertex
 10
569.4138104067329
 20
119.0441091346058
 30
0.0
  0
SEQEND
  5
94
330
8C
100
AcDbEntity
  8
FISHER_PAYKEL
 62
   250
420
  1316376
370
     9
  0
LINE
  5
95
330
1F
100
AcDbEntity
  8
FISHER_PAYKEL
 62
   250
420
  1316376
370
     9
100
AcDbLine
 10
574.1061828144539
 20
126.4017603589821
 30
0.0
 11
574.1061828144539
 21
126.4476222049336
 31
0.0
  0
SPLINE
  5
96
330
1F
100
AcDbEntity
  8
FISHER_PAYKEL
 62
   250
420
  1316376
370
     9
100
AcDbSpline
210
0.0
220
0.0
230
1.0
 70
     8
 71
     3
 72
     8
 73
     4
 74
     0
 42
0.000000001
 43
0.0000000001
 40
2.012999999999977
 40
2.012999999999977
 40
2.012999999999977
 40
2.012999999999977
 40
3.012999999999977
 40
3.012999999999977
 40
3.012999999999977
 40
3.012999999999977
 10
574.1061828144539
 20
126.4476222049336
 30
0.0
 10
574.1061828144539
 20
130.5293264946361
 30
0.0
 10
576.5227493126786
 20
134.1065504788696
 30
0.0
 10
580.3292825266708
 20
134.1065504788696
 30
0.0
  0
SPLINE
  5
97
330
1F
100
AcDbEntity
  8
FISHER_PAYKEL
 62
   250
420
  1316376
370
     9
100
AcDbSpline
210
0.0
220
0.0
230
1.0
 70
     8
 71
     3
 72
     8
 73
     4
 74
     0
 42
0.000000001
 43
0.0000000001
 40
3.012999999999977
 40
3.012999999999977
 40
3.012999999999977
 40
3.012999999999977
 40
4.012999999999977
 40
4.012999999999977
 40
4.012999999999977
 40
4.012999999999977
 10
580.3292825266708
 20
134.1065504788696
 30
0.0
 10
584.1322879063589
 20
134.1065504788696
 30
0.0
 10
586.5029925586321
 20
130.5716605062837
 30
0.0
 10
586.5029925586321
 20
126.4864283822774
 30
0.0
  0
LINE
  5
98
330
1F
100
AcDbEntity
  8
FISHER_PAYKEL
 62
   250
420
  1316376
370
     9
100
AcDbLine
 10
586.5029925586321
 20
126.4864283822774
 30
0.0
 11
586.5029925586321
 21
126.4476222049336
 31
0.0
  0
SPLINE
  5
99
330
1F
100
AcDbEntity
  8
FISHER_PAYKEL
 62
   250
420
  1316376
370
     9
100
AcDbSpline
210
0.0
220
0.0
230
1.0
 70
     8
 71
     3
 72
     8
 73
     4
 74
     0
 42
0.000000001
 43
0.0000000001
 40
4.024000000000001
 40
4.024000000000001
 40
4.024000000000001
 40
4.024000000000001
 40
5.024000000000001
 40
5.024000000000001
 40
5.024000000000001
 40
5.024000000000001
 10
586.5029925586321
 20
126.4476222049336
 30
0.0
 10
586.5029925586321
 20
122.3623900809275
 30
0.0
 10
584.0899538947112
 20
118.7886939309979
 30
0.0
 10
580.2834206807192
 20
118.7886939309979
 30
0.0
  0
SPLINE
  5
9A
330
1F
100
AcDbEntity
  8
FISHER_PAYKEL
 62
   250
420
  1316376
370
     9
100
AcDbSpline
210
0.0
220
0.0
230
1.0
 70
     8
 71
     3
 72
     8
 73
     4
 74
     0
 42
0.000000001
 43
0.0000000001
 40
5.024000000000001
 40
5.024000000000001
 40
5.024000000000001
 40
5.024000000000001
 40
6.024000000000001
 40
6.024000000000001
 40
6.024000000000001
 40
6.024000000000001
 10
580.2834206807192
 20
118.7886939309979
 30
0.0
 10
576.4804153010309
 20
118.7886939309979
 30
0.0
 10
574.1061828144539
 20
122.3200560692796
 30
0.0
 10
574.1061828144539
 20
126.4017603589821
 30
0.0
  0
LINE
  5
9B
330
1F
100
AcDbEntity
  8
FISHER_PAYKEL
 62
   250
420
  1316376
370
     9
100
AcDbLine
 10
585.3493907412314
 20
126.4017603589821
 30
0.0
 11
585.3493907412314
 21
126.4476222049336
 31
0.0
  0
SPLINE
  5
9C
330
1F
100
AcDbEntity
  8
FISHER_PAYKEL
 62
   250
420
  1316376
370
     9
100
AcDbSpline
210
0.0
220
0.0
230
1.0
 70
     8
 71
     3
 72
     8
 73
     4
 74
     0
 42
0.000000001
 43
0.0000000001
 40
0.0129999999999768
 40
0.0129999999999768
 40
0.0129999999999768
 40
0.0129999999999768
 40
1.012999999999977
 40
1.012999999999977
 40
1.012999999999977
 40
1.012999999999977
 10
585.3493907412314
 20
126.4476222049336
 30
0.0
 10
585.3493907412314
 20
129.8943163199201
 30
0.0
 10
583.3843870339156
 20
133.108173370844
 30
0.0
 10
580.2834206807192
 20
133.108173370844
 30
0.0
  0
SPLINE
  5
9D
330
1F
100
AcDbEntity
  8
FISHER_PAYKEL
 62
   250
420
  1316376
370
     9
100
AcDbSpline
210
0.0
220
0.0
230
1.0
 70
     8
 71
     3
 72
     8
 73
     4
 74
     0
 42
0.000000001
 43
0.0000000001
 40
1.012999999999977
 40
1.012999999999977
 40
1.012999999999977
 40
1.012999999999977
 40
2.012999999999977
 40
2.012999999999977
 40
2.012999999999977
 40
2.012999999999977
 10
580.2834206807192
 20
133.108173370844
 30
0.0
 10
577.1859821618266
 20
133.108173370844
 30
0.0
 10
575.2633124661588
 20
129.936650331568
 30
0.0
 10
575.2633124661588
 20
126.4864283822774
 30
0.0
  0
LINE
  5
9E
330
1F
100
AcDbEntity
  8
FISHER_PAYKEL
 62
   250
420
  1316376
370
     9
100
AcDbLine
 10
575.2633124661588
 20
126.4864283822774
 30
0.0
 11
575.2633124661588
 21
126.4476222049336
 31
0.0
  0
SPLINE
  5
9F
330
1F
100
AcDbEntity
  8
FISHER_PAYKEL
 62
   250
420
  1316376
370
     9
100
AcDbSpline
210
0.0
220
0.0
230
1.0
 70
     8
 71
     3
 72
     8
 73
     4
 74
     0
 42
0.000000001
 43
0.0000000001
 40
2.024000000000001
 40
2.024000000000001
 40
2.024000000000001
 40
2.024000000000001
 40
3.024000000000001
 40
3.024000000000001
 40
3.024000000000001
 40
3.024000000000001
 10
575.2633124661588
 20
126.4476222049336
 30
0.0
 10
575.2633124661588
 20
123.0185672614673
 30
0.0
 10
577.2283161734742
 20
119.7800153704154
 30
0.0
 10
580.3292825266708
 20
119.7800153704154
 30
0.0
  0
SPLINE
  5
A0
330
1F
100
AcDbEntity
  8
FISHER_PAYKEL
 62
   250
420
  1316376
370
     9
100
AcDbSpline
210
0.0
220
0.0
230
1.0
 70
     8
 71
     3
 72
     8
 73
     4
 74
     0
 42
0.000000001
 43
0.0000000001
 40
3.024000000000001
 40
3.024000000000001
 40
3.024000000000001
 40
3.024000000000001
 40
4.024000000000001
 40
4.024000000000001
 40
4.024000000000001
 40
4.024000000000001
 10
580.3292825266708
 20
119.7800153704154
 30
0.0
 10
583.4267210455632
 20
119.7800153704154
 30
0.0
 10
585.3493907412314
 20
122.9762332498194
 30
0.0
 10
585.3493907412314
 20
126.4017603589821
 30
0.0
  0
LINE
  5
A1
330
1F
100
AcDbEntity
  8
FISHER_PAYKEL
 62
   250
420
  1316376
370
     9
100
AcDbLine
 10
817.8971723908428
 20
119.8660945274326
 30
0.0
 11
823.4746784254321
 21
124.8579800675616
 31
0.0
  0
SPLINE
  5
A2
330
1F
100
AcDbEntity
  8
FISHER_PAYKEL
 62
   250
420
  1316376
370
     9
100
AcDbSpline
210
0.0
220
0.0
230
1.0
 70
     8
 71
     3
 72
     8
 73
     4
 74
     0
 42
0.000000001
 43
0.0000000001
 40
2.121741266036095
 40
2.121741266036095
 40
2.121741266036095
 40
2.121741266036095
 40
3.121741266036095
 40
3.121741266036095
 40
3.121741266036095
 40
3.121741266036095
 10
823.4746784254321
 20
124.8579800675616
 30
0.0
 10
825.9300511010003
 20
127.0805156790675
 30
0.0
 10
826.7873148368669
 20
128.3505360284994
 30
0.0
 10
826.7873148368669
 20
129.9168944594655
 30
0.0
  0
SPLINE
  5
A3
330
1F
100
AcDbEntity
  8
FISHER_PAYKEL
 62
   250
420
  1316376
370
     9
100
AcDbSpline
210
0.0
220
0.0
230
1.0
 70
     8
 71
     3
 72
     8
 73
     4
 74
     0
 42
0.000000001
 43
0.0000000001
 40
3.121741266036095
 40
3.121741266036095
 40
3.121741266036095
 40
3.121741266036095
 40
4.121741266036095
 40
4.121741266036095
 40
4.121741266036095
 40
4.121741266036095
 10
826.7873148368669
 20
129.9168944594655
 30
0.0
 10
826.7873148368669
 20
131.8395641551335
 30
0.0
 10
825.2033172343811
 20
133.0884174987416
 30
0.0
 10
823.4076495736563
 20
133.0884174987416
 30
0.0
  0
SPLINE
  5
A4
330
1F
100
AcDbEntity
  8
FISHER_PAYKEL
 62
   250
420
  1316376
370
     9
100
AcDbSpline
210
0.0
220
0.0
230
1.0
 70
     8
 71
     3
 72
     8
 73
     4
 74
     0
 42
0.000000001
 43
0.0000000001
 40
4.121741266036095
 40
4.121741266036095
 40
4.121741266036095
 40
4.121741266036095
 40
5.121741266036095
 40
5.121741266036095
 40
5.121741266036095
 40
5.121741266036095
 10
823.4076495736563
 20
133.0884174987416
 30
0.0
 10
821.5061468838123
 20
133.0884174987416
 30
0.0
 10
820.2714048774199
 20
132.1147352308437
 30
0.0
 10
819.0296072024198
 20
130.3367067416389
 30
0.0
  0
LINE
  5
A5
330
1F
100
AcDbEntity
  8
FISHER_PAYKEL
 62
   250
420
  1316376
370
     9
100
AcDbLine
 10
819.0296072024198
 20
130.3367067416389
 30
0.0
 11
818.1970383066807
 21
130.8870488930595
 31
0.0
  0
SPLINE
  5
A6
330
1F
100
AcDbEntity
  8
FISHER_PAYKEL
 62
   250
420
  1316376
370
     9
100
AcDbSpline
210
0.0
220
0.0
230
1.0
 70
     8
 71
     3
 72
     8
 73
     4
 74
     0
 42
0.000000001
 43
0.0000000001
 40
5.404640541397528
 40
5.404640541397528
 40
5.404640541397528
 40
5.404640541397528
 40
6.404640541397528
 40
6.404640541397528
 40
6.404640541397528
 40
6.404640541397528
 10
818.1970383066807
 20
130.8870488930595
 30
0.0
 10
819.4988091648488
 20
132.8555804346793
 30
0.0
 10
820.8887758806161
 20
134.0585719323356
 30
0.0
 10
823.5170124370795
 20
134.0585719323356
 30
0.0
  0
SPLINE
  5
A7
330
1F
100
AcDbEntity
  8
FISHER_PAYKEL
 62
   250
420
  1316376
370
     9
100
AcDbSpline
210
0.0
220
0.0
230
1.0
 70
     8
 71
     3
 72
     8
 73
     4
 74
     0
 42
0.000000001
 43
0.0000000001
 40
6.404640541397528
 40
6.404640541397528
 40
6.404640541397528
 40
6.404640541397528
 40
7.404640541397528
 40
7.404640541397528
 40
7.404640541397528
 40
7.404640541397528
 10
823.5170124370795
 20
134.0585719323356
 30
0.0
 10
826.0570531359435
 20
134.0585719323356
 30
0.0
 10
827.9620836600916
 20
132.3052382832586
 30
0.0
 10
827.9620836600916
 20
129.998034648457
 30
0.0
  0
LINE
  5
A8
330
1F
100
AcDbEntity
  8
FISHER_PAYKEL
 62
   250
420
  1316376
370
     9
100
AcDbLine
 10
827.9620836600916
 20
129.998034648457
 30
0.0
 11
827.9620836600916
 21
129.9557006368093
 31
0.0
  0
SPLINE
  5
A9
330
1F
100
AcDbEntity
  8
FISHER_PAYKEL
 62
   250
420
  1316376
370
     9
100
AcDbSpline
210
0.0
220
0.0
230
1.0
 70
     8
 71
     3
 72
     8
 73
     4
 74
     0
 42
0.000000001
 43
0.0000000001
 40
7.416640541397529
 40
7.416640541397529
 40
7.416640541397529
 40
7.416640541397529
 40
8.416640541397529
 40
8.416640541397529
 40
8.416640541397529
 40
8.416640541397529
 10
827.9620836600916
 20
129.9557006368093
 30
0.0
 10
827.9620836600916
 20
127.923668077718
 30
0.0
 10
826.8508158543386
 20
126.5725075392945
 30
0.0
 10
824.2225792978752
 20
124.2018028870214
 30
0.0
  0
LINE
  5
AA
330
1F
100
AcDbEntity
  8
FISHER_PAYKEL
 62
   250
420
  1316376
370
     9
100
AcDbLine
 10
824.2225792978752
 20
124.2018028870214
 30
0.0
 11
819.65050603992
 21
120.0954037571912
 31
0.0
  0
LINE
  5
AB
330
1F
100
AcDbEntity
  8
FISHER_PAYKEL
 62
   250
420
  1316376
370
     9
100
AcDbLine
 10
819.65050603992
 20
120.0954037571912
 30
0.0
 11
828.1137805351627
 21
120.0954037571912
 31
0.0
  0
LINE
  5
AC
330
1F
100
AcDbEntity
  8
FISHER_PAYKEL
 62
   250
420
  1316376
370
     9
100
AcDbLine
 10
828.1137805351627
 20
120.0954037571912
 30
0.0
 11
828.1137805351627
 21
119.0441091346058
 31
0.0
  0
LINE
  5
AD
330
1F
100
AcDbEntity
  8
FISHER_PAYKEL
 62
   250
420
  1316376
370
     9
100
AcDbLine
 10
828.1137805351627
 20
119.0441091346058
 30
0.0
 11
817.8971723908428
 21
119.0441091346058
 31
0.0
  0
LINE
  5
AE
330
1F
100
AcDbEntity
  8
FISHER_PAYKEL
 62
   250
420
  1316376
370
     9
100
AcDbLine
 10
817.8971723908428
 20
119.0441091346058
 30
0.0
 11
817.8971723908428
 21
119.8660945274326
 31
0.0
  0
LINE
  5
AF
330
1F
100
AcDbEntity
  8
FISHER_PAYKEL
 62
   250
420
  1316376
370
     9
100
AcDbLine
 10
830.8319768663775
 20
126.4017603589821
 30
0.0
 11
830.8319768663775
 21
126.4476222049336
 31
0.0
  0
SPLINE
  5
B0
330
1F
100
AcDbEntity
  8
FISHER_PAYKEL
 62
   250
420
  1316376
370
     9
100
AcDbSpline
210
0.0
220
0.0
230
1.0
 70
     8
 71
     3
 72
     8
 73
     4
 74
     0
 42
0.000000001
 43
0.0000000001
 40
2.012999999999977
 40
2.012999999999977
 40
2.012999999999977
 40
2.012999999999977
 40
3.012999999999977
 40
3.012999999999977
 40
3.012999999999977
 40
3.012999999999977
 10
830.8319768663775
 20
126.4476222049336
 30
0.0
 10
830.8319768663775
 20
130.5293264946361
 30
0.0
 10
833.2485433646025
 20
134.1065504788696
 30
0.0
 10
837.0550765785945
 20
134.1065504788696
 30
0.0
  0
SPLINE
  5
B1
330
1F
100
AcDbEntity
  8
FISHER_PAYKEL
 62
   250
420
  1316376
370
     9
100
AcDbSpline
210
0.0
220
0.0
230
1.0
 70
     8
 71
     3
 72
     8
 73
     4
 74
     0
 42
0.000000001
 43
0.0000000001
 40
3.012999999999977
 40
3.012999999999977
 40
3.012999999999977
 40
3.012999999999977
 40
4.012999999999977
 40
4.012999999999977
 40
4.012999999999977
 40
4.012999999999977
 10
837.0550765785945
 20
134.1065504788696
 30
0.0
 10
840.8580819582824
 20
134.1065504788696
 30
0.0
 10
843.2287866105557
 20
130.5716605062837
 30
0.0
 10
843.2287866105557
 20
126.4864283822774
 30
0.0
  0
LINE
  5
B2
330
1F
100
AcDbEntity
  8
FISHER_PAYKEL
 62
   250
420
  1316376
370
     9
100
AcDbLine
 10
843.2287866105557
 20
126.4864283822774
 30
0.0
 11
843.2287866105557
 21
126.4476222049336
 31
0.0
  0
SPLINE
  5
B3
330
1F
100
AcDbEntity
  8
FISHER_PAYKEL
 62
   250
420
  1316376
370
     9
100
AcDbSpline
210
0.0
220
0.0
230
1.0
 70
     8
 71
     3
 72
     8
 73
     4
 74
     0
 42
0.000000001
 43
0.0000000001
 40
4.024000000000001
 40
4.024000000000001
 40
4.024000000000001
 40
4.024000000000001
 40
5.024000000000001
 40
5.024000000000001
 40
5.024000000000001
 40
5.024000000000001
 10
843.2287866105557
 20
126.4476222049336
 30
0.0
 10
843.2287866105557
 20
122.3623900809275
 30
0.0
 10
840.8157479466347
 20
118.7886939309979
 30
0.0
 10
837.0092147326427
 20
118.7886939309979
 30
0.0
  0
SPLINE
  5
B4
330
1F
100
AcDbEntity
  8
FISHER_PAYKEL
 62
   250
420
  1316376
370
     9
100
AcDbSpline
210
0.0
220
0.0
230
1.0
 70
     8
 71
     3
 72
     8
 73
     4
 74
     0
 42
0.000000001
 43
0.0000000001
 40
5.024000000000001
 40
5.024000000000001
 40
5.024000000000001
 40
5.024000000000001
 40
6.024000000000001
 40
6.024000000000001
 40
6.024000000000001
 40
6.024000000000001
 10
837.0092147326427
 20
118.7886939309979
 30
0.0
 10
833.2062093529546
 20
118.7886939309979
 30
0.0
 10
830.8319768663775
 20
122.3200560692796
 30
0.0
 10
830.8319768663775
 20
126.4017603589821
 30
0.0
  0
LINE
  5
B5
330
1F
100
AcDbEntity
  8
FISHER_PAYKEL
 62
   250
420
  1316376
370
     9
100
AcDbLine
 10
842.0751847931549
 20
126.4017603589821
 30
0.0
 11
842.0751847931549
 21
126.4476222049336
 31
0.0
  0
SPLINE
  5
B6
330
1F
100
AcDbEntity
  8
FISHER_PAYKEL
 62
   250
420
  1316376
370
     9
100
AcDbSpline
210
0.0
220
0.0
230
1.0
 70
     8
 71
     3
 72
     8
 73
     4
 74
     0
 42
0.000000001
 43
0.0000000001
 40
0.0129999999999768
 40
0.0129999999999768
 40
0.0129999999999768
 40
0.0129999999999768
 40
1.012999999999977
 40
1.012999999999977
 40
1.012999999999977
 40
1.012999999999977
 10
842.0751847931549
 20
126.4476222049336
 30
0.0
 10
842.0751847931549
 20
129.8943163199201
 30
0.0
 10
840.1066532515354
 20
133.108173370844
 30
0.0
 10
837.0092147326427
 20
133.108173370844
 30
0.0
  0
SPLINE
  5
B7
330
1F
100
AcDbEntity
  8
FISHER_PAYKEL
 62
   250
420
  1316376
370
     9
100
AcDbSpline
210
0.0
220
0.0
230
1.0
 70
     8
 71
     3
 72
     8
 73
     4
 74
     0
 42
0.000000001
 43
0.0000000001
 40
1.012999999999977
 40
1.012999999999977
 40
1.012999999999977
 40
1.012999999999977
 40
2.012999999999977
 40
2.012999999999977
 40
2.012999999999977
 40
2.012999999999977
 10
837.0092147326427
 20
133.108173370844
 30
0.0
 10
833.9153040480542
 20
133.108173370844
 30
0.0
 10
831.9891065180823
 20
129.936650331568
 30
0.0
 10
831.9891065180823
 20
126.4864283822774
 30
0.0
  0
LINE
  5
B8
330
1F
100
AcDbEntity
  8
FISHER_PAYKEL
 62
   250
420
  1316376
370
     9
100
AcDbLine
 10
831.9891065180823
 20
126.4864283822774
 30
0.0
 11
831.9891065180823
 21
126.4476222049336
 31
0.0
  0
SPLINE
  5
B9
330
1F
100
AcDbEntity
  8
FISHER_PAYKEL
 62
   250
420
  1316376
370
     9
100
AcDbSpline
210
0.0
220
0.0
230
1.0
 70
     8
 71
     3
 72
     8
 73
     4
 74
     0
 42
0.000000001
 43
0.0000000001
 40
2.024000000000001
 40
2.024000000000001
 40
2.024000000000001
 40
2.024000000000001
 40
3.024000000000001
 40
3.024000000000001
 40
3.024000000000001
 40
3.024000000000001
 10
831.9891065180823
 20
126.4476222049336
 30
0.0
 10
831.9891065180823
 20
123.0185672614673
 30
0.0
 10
833.9541102253979
 20
119.7800153704154
 30
0.0
 10
837.0550765785945
 20
119.7800153704154
 30
0.0
  0
SPLINE
  5
BA
330
1F
100
AcDbEntity
  8
FISHER_PAYKEL
 62
   250
420
  1316376
370
     9
100
AcDbSpline
210
0.0
220
0.0
230
1.0
 70
     8
 71
     3
 72
     8
 73
     4
 74
     0
 42
0.000000001
 43
0.0000000001
 40
3.024000000000001
 40
3.024000000000001
 40
3.024000000000001
 40
3.024000000000001
 40
4.024000000000001
 40
4.024000000000001
 40
4.024000000000001
 40
4.024000000000001
 10
837.0550765785945
 20
119.7800153704154
 30
0.0
 10
840.1525150974869
 20
119.7800153704154
 30
0.0
 10
842.0751847931549
 20
122.9762332498194
 30
0.0
 10
842.0751847931549
 20
126.4017603589821
 30
0.0
  0
LINE
  5
BB
330
1F
100
AcDbEntity
  8
FISHER_PAYKEL
 62
   250
420
  1316376
370
     9
100
AcDbLine
 10
316.5330029627149
 20
126.4017603589821
 30
0.0
 11
316.5330029627149
 21
126.4476222049336
 31
0.0
  0
SPLINE
  5
BC
330
1F
100
AcDbEntity
  8
FISHER_PAYKEL
 62
   250
420
  1316376
370
     9
100
AcDbSpline
210
0.0
220
0.0
230
1.0
 70
     8
 71
     3
 72
     8
 73
     4
 74
     0
 42
0.000000001
 43
0.0000000001
 40
2.012999999999977
 40
2.012999999999977
 40
2.012999999999977
 40
2.012999999999977
 40
3.012999999999977
 40
3.012999999999977
 40
3.012999999999977
 40
3.012999999999977
 10
316.5330029627149
 20
126.4476222049336
 30
0.0
 10
316.5330029627149
 20
130.5293264946361
 30
0.0
 10
318.9495694609396
 20
134.1065504788696
 30
0.0
 10
322.7561026749318
 20
134.1065504788696
 30
0.0
  0
SPLINE
  5
BD
330
1F
100
AcDbEntity
  8
FISHER_PAYKEL
 62
   250
420
  1316376
370
     9
100
AcDbSpline
210
0.0
220
0.0
230
1.0
 70
     8
 71
     3
 72
     8
 73
     4
 74
     0
 42
0.000000001
 43
0.0000000001
 40
3.012999999999977
 40
3.012999999999977
 40
3.012999999999977
 40
3.012999999999977
 40
4.012999999999977
 40
4.012999999999977
 40
4.012999999999977
 40
4.012999999999977
 10
322.7561026749318
 20
134.1065504788696
 30
0.0
 10
326.55910805462
 20
134.1065504788696
 30
0.0
 10
328.9298127068931
 20
130.5716605062837
 30
0.0
 10
328.9298127068931
 20
126.4864283822774
 30
0.0
  0
LINE
  5
BE
330
1F
100
AcDbEntity
  8
FISHER_PAYKEL
 62
   250
420
  1316376
370
     9
100
AcDbLine
 10
328.9298127068931
 20
126.4864283822774
 30
0.0
 11
328.9298127068931
 21
126.4476222049336
 31
0.0
  0
SPLINE
  5
BF
330
1F
100
AcDbEntity
  8
FISHER_PAYKEL
 62
   250
420
  1316376
370
     9
100
AcDbSpline
210
0.0
220
0.0
230
1.0
 70
     8
 71
     3
 72
     8
 73
     4
 74
     0
 42
0.000000001
 43
0.0000000001
 40
4.024000000000001
 40
4.024000000000001
 40
4.024000000000001
 40
4.024000000000001
 40
5.024000000000001
 40
5.024000000000001
 40
5.024000000000001
 40
5.024000000000001
 10
328.9298127068931
 20
126.4476222049336
 30
0.0
 10
328.9298127068931
 20
122.3623900809275
 30
0.0
 10
326.5167740429721
 20
118.7886939309979
 30
0.0
 10
322.71024082898
 20
118.7886939309979
 30
0.0
  0
SPLINE
  5
C0
330
1F
100
AcDbEntity
  8
FISHER_PAYKEL
 62
   250
420
  1316376
370
     9
100
AcDbSpline
210
0.0
220
0.0
230
1.0
 70
     8
 71
     3
 72
     8
 73
     4
 74
     0
 42
0.000000001
 43
0.0000000001
 40
5.024000000000001
 40
5.024000000000001
 40
5.024000000000001
 40
5.024000000000001
 40
6.024000000000001
 40
6.024000000000001
 40
6.024000000000001
 40
6.024000000000001
 10
322.71024082898
 20
118.7886939309979
 30
0.0
 10
318.9072354492919
 20
118.7886939309979
 30
0.0
 10
316.5330029627149
 20
122.3200560692796
 30
0.0
 10
316.5330029627149
 20
126.4017603589821
 30
0.0
  0
LINE
  5
C1
330
1F
100
AcDbEntity
  8
FISHER_PAYKEL
 62
   250
420
  1316376
370
     9
100
AcDbLine
 10
327.7762108894923
 20
126.4017603589821
 30
0.0
 11
327.7762108894923
 21
126.4476222049336
 31
0.0
  0
SPLINE
  5
C2
330
1F
100
AcDbEntity
  8
FISHER_PAYKEL
 62
   250
420
  1316376
370
     9
100
AcDbSpline
210
0.0
220
0.0
230
1.0
 70
     8
 71
     3
 72
     8
 73
     4
 74
     0
 42
0.000000001
 43
0.0000000001
 40
0.0129999999999768
 40
0.0129999999999768
 40
0.0129999999999768
 40
0.0129999999999768
 40
1.012999999999977
 40
1.012999999999977
 40
1.012999999999977
 40
1.012999999999977
 10
327.7762108894923
 20
126.4476222049336
 30
0.0
 10
327.7762108894923
 20
129.8943163199201
 30
0.0
 10
325.8112071821767
 20
133.108173370844
 30
0.0
 10
322.71024082898
 20
133.108173370844
 30
0.0
  0
SPLINE
  5
C3
330
1F
100
AcDbEntity
  8
FISHER_PAYKEL
 62
   250
420
  1316376
370
     9
100
AcDbSpline
210
0.0
220
0.0
230
1.0
 70
     8
 71
     3
 72
     8
 73
     4
 74
     0
 42
0.000000001
 43
0.0000000001
 40
1.012999999999977
 40
1.012999999999977
 40
1.012999999999977
 40
1.012999999999977
 40
2.012999999999977
 40
2.012999999999977
 40
2.012999999999977
 40
2.012999999999977
 10
322.71024082898
 20
133.108173370844
 30
0.0
 10
319.6128023100876
 20
133.108173370844
 30
0.0
 10
317.6901326144196
 20
129.936650331568
 30
0.0
 10
317.6901326144196
 20
126.4864283822774
 30
0.0
  0
LINE
  5
C4
330
1F
100
AcDbEntity
  8
FISHER_PAYKEL
 62
   250
420
  1316376
370
     9
100
AcDbLine
 10
317.6901326144196
 20
126.4864283822774
 30
0.0
 11
317.6901326144196
 21
126.4476222049336
 31
0.0
  0
SPLINE
  5
C5
330
1F
100
AcDbEntity
  8
FISHER_PAYKEL
 62
   250
420
  1316376
370
     9
100
AcDbSpline
210
0.0
220
0.0
230
1.0
 70
     8
 71
     3
 72
     8
 73
     4
 74
     0
 42
0.000000001
 43
0.0000000001
 40
2.024000000000001
 40
2.024000000000001
 40
2.024000000000001
 40
2.024000000000001
 40
3.024000000000001
 40
3.024000000000001
 40
3.024000000000001
 40
3.024000000000001
 10
317.6901326144196
 20
126.4476222049336
 30
0.0
 10
317.6901326144196
 20
123.0185672614673
 30
0.0
 10
319.6551363217354
 20
119.7800153704154
 30
0.0
 10
322.7561026749318
 20
119.7800153704154
 30
0.0
  0
SPLINE
  5
C6
330
1F
100
AcDbEntity
  8
FISHER_PAYKEL
 62
   250
420
  1316376
370
     9
100
AcDbSpline
210
0.0
220
0.0
230
1.0
 70
     8
 71
     3
 72
     8
 73
     4
 74
     0
 42
0.000000001
 43
0.0000000001
 40
3.024000000000001
 40
3.024000000000001
 40
3.024000000000001
 40
3.024000000000001
 40
4.024000000000001
 40
4.024000000000001
 40
4.024000000000001
 40
4.024000000000001
 10
322.7561026749318
 20
119.7800153704154
 30
0.0
 10
325.8535411938244
 20
119.7800153704154
 30
0.0
 10
327.7762108894923
 20
122.9762332498194
 30
0.0
 10
327.7762108894923
 20
126.4017603589821
 30
0.0
  0
POLYLINE
  5
C7
330
1F
100
AcDbEntity
  8
FISHER_PAYKEL
 62
   250
420
  1316376
370
     9
100
AcDb2dPolyline
 66
     1
 10
0.0
 20
0.0
 30
0.0
 70
     1
  0
VERTEX
  5
C8
330
C7
100
AcDbEntity
  8
FISHER_PAYKEL
 62
   250
420
  1316376
370
     9
100
AcDbVertex
100
AcDb2dVertex
 10
846.3957234652364
 20
84.59621828998388
 30
0.0
  0
VERTEX
  5
C9
330
C7
100
AcDbEntity
  8
FISHER_PAYKEL
 62
   250
420
  1316376
370
     9
100
AcDbVertex
100
AcDb2dVertex
 10
847.5069912709896
 20
84.59621828998388
 30
0.0
  0
VERTEX
  5
CA
330
C7
100
AcDbEntity
  8
FISHER_PAYKEL
 62
   250
420
  1316376
370
     9
100
AcDbVertex
100
AcDb2dVertex
 10
847.5069912709896
 20
69.78989771618876
 30
0.0
  0
VERTEX
  5
CB
330
C7
100
AcDbEntity
  8
FISHER_PAYKEL
 62
   250
420
  1316376
370
     9
100
AcDbVertex
100
AcDb2dVertex
 10
846.3957234652364
 20
69.78989771618876
 30
0.0
  0
SEQEND
  5
CC
330
C7
100
AcDbEntity
  8
FISHER_PAYKEL
 62
   250
420
  1316376
370
     9
  0
LINE
  5
CD
330
1F
100
AcDbEntity
  8
FISHER_PAYKEL
 62
   250
420
  1316376
370
     9
100
AcDbLine
 10
851.8388190128442
 20
80.57413440001869
 30
0.0
 11
852.8865858011256
 21
80.57413440001869
 31
0.0
  0
LINE
  5
CE
330
1F
100
AcDbEntity
  8
FISHER_PAYKEL
 62
   250
420
  1316376
370
     9
100
AcDbLine
 10
852.8865858011256
 20
80.57413440001869
 30
0.0
 11
852.8865858011256
 21
78.56679668105517
 31
0.0
  0
SPLINE
  5
CF
330
1F
100
AcDbEntity
  8
FISHER_PAYKEL
 62
   250
420
  1316376
370
     9
100
AcDbSpline
210
0.0
220
0.0
230
1.0
 70
     8
 71
     3
 72
     8
 73
     4
 74
     0
 42
0.000000001
 43
0.0000000001
 40
0.8660000000000423
 40
0.8660000000000423
 40
0.8660000000000423
 40
0.8660000000000423
 40
1.866000000000042
 40
1.866000000000042
 40
1.866000000000042
 40
1.866000000000042
 10
852.8865858011256
 20
78.56679668105517
 30
0.0
 10
853.6133196677449
 20
79.83681703048728
 30
0.0
 10
854.8339503369214
 20
80.82813846990507
 30
0.0
 10
856.8165932157567
 20
80.82813846990507
 30
0.0
  0
SPLINE
  5
D0
330
1F
100
AcDbEntity
  8
FISHER_PAYKEL
 62
   250
420
  1316376
370
     9
100
AcDbSpline
210
0.0
220
0.0
230
1.0
 70
     8
 71
     3
 72
     8
 73
     4
 74
     0
 42
0.000000001
 43
0.0000000001
 40
1.866000000000042
 40
1.866000000000042
 40
1.866000000000042
 40
1.866000000000042
 40
2.866000000000042
 40
2.866000000000042
 40
2.866000000000042
 40
2.866000000000042
 10
856.8165932157567
 20
80.82813846990507
 30
0.0
 10
859.5718318071636
 20
80.82813846990507
 30
0.0
 10
861.1769964154735
 20
78.96896979170879
 30
0.0
 10
861.1769964154735
 20
76.3865950811969
 30
0.0
  0
LINE
  5
D1
330
1F
100
AcDbEntity
  8
FISHER_PAYKEL
 62
   250
420
  1316376
370
     9
100
AcDbLine
 10
861.1769964154735
 20
76.3865950811969
 30
0.0
 11
861.1769964154735
 21
69.7860170984543
 31
0.0
  0
LINE
  5
D2
330
1F
100
AcDbEntity
  8
FISHER_PAYKEL
 62
   250
420
  1316376
370
     9
100
AcDbLine
 10
861.1769964154735
 20
69.7860170984543
 30
0.0
 11
860.1327574614961
 21
69.7860170984543
 31
0.0
  0
LINE
  5
D3
330
1F
100
AcDbEntity
  8
FISHER_PAYKEL
 62
   250
420
  1316376
370
     9
100
AcDbLine
 10
860.1327574614961
 20
69.7860170984543
 30
0.0
 11
860.1327574614961
 21
76.19609202878223
 31
0.0
  0
SPLINE
  5
D4
330
1F
100
AcDbEntity
  8
FISHER_PAYKEL
 62
   250
420
  1316376
370
     9
100
AcDbSpline
210
0.0
220
0.0
230
1.0
 70
     8
 71
     3
 72
     8
 73
     4
 74
     0
 42
0.000000001
 43
0.0000000001
 40
6.850000000000023
 40
6.850000000000023
 40
6.850000000000023
 40
6.850000000000023
 40
7.850000000000023
 40
7.850000000000023
 40
7.850000000000023
 40
7.850000000000023
 10
860.1327574614961
 20
76.19609202878223
 30
0.0
 10
860.1327574614961
 20
78.41862764028815
 30
0.0
 10
858.8697927806718
 20
79.87915104213516
 30
0.0
 10
856.6684241749899
 20
79.87915104213516
 30
0.0
  0
SPLINE
  5
D5
330
1F
100
AcDbEntity
  8
FISHER_PAYKEL
 62
   250
420
  1316376
370
     9
100
AcDbSpline
210
0.0
220
0.0
230
1.0
 70
     8
 71
     3
 72
     8
 73
     4
 74
     0
 42
0.000000001
 43
0.0000000001
 40
7.850000000000023
 40
7.850000000000023
 40
7.850000000000023
 40
7.850000000000023
 40
8.850000000000023
 40
8.850000000000023
 40
8.850000000000023
 40
8.850000000000023
 10
856.6684241749899
 20
79.87915104213516
 30
0.0
 10
854.5305565867791
 20
79.87915104213516
 30
0.0
 10
852.8865858011256
 20
78.27045859952113
 30
0.0
 10
852.8865858011256
 20
76.02675598219139
 30
0.0
  0
LINE
  5
D6
330
1F
100
AcDbEntity
  8
FISHER_PAYKEL
 62
   250
420
  1316376
370
     9
100
AcDbLine
 10
852.8865858011256
 20
76.02675598219139
 30
0.0
 11
852.8865858011256
 21
69.7860170984543
 31
0.0
  0
LINE
  5
D7
330
1F
100
AcDbEntity
  8
FISHER_PAYKEL
 62
   250
420
  1316376
370
     9
100
AcDbLine
 10
852.8865858011256
 20
69.7860170984543
 30
0.0
 11
851.8388190128442
 21
69.7860170984543
 31
0.0
  0
LINE
  5
D8
330
1F
100
AcDbEntity
  8
FISHER_PAYKEL
 62
   250
420
  1316376
370
     9
100
AcDbLine
 10
851.8388190128442
 20
69.7860170984543
 30
0.0
 11
851.8388190128442
 21
80.57413440001869
 31
0.0
  0
LINE
  5
D9
330
1F
100
AcDbEntity
  8
FISHER_PAYKEL
 62
   250
420
  1316376
370
     9
100
AcDbLine
 10
864.1587219691953
 20
75.13774173758884
 30
0.0
 11
864.1587219691953
 21
75.1800757492365
 31
0.0
  0
SPLINE
  5
DA
330
1F
100
AcDbEntity
  8
FISHER_PAYKEL
 62
   250
420
  1316376
370
     9
100
AcDbSpline
210
0.0
220
0.0
230
1.0
 70
     8
 71
     3
 72
     8
 73
     4
 74
     0
 42
0.000000001
 43
0.0000000001
 40
0.0120000000000005
 40
0.0120000000000005
 40
0.0120000000000005
 40
0.0120000000000005
 40
1.012
 40
1.012
 40
1.012
 40
1.012
 10
864.1587219691953
 20
75.1800757492365
 30
0.0
 10
864.1587219691953
 20
78.20695758204943
 30
0.0
 10
866.59292763894
 20
80.82813846990507
 30
0.0
 10
869.7150609979603
 20
80.82813846990507
 30
0.0
  0
SPLINE
  5
DB
330
1F
100
AcDbEntity
  8
FISHER_PAYKEL
 62
   250
420
  1316376
370
     9
100
AcDbSpline
210
0.0
220
0.0
230
1.0
 70
     8
 71
     3
 72
     8
 73
     4
 74
     0
 42
0.000000001
 43
0.0000000001
 40
1.012
 40
1.012
 40
1.012
 40
1.012
 40
2.012
 40
2.012
 40
2.012
 40
2.012
 10
869.7150609979603
 20
80.82813846990507
 30
0.0
 10
871.7647327285715
 20
80.82813846990507
 30
0.0
 10
873.0523922495236
 20
79.90031804795899
 30
0.0
 10
874.0754641976772
 20
78.8419677567656
 30
0.0
  0
LINE
  5
DC
330
1F
100
AcDbEntity
  8
FISHER_PAYKEL
 62
   250
420
  1316376
370
     9
100
AcDbLine
 10
874.0754641976772
 20
78.8419677567656
 30
0.0
 11
873.3275633252337
 21
78.07995554710624
 31
0.0
  0
SPLINE
  5
DD
330
1F
100
AcDbEntity
  8
FISHER_PAYKEL
 62
   250
420
  1316376
370
     9
100
AcDbSpline
210
0.0
220
0.0
230
1.0
 70
     8
 71
     3
 72
     8
 73
     4
 74
     0
 42
0.000000001
 43
0.0000000001
 40
2.31465491900843
 40
2.31465491900843
 40
2.31465491900843
 40
2.31465491900843
 40
3.31465491900843
 40
3.31465491900843
 40
3.31465491900843
 40
3.31465491900843
 10
873.3275633252337
 20
78.07995554710624
 30
0.0
 10
872.3856315660717
 20
79.03247080918027
 30
0.0
 10
871.3166977719666
 20
79.85798403631134
 30
0.0
 10
869.6938939921367
 20
79.85798403631134
 30
0.0
  0
SPLINE
  5
DE
330
1F
100
AcDbEntity
  8
FISHER_PAYKEL
 62
   250
420
  1316376
370
     9
100
AcDbSpline
210
0.0
220
0.0
230
1.0
 70
     8
 71
     3
 72
     8
 73
     4
 74
     0
 42
0.000000001
 43
0.0000000001
 40
3.31465491900843
 40
3.31465491900843
 40
3.31465491900843
 40
3.31465491900843
 40
4.314654919008429
 40
4.314654919008429
 40
4.314654919008429
 40
4.314654919008429
 10
869.6938939921367
 20
79.85798403631134
 30
0.0
 10
867.2138264764401
 20
79.85798403631134
 30
0.0
 10
865.2911567807723
 20
77.80478447139603
 30
0.0
 10
865.2911567807723
 20
75.22240976088415
 30
0.0
  0
LINE
  5
DF
330
1F
100
AcDbEntity
  8
FISHER_PAYKEL
 62
   250
420
  1316376
370
     9
100
AcDbLine
 10
865.2911567807723
 20
75.22240976088415
 30
0.0
 11
865.2911567807723
 21
75.1800757492365
 31
0.0
  0
SPLINE
  5
E0
330
1F
100
AcDbEntity
  8
FISHER_PAYKEL
 62
   250
420
  1316376
370
     9
100
AcDbSpline
210
0.0
220
0.0
230
1.0
 70
     8
 71
     3
 72
     8
 73
     4
 74
     0
 42
0.000000001
 43
0.0000000001
 40
4.32665491900843
 40
4.32665491900843
 40
4.32665491900843
 40
4.32665491900843
 40
5.32665491900843
 40
5.32665491900843
 40
5.32665491900843
 40
5.32665491900843
 10
865.2911567807723
 20
75.1800757492365
 30
0.0
 10
865.2911567807723
 20
72.57653403290101
 30
0.0
 10
867.2773274939118
 20
70.5092231307699
 30
0.0
 10
869.7785620154323
 20
70.5092231307699
 30
0.0
  0
SPLINE
  5
E1
330
1F
100
AcDbEntity
  8
FISHER_PAYKEL
 62
   250
420
  1316376
370
     9
100
AcDbSpline
210
0.0
220
0.0
230
1.0
 70
     8
 71
     3
 72
     8
 73
     4
 74
     0
 42
0.000000001
 43
0.0000000001
 40
5.32665491900843
 40
5.32665491900843
 40
5.32665491900843
 40
5.32665491900843
 40
6.32665491900843
 40
6.32665491900843
 40
6.32665491900843
 40
6.32665491900843
 10
869.7785620154323
 20
70.5092231307699
 30
0.0
 10
871.3166977719666
 20
70.5092231307699
 30
0.0
 10
872.5126336010148
 20
71.28887451194896
 30
0.0
 10
873.4333983543532
 20
72.3048907914947
 30
0.0
  0
LINE
  5
E2
330
1F
100
AcDbEntity
  8
FISHER_PAYKEL
 62
   250
420
  1316376
370
     9
100
AcDbLine
 10
873.4333983543532
 20
72.3048907914947
 30
0.0
 11
874.1601322209725
 21
71.66988061677853
 31
0.0
  0
SPLINE
  5
E3
330
1F
100
AcDbEntity
  8
FISHER_PAYKEL
 62
   250
420
  1316376
370
     9
100
AcDbSpline
210
0.0
220
0.0
230
1.0
 70
     8
 71
     3
 72
     8
 73
     4
 74
     0
 42
0.000000001
 43
0.0000000001
 40
6.600216612233169
 40
6.600216612233169
 40
6.600216612233169
 40
6.600216612233169
 40
7.600216612233169
 40
7.600216612233169
 40
7.600216612233169
 40
7.600216612233169
 10
874.1601322209725
 20
71.66988061677853
 30
0.0
 10
873.0523922495236
 20
70.42102727317047
 30
0.0
 10
871.7223987169239
 20
69.53201302856814
 30
0.0
 10
869.7150609979603
 20
69.53201302856814
 30
0.0
  0
SPLINE
  5
E4
330
1F
100
AcDbEntity
  8
FISHER_PAYKEL
 62
   250
420
  1316376
370
     9
100
AcDbSpline
210
0.0
220
0.0
230
1.0
 70
     8
 71
     3
 72
     8
 73
     4
 74
     0
 42
0.000000001
 43
0.0000000001
 40
7.600216612233169
 40
7.600216612233169
 40
7.600216612233169
 40
7.600216612233169
 40
8.600216612233169
 40
8.600216612233169
 40
8.600216612233169
 40
8.600216612233169
 10
869.7150609979603
 20
69.53201302856814
 30
0.0
 10
866.57528846742
 20
69.53201302856814
 30
0.0
 10
864.1587219691953
 20
72.1143877390798
 30
0.0
 10
864.1587219691953
 20
75.13774173758884
 30
0.0
  0
LINE
  5
E5
330
1F
100
AcDbEntity
  8
FISHER_PAYKEL
 62
   250
420
  1316376
370
     9
100
AcDbLine
 10
877.0744761394889
 20
85.23228681499108
 30
0.0
 11
878.1222429277703
 21
85.23228681499108
 31
0.0
  0
LINE
  5
E6
330
1F
100
AcDbEntity
  8
FISHER_PAYKEL
 62
   250
420
  1316376
370
     9
100
AcDbLine
 10
878.1222429277703
 20
85.23228681499108
 30
0.0
 11
878.1222429277703
 21
78.56467998047287
 31
0.0
  0
SPLINE
  5
E7
330
1F
100
AcDbEntity
  8
FISHER_PAYKEL
 62
   250
420
  1316376
370
     9
100
AcDbSpline
210
0.0
220
0.0
230
1.0
 70
     8
 71
     3
 72
     8
 73
     4
 74
     0
 42
0.000000001
 43
0.0000000001
 40
2.187000000000012
 40
2.187000000000012
 40
2.187000000000012
 40
2.187000000000012
 40
3.187000000000012
 40
3.187000000000012
 40
3.187000000000012
 40
3.187000000000012
 10
878.1222429277703
 20
78.56467998047287
 30
0.0
 10
878.8489767943896
 20
79.83822816420889
 30
0.0
 10
880.0660796292617
 20
80.82954960362667
 30
0.0
 10
882.0522503424016
 20
80.82954960362667
 30
0.0
  0
SPLINE
  5
E8
330
1F
100
AcDbEntity
  8
FISHER_PAYKEL
 62
   250
420
  1316376
370
     9
100
AcDbSpline
210
0.0
220
0.0
230
1.0
 70
     8
 71
     3
 72
     8
 73
     4
 74
     0
 42
0.000000001
 43
0.0000000001
 40
3.187000000000012
 40
3.187000000000012
 40
3.187000000000012
 40
3.187000000000012
 40
4.187000000000012
 40
4.187000000000012
 40
4.187000000000012
 40
4.187000000000012
 10
882.0522503424016
 20
80.82954960362667
 30
0.0
 10
884.8110167681119
 20
80.82954960362667
 30
0.0
 10
886.4091257078143
 20
78.97038092543039
 30
0.0
 10
886.4091257078143
 20
76.38447838061461
 30
0.0
  0
LINE
  5
E9
330
1F
100
AcDbEntity
  8
FISHER_PAYKEL
 62
   250
420
  1316376
370
     9
100
AcDbLine
 10
886.4091257078143
 20
76.38447838061461
 30
0.0
 11
886.4091257078143
 21
69.78742823217613
 31
0.0
  0
LINE
  5
EA
330
1F
100
AcDbEntity
  8
FISHER_PAYKEL
 62
   250
420
  1316376
370
     9
100
AcDbLine
 10
886.4091257078143
 20
69.78742823217613
 30
0.0
 11
885.3648867538367
 21
69.78742823217613
 31
0.0
  0
LINE
  5
EB
330
1F
100
AcDbEntity
  8
FISHER_PAYKEL
 62
   250
420
  1316376
370
     9
100
AcDbLine
 10
885.3648867538367
 20
69.78742823217613
 30
0.0
 11
885.3648867538367
 21
76.19397532819971
 31
0.0
  0
SPLINE
  5
EC
330
1F
100
AcDbEntity
  8
FISHER_PAYKEL
 62
   250
420
  1316376
370
     9
100
AcDbSpline
210
0.0
220
0.0
230
1.0
 70
     8
 71
     3
 72
     8
 73
     4
 74
     0
 42
0.000000001
 43
0.0000000001
 40
8.168999999999983
 40
8.168999999999983
 40
8.168999999999983
 40
8.168999999999983
 40
9.168999999999983
 40
9.168999999999983
 40
9.168999999999983
 40
9.168999999999983
 10
885.3648867538367
 20
76.19397532819971
 30
0.0
 10
885.3648867538367
 20
78.41651093970586
 30
0.0
 10
884.1019220730126
 20
79.87703434155287
 30
0.0
 10
881.9040813016344
 20
79.87703434155287
 30
0.0
  0
SPLINE
  5
ED
330
1F
100
AcDbEntity
  8
FISHER_PAYKEL
 62
   250
420
  1316376
370
     9
100
AcDbSpline
210
0.0
220
0.0
230
1.0
 70
     8
 71
     3
 72
     8
 73
     4
 74
     0
 42
0.000000001
 43
0.0000000001
 40
9.168999999999983
 40
9.168999999999983
 40
9.168999999999983
 40
9.168999999999983
 40
10.16899999999998
 40
10.16899999999998
 40
10.16899999999998
 40
10.16899999999998
 10
881.9040813016344
 20
79.87703434155287
 30
0.0
 10
879.7697415477277
 20
79.87703434155287
 30
0.0
 10
878.1222429277703
 20
78.26834189893884
 30
0.0
 10
878.1222429277703
 20
76.02816711591299
 30
0.0
  0
LINE
  5
EE
330
1F
100
AcDbEntity
  8
FISHER_PAYKEL
 62
   250
420
  1316376
370
     9
100
AcDbLine
 10
878.1222429277703
 20
76.02816711591299
 30
0.0
 11
878.1222429277703
 21
69.78742823217613
 31
0.0
  0
LINE
  5
EF
330
1F
100
AcDbEntity
  8
FISHER_PAYKEL
 62
   250
420
  1316376
370
     9
100
AcDbLine
 10
878.1222429277703
 20
69.78742823217613
 30
0.0
 11
877.0744761394889
 21
69.78742823217613
 31
0.0
  0
LINE
  5
F0
330
1F
100
AcDbEntity
  8
FISHER_PAYKEL
 62
   250
420
  1316376
370
     9
100
AcDbLine
 10
877.0744761394889
 20
69.78742823217613
 30
0.0
 11
877.0744761394889
 21
85.23228681499108
 31
0.0
  0
LINE
  5
F1
330
1F
100
AcDbEntity
  8
FISHER_PAYKEL
 62
   250
420
  1316376
370
     9
100
AcDbLine
 10
889.3926151786881
 20
75.15996709370393
 30
0.0
 11
889.3926151786881
 21
75.20230110535158
 31
0.0
  0
SPLINE
  5
F2
330
1F
100
AcDbEntity
  8
FISHER_PAYKEL
 62
   250
420
  1316376
370
     9
100
AcDbSpline
210
0.0
220
0.0
230
1.0
 70
     8
 71
     3
 72
     8
 73
     4
 74
     0
 42
0.000000001
 43
0.0000000001
 40
2.012
 40
2.012
 40
2.012
 40
2.012
 40
3.012
 40
3.012
 40
3.012
 40
3.012
 10
889.3926151786881
 20
75.20230110535158
 30
0.0
 10
889.3926151786881
 20
78.33501796728387
 30
0.0
 10
891.6116229558901
 20
80.8291968201961
 30
0.0
 10
894.5608924340157
 20
80.8291968201961
 30
0.0
  0
SPLINE
  5
F3
330
1F
100
AcDbEntity
  8
FISHER_PAYKEL
 62
   250
420
  1316376
370
     9
100
AcDbSpline
210
0.0
220
0.0
230
1.0
 70
     8
 71
     3
 72
     8
 73
     4
 74
     0
 42
0.000000001
 43
0.0000000001
 40
3.012
 40
3.012
 40
3.012
 40
3.012
 40
4.012
 40
4.012
 40
4.012
 40
4.012
 10
894.5608924340157
 20
80.8291968201961
 30
0.0
 10
897.6230526098688
 20
80.8291968201961
 30
0.0
 10
899.5633614770567
 20
78.37735197893153
 30
0.0
 10
899.5633614770567
 20
75.17760626522386
 30
0.0
  0
SPLINE
  5
F4
330
1F
100
AcDbEntity
  8
FISHER_PAYKEL
 62
   250
420
  1316376
370
     9
100
AcDbSpline
210
0.0
220
0.0
230
1.0
 70
     8
 71
     3
 72
     8
 73
     4
 74
     0
 42
0.000000001
 43
0.0000000001
 40
4.012
 40
4.012
 40
4.012
 40
4.012
 40
5.012
 40
5.012
 40
5.012
 40
5.012
 10
899.5633614770567
 20
75.17760626522386
 30
0.0
 10
899.5633614770567
 20
74.99063104711308
 30
0.0
 10
899.5633614770567
 20
74.92713002964138
 30
0.0
 10
899.5421944712324
 20
74.7577939830503
 30
0.0
  0
LINE
  5
F5
330
1F
100
AcDbEntity
  8
FISHER_PAYKEL
 62
   250
420
  1316376
370
     9
100
AcDbLine
 10
899.5421944712324
 20
74.7577939830503
 30
0.0
 11
890.503882984441
 21
74.7577939830503
 31
0.0
  0
SPLINE
  5
F6
330
1F
100
AcDbEntity
  8
FISHER_PAYKEL
 62
   250
420
  1316376
370
     9
100
AcDbSpline
210
0.0
220
0.0
230
1.0
 70
     8
 71
     3
 72
     8
 73
     4
 74
     0
 42
0.000000001
 43
0.0000000001
 40
7.574000000000012
 40
7.574000000000012
 40
7.574000000000012
 40
7.574000000000012
 40
8.574000000000012
 40
8.574000000000012
 40
8.574000000000012
 40
8.574000000000012
 10
890.503882984441
 20
74.7577939830503
 30
0.0
 10
890.6979138711603
 20
72.07311207772318
 30
0.0
 10
892.6382227383477
 20
70.50675364675703
 30
0.0
 10
894.7760903265583
 20
70.50675364675703
 30
0.0
  0
SPLINE
  5
F7
330
1F
100
AcDbEntity
  8
FISHER_PAYKEL
 62
   250
420
  1316376
370
     9
100
AcDbSpline
210
0.0
220
0.0
230
1.0
 70
     8
 71
     3
 72
     8
 73
     4
 74
     0
 42
0.000000001
 43
0.0000000001
 40
8.574000000000012
 40
8.574000000000012
 40
8.574000000000012
 40
8.574000000000012
 40
9.574000000000012
 40
9.574000000000012
 40
9.574000000000012
 40
9.574000000000012
 10
894.7760903265583
 20
70.50675364675703
 30
0.0
 10
896.4623951238599
 20
70.50675364675703
 30
0.0
 10
897.6230526098688
 20
71.24407101628844
 30
0.0
 10
898.5155946887747
 20
72.2001141126666
 30
0.0
  0
LINE
  5
F8
330
1F
100
AcDbEntity
  8
FISHER_PAYKEL
 62
   250
420
  1316376
370
     9
100
AcDbLine
 10
898.5155946887747
 20
72.2001141126666
 30
0.0
 11
899.2423285553945
 21
71.5615761036463
 31
0.0
  0
SPLINE
  5
F9
330
1F
100
AcDbEntity
  8
FISHER_PAYKEL
 62
   250
420
  1316376
370
     9
100
AcDbSpline
210
0.0
220
0.0
230
1.0
 70
     8
 71
     3
 72
     8
 73
     4
 74
     0
 42
0.000000001
 43
0.0000000001
 40
9.848220714024357
 40
9.848220714024357
 40
9.848220714024357
 40
9.848220714024357
 40
10.84822071402436
 40
10.84822071402436
 40
10.84822071402436
 40
10.84822071402436
 10
899.2423285553945
 20
71.5615761036463
 30
0.0
 10
898.1310607496415
 20
70.37975161181384
 30
0.0
 10
896.8292898914736
 20
69.53307137885918
 30
0.0
 10
894.7337563149107
 20
69.53307137885918
 30
0.0
  0
SPLINE
  5
FA
330
1F
100
AcDbEntity
  8
FISHER_PAYKEL
 62
   250
420
  1316376
370
     9
100
AcDbSpline
210
0.0
220
0.0
230
1.0
 70
     8
 71
     3
 72
     8
 73
     4
 74
     0
 42
0.000000001
 43
0.0000000001
 40
10.84822071402436
 40
10.84822071402436
 40
10.84822071402436
 40
10.84822071402436
 40
11.84822071402436
 40
11.84822071402436
 40
11.84822071402436
 40
11.84822071402436
 10
894.7337563149107
 20
69.53307137885918
 30
0.0
 10
891.8726826943847
 20
69.53307137885918
 30
0.0
 10
889.3926151786881
 20
71.79441316770908
 30
0.0
 10
889.3926151786881
 20
75.15996709370393
 30
0.0
  0
SPLINE
  5
FB
330
1F
100
AcDbEntity
  8
FISHER_PAYKEL
 62
   250
420
  1316376
370
     9
100
AcDbSpline
210
0.0
220
0.0
230
1.0
 70
     8
 71
     3
 72
     8
 73
     4
 74
     0
 42
0.000000001
 43
0.0000000001
 40
0.0
 40
0.0
 40
0.0
 40
0.0
 40
1.0
 40
1.0
 40
1.0
 40
1.0
 10
898.4309266654794
 20
75.68914223930051
 30
0.0
 10
898.2827576247126
 20
77.86581600485488
 30
0.0
 10
897.0233207781924
 20
79.8766815581223
 30
0.0
 10
894.522086256672
 20
79.8766815581223
 30
0.0
  0
SPLINE
  5
FC
330
1F
100
AcDbEntity
  8
FISHER_PAYKEL
 62
   250
420
  1316376
370
     9
100
AcDbSpline
210
0.0
220
0.0
230
1.0
 70
     8
 71
     3
 72
     8
 73
     4
 74
     0
 42
0.000000001
 43
0.0000000001
 40
1.0
 40
1.0
 40
1.0
 40
1.0
 40
2.0
 40
2.0
 40
2.0
 40
2.0
 10
894.522086256672
 20
79.8766815581223
 30
0.0
 10
892.3630516626375
 20
79.8766815581223
 30
0.0
 10
890.6979138711603
 20
78.0810138973975
 30
0.0
 10
890.503882984441
 20
75.68914223930051
 30
0.0
  0
LINE
  5
FD
330
1F
100
AcDbEntity
  8
FISHER_PAYKEL
 62
   250
420
  1316376
370
     9
100
AcDbLine
 10
890.503882984441
 20
75.68914223930051
 30
0.0
 11
898.4309266654794
 21
75.68914223930051
 31
0.0
  0
LINE
  5
FE
330
1F
100
AcDbEntity
  8
FISHER_PAYKEL
 62
   250
420
  1316376
370
     9
100
AcDbLine
 10
901.6451364998337
 20
71.14141103804263
 30
0.0
 11
902.2660353373334
 21
71.96339643086935
 31
0.0
  0
SPLINE
  5
FF
330
1F
100
AcDbEntity
  8
FISHER_PAYKEL
 62
   250
420
  1316376
370
     9
100
AcDbSpline
210
0.0
220
0.0
230
1.0
 70
     8
 71
     3
 72
     8
 73
     4
 74
     0
 42
0.000000001
 43
0.0000000001
 40
0.2920017123236627
 40
0.2920017123236627
 40
0.2920017123236627
 40
0.2920017123236627
 40
1.292001712323663
 40
1.292001712323663
 40
1.292001712323663
 40
1.292001712323663
 10
902.2660353373334
 20
71.96339643086935
 30
0.0
 10
903.465499000686
 20
71.0567430147471
 30
0.0
 10
904.7884368646777
 20
70.54873487497434
 30
0.0
 10
906.1784035804452
 20
70.54873487497434
 30
0.0
  0
SPLINE
  5
100
330
1F
100
AcDbEntity
  8
FISHER_PAYKEL
 62
   250
420
  1316376
370
     9
100
AcDbSpline
210
0.0
220
0.0
230
1.0
 70
     8
 71
     3
 72
     8
 73
     4
 74
     0
 42
0.000000001
 43
0.0000000001
 40
1.292001712323663
 40
1.292001712323663
 40
1.292001712323663
 40
1.292001712323663
 40
2.292001712323663
 40
2.292001712323663
 40
2.292001712323663
 40
2.292001712323663
 10
906.1784035804452
 20
70.54873487497434
 30
0.0
 10
907.6530383195076
 20
70.54873487497434
 30
0.0
 10
908.8031123026047
 20
71.35308109628136
 30
0.0
 10
908.8031123026047
 20
72.60193443988942
 30
0.0
  0
LINE
  5
101
330
1F
100
AcDbEntity
  8
FISHER_PAYKEL
 62
   250
420
  1316376
370
     9
100
AcDbLine
 10
908.8031123026047
 20
72.60193443988942
 30
0.0
 11
908.8031123026047
 21
72.64426845153707
 31
0.0
  0
SPLINE
  5
102
330
1F
100
AcDbEntity
  8
FISHER_PAYKEL
 62
   250
420
  1316376
370
     9
100
AcDbSpline
210
0.0
220
0.0
230
1.0
 70
     8
 71
     3
 72
     8
 73
     4
 74
     0
 42
0.000000001
 43
0.0000000001
 40
2.304001712323663
 40
2.304001712323663
 40
2.304001712323663
 40
2.304001712323663
 40
3.304001712323663
 40
3.304001712323663
 40
3.304001712323663
 40
3.304001712323663
 10
908.8031123026047
 20
72.64426845153707
 30
0.0
 10
908.8031123026047
 20
73.9107609666653
 30
0.0
 10
907.4413682612693
 20
74.37643509479017
 30
0.0
 10
905.9208716762545
 20
74.79977521126762
 30
0.0
  0
SPLINE
  5
103
330
1F
100
AcDbEntity
  8
FISHER_PAYKEL
 62
   250
420
  1316376
370
     9
100
AcDbSpline
210
0.0
220
0.0
230
1.0
 70
     8
 71
     3
 72
     8
 73
     4
 74
     0
 42
0.000000001
 43
0.0000000001
 40
3.304001712323663
 40
3.304001712323663
 40
3.304001712323663
 40
3.304001712323663
 40
4.304001712323663
 40
4.304001712323663
 40
4.304001712323663
 40
4.304001712323663
 10
905.9208716762545
 20
74.79977521126762
 30
0.0
 10
904.1463710213537
 20
75.3113111853445
 30
0.0
 10
902.1813673140381
 20
75.83695849663718
 30
0.0
 10
902.1813673140381
 20
77.76315602660907
 30
0.0
  0
LINE
  5
104
330
1F
100
AcDbEntity
  8
FISHER_PAYKEL
 62
   250
420
  1316376
370
     9
100
AcDbLine
 10
902.1813673140381
 20
77.76315602660907
 30
0.0
 11
902.1813673140381
 21
77.80549003825672
 31
0.0
  0
SPLINE
  5
105
330
1F
100
AcDbEntity
  8
FISHER_PAYKEL
 62
   250
420
  1316376
370
     9
100
AcDbSpline
210
0.0
220
0.0
230
1.0
 70
     8
 71
     3
 72
     8
 73
     4
 74
     0
 42
0.000000001
 43
0.0000000001
 40
4.316001712323663
 40
4.316001712323663
 40
4.316001712323663
 40
4.316001712323663
 40
5.316001712323663
 40
5.316001712323663
 40
5.316001712323663
 40
5.316001712323663
 10
902.1813673140381
 20
77.80549003825672
 30
0.0
 10
902.1813673140381
 20
79.54118451581371
 30
0.0
 10
903.6560020531009
 20
80.78651002511788
 30
0.0
 10
905.7727026354877
 20
80.78651002511788
 30
0.0
  0
SPLINE
  5
106
330
1F
100
AcDbEntity
  8
FISHER_PAYKEL
 62
   250
420
  1316376
370
     9
100
AcDbSpline
210
0.0
220
0.0
230
1.0
 70
     8
 71
     3
 72
     8
 73
     4
 74
     0
 42
0.000000001
 43
0.0000000001
 40
5.316001712323663
 40
5.316001712323663
 40
5.316001712323663
 40
5.316001712323663
 40
6.316001712323663
 40
6.316001712323663
 40
6.316001712323663
 40
6.316001712323663
 10
905.7727026354877
 20
80.78651002511788
 30
0.0
 10
907.0744734936551
 20
80.78651002511788
 30
0.0
 10
908.5491082327179
 20
80.3243637312969
 30
0.0
 10
909.6392090326475
 20
79.60115769898152
 30
0.0
  0
LINE
  5
107
330
1F
100
AcDbEntity
  8
FISHER_PAYKEL
 62
   250
420
  1316376
370
     9
100
AcDbLine
 10
909.6392090326475
 20
79.60115769898152
 30
0.0
 11
909.0818112126188
 21
78.7333104602028
 31
0.0
  0
SPLINE
  5
108
330
1F
100
AcDbEntity
  8
FISHER_PAYKEL
 62
   250
420
  1316376
370
     9
100
AcDbSpline
210
0.0
220
0.0
230
1.0
 70
     8
 71
     3
 72
     8
 73
     4
 74
     0
 42
0.000000001
 43
0.0000000001
 40
6.608371341389377
 40
6.608371341389377
 40
6.608371341389377
 40
6.608371341389377
 40
7.608371341389377
 40
7.608371341389377
 40
7.608371341389377
 40
7.608371341389377
 10
909.0818112126188
 20
78.7333104602028
 30
0.0
 10
908.0799062702894
 20
79.3894876407428
 30
0.0
 10
906.8804426069368
 20
79.81635559152414
 30
0.0
 10
905.7268407895361
 20
79.81635559152414
 30
0.0
  0
SPLINE
  5
109
330
1F
100
AcDbEntity
  8
FISHER_PAYKEL
 62
   250
420
  1316376
370
     9
100
AcDbSpline
210
0.0
220
0.0
230
1.0
 70
     8
 71
     3
 72
     8
 73
     4
 74
     0
 42
0.000000001
 43
0.0000000001
 40
7.608371341389377
 40
7.608371341389377
 40
7.608371341389377
 40
7.608371341389377
 40
8.608371341389377
 40
8.608371341389377
 40
8.608371341389377
 40
8.608371341389377
 10
905.7268407895361
 20
79.81635559152414
 30
0.0
 10
904.2310390446495
 20
79.81635559152414
 30
0.0
 10
903.2503011081434
 20
79.00848153591323
 30
0.0
 10
903.2503011081434
 20
77.93249207319991
 30
0.0
  0
LINE
  5
10A
330
1F
100
AcDbEntity
  8
FISHER_PAYKEL
 62
   250
420
  1316376
370
     9
100
AcDbLine
 10
903.2503011081434
 20
77.93249207319991
 30
0.0
 11
903.2503011081434
 21
77.88663022724813
 31
0.0
  0
SPLINE
  5
10B
330
1F
100
AcDbEntity
  8
FISHER_PAYKEL
 62
   250
420
  1316376
370
     9
100
AcDbSpline
210
0.0
220
0.0
230
1.0
 70
     8
 71
     3
 72
     8
 73
     4
 74
     0
 42
0.000000001
 43
0.0000000001
 40
8.62137134138941
 40
8.62137134138941
 40
8.62137134138941
 40
8.62137134138941
 40
9.62137134138941
 40
9.62137134138941
 40
9.62137134138941
 40
9.62137134138941
 10
903.2503011081434
 20
77.88663022724813
 30
0.0
 10
903.2503011081434
 20
76.68011089528795
 30
0.0
 10
904.7249358472062
 20
76.23913160729057
 30
0.0
 10
906.2807107752604
 20
75.79462448498953
 30
0.0
  0
SPLINE
  5
10C
330
1F
100
AcDbEntity
  8
FISHER_PAYKEL
 62
   250
420
  1316376
370
     9
100
AcDbSpline
210
0.0
220
0.0
230
1.0
 70
     8
 71
     3
 72
     8
 73
     4
 74
     0
 42
0.000000001
 43
0.0000000001
 40
9.62137134138941
 40
9.62137134138941
 40
9.62137134138941
 40
9.62137134138941
 40
10.62137134138941
 40
10.62137134138941
 40
10.62137134138941
 40
10.62137134138941
 10
906.2807107752604
 20
75.79462448498953
 30
0.0
 10
908.0375722586413
 20
75.3113111853445
 30
0.0
 10
909.8720460967096
 20
74.67277317632443
 30
0.0
 10
909.8720460967096
 20
72.76774265217637
 30
0.0
  0
LINE
  5
10D
330
1F
100
AcDbEntity
  8
FISHER_PAYKEL
 62
   250
420
  1316376
370
     9
100
AcDbLine
 10
909.8720460967096
 20
72.76774265217637
 30
0.0
 11
909.8720460967096
 21
72.72540864052871
 31
0.0
  0
SPLINE
  5
10E
330
1F
100
AcDbEntity
  8
FISHER_PAYKEL
 62
   250
420
  1316376
370
     9
100
AcDbSpline
210
0.0
220
0.0
230
1.0
 70
     8
 71
     3
 72
     8
 73
     4
 74
     0
 42
0.000000001
 43
0.0000000001
 40
10.63337134138941
 40
10.63337134138941
 40
10.63337134138941
 40
10.63337134138941
 40
11.63337134138941
 40
11.63337134138941
 40
11.63337134138941
 40
11.63337134138941
 10
909.8720460967096
 20
72.72540864052871
 30
0.0
 10
909.8720460967096
 20
70.80273894486072
 30
0.0
 10
908.2069083052323
 20
69.57505260707649
 30
0.0
 10
906.1149025629733
 20
69.57505260707649
 30
0.0
  0
SPLINE
  5
10F
330
1F
100
AcDbEntity
  8
FISHER_PAYKEL
 62
   250
420
  1316376
370
     9
100
AcDbSpline
210
0.0
220
0.0
230
1.0
 70
     8
 71
     3
 72
     8
 73
     4
 74
     0
 42
0.000000001
 43
0.0000000001
 40
11.63337134138941
 40
11.63337134138941
 40
11.63337134138941
 40
11.63337134138941
 40
12.63337134138941
 40
12.63337134138941
 40
12.63337134138941
 40
12.63337134138941
 10
906.1149025629733
 20
69.57505260707649
 30
0.0
 10
904.5309053381419
 20
69.57505260707649
 30
0.0
 10
902.8022669758174
 20
70.21006247899618
 30
0.0
 10
901.6451364998337
 20
71.14141103804263
 30
0.0
  0
POLYLINE
  5
110
330
1F
100
AcDbEntity
  8
FISHER_PAYKEL
 62
   250
420
  1316376
370
     9
100
AcDb2dPolyline
 66
     1
 10
0.0
 20
0.0
 30
0.0
  0
VERTEX
  5
111
330
110
100
AcDbEntity
  8
FISHER_PAYKEL
 62
   250
420
  1316376
370
     9
100
AcDbVertex
100
AcDb2dVertex
 10
322.7289383507911
 20
109.4413441591782
 30
0.0
  0
VERTEX
  5
112
330
110
100
AcDbEntity
  8
FISHER_PAYKEL
 62
   250
420
  1316376
370
     9
100
AcDbVertex
100
AcDb2dVertex
 10
322.7289383507911
 20
69.43923098637356
 30
0.0
  0
SEQEND
  5
113
330
110
100
AcDbEntity
  8
FISHER_PAYKEL
 62
   250
420
  1316376
370
     9
  0
POLYLINE
  5
114
330
1F
100
AcDbEntity
  8
FISHER_PAYKEL
 62
   250
420
  1316376
370
     9
100
AcDb2dPolyline
 66
     1
 10
0.0
 20
0.0
 30
0.0
 70
     1
  0
VERTEX
  5
115
330
114
100
AcDbEntity
  8
FISHER_PAYKEL
 62
   250
420
  1316376
370
     9
100
AcDbVertex
100
AcDb2dVertex
 10
322.7275272170696
 20
69.44064212009494
 30
0.0
  0
VERTEX
  5
116
330
114
100
AcDbEntity
  8
FISHER_PAYKEL
 62
   250
420
  1316376
370
     9
100
AcDbVertex
100
AcDb2dVertex
 10
449.7295621602719
 20
69.44064212009494
 30
0.0
  0
VERTEX
  5
117
330
114
100
AcDbEntity
  8
FISHER_PAYKEL
 62
   250
420
  1316376
370
     9
100
AcDbVertex
100
AcDb2dVertex
 10
449.7295621602719
 20
84.44099358060885
 30
0.0
  0
VERTEX
  5
118
330
114
100
AcDbEntity
  8
FISHER_PAYKEL
 62
   250
420
  1316376
370
     9
100
AcDbVertex
100
AcDb2dVertex
 10
322.7275272170696
 20
84.44099358060885
 30
0.0
  0
SEQEND
  5
119
330
114
100
AcDbEntity
  8
FISHER_PAYKEL
 62
   250
420
  1316376
370
     9
  0
POLYLINE
  5
11A
330
1F
100
AcDbEntity
  8
FISHER_PAYKEL
 62
   250
420
  1316376
370
     9
100
AcDb2dPolyline
 66
     1
 10
0.0
 20
0.0
 30
0.0
 70
     1
  0
VERTEX
  5
11B
330
11A
100
AcDbEntity
  8
FISHER_PAYKEL
 62
   250
420
  1316376
370
     9
100
AcDbVertex
100
AcDb2dVertex
 10
449.7295621602719
 20
84.44099358060885
 30
0.0
  0
VERTEX
  5
11C
330
11A
100
AcDbEntity
  8
FISHER_PAYKEL
 62
   250
420
  1316376
370
     9
100
AcDbVertex
100
AcDb2dVertex
 10
576.7315971034743
 20
84.44099358060885
 30
0.0
  0
VERTEX
  5
11D
330
11A
100
AcDbEntity
  8
FISHER_PAYKEL
 62
   250
420
  1316376
370
     9
100
AcDbVertex
100
AcDb2dVertex
 10
576.7315971034743
 20
99.44134504112253
 30
0.0
  0
VERTEX
  5
11E
330
11A
100
AcDbEntity
  8
FISHER_PAYKEL
 62
   250
420
  1316376
370
     9
100
AcDbVertex
100
AcDb2dVertex
 10
449.7295621602719
 20
99.44134504112253
 30
0.0
  0
SEQEND
  5
11F
330
11A
100
AcDbEntity
  8
FISHER_PAYKEL
 62
   250
420
  1316376
370
     9
  0
POLYLINE
  5
120
330
1F
100
AcDbEntity
  8
FISHER_PAYKEL
 62
   250
420
  1316376
370
     9
100
AcDb2dPolyline
 66
     1
 10
0.0
 20
0.0
 30
0.0
 70
     1
  0
VERTEX
  5
121
330
120
100
AcDbEntity
  8
FISHER_PAYKEL
 62
   250
420
  1316376
370
     9
100
AcDbVertex
100
AcDb2dVertex
 10
576.7315971034743
 20
69.44064212009494
 30
0.0
  0
VERTEX
  5
122
330
120
100
AcDbEntity
  8
FISHER_PAYKEL
 62
   250
420
  1316376
370
     9
100
AcDbVertex
100
AcDb2dVertex
 10
830.7356669898791
 20
69.44064212009494
 30
0.0
  0
VERTEX
  5
123
330
120
100
AcDbEntity
  8
FISHER_PAYKEL
 62
   250
420
  1316376
370
     9
100
AcDbVertex
100
AcDb2dVertex
 10
830.7356669898791
 20
84.44099358060885
 30
0.0
  0
VERTEX
  5
124
330
120
100
AcDbEntity
  8
FISHER_PAYKEL
 62
   250
420
  1316376
370
     9
100
AcDbVertex
100
AcDb2dVertex
 10
576.7315971034743
 20
84.44099358060885
 30
0.0
  0
SEQEND
  5
125
330
120
100
AcDbEntity
  8
FISHER_PAYKEL
 62
   250
420
  1316376
370
     9
  0
POLYLINE
  5
126
330
1F
100
AcDbEntity
  8
FISHER_PAYKEL
 62
   250
420
  1316376
370
     9
100
AcDb2dPolyline
 66
     1
 10
0.0
 20
0.0
 30
0.0
 70
     1
  0
VERTEX
  5
127
330
126
100
AcDbEntity
  8
FISHER_PAYKEL
 62
   250
420
  1316376
370
     9
100
AcDbVertex
100
AcDb2dVertex
 10
322.7275272170696
 20
69.44064212009494
 30
0.0
  0
VERTEX
  5
128
330
126
100
AcDbEntity
  8
FISHER_PAYKEL
 62
   250
420
  1316376
370
     9
100
AcDbVertex
100
AcDb2dVertex
 10
830.7356669898791
 20
69.44064212009494
 30
0.0
  0
VERTEX
  5
129
330
126
100
AcDbEntity
  8
FISHER_PAYKEL
 62
   250
420
  1316376
370
     9
100
AcDbVertex
100
AcDb2dVertex
 10
830.7356669898791
 20
99.44134504112253
 30
0.0
  0
VERTEX
  5
12A
330
126
100
AcDbEntity
  8
FISHER_PAYKEL
 62
   250
420
  1316376
370
     9
100
AcDbVertex
100
AcDb2dVertex
 10
322.7275272170696
 20
99.44134504112253
 30
0.0
  0
SEQEND
  5
12B
330
126
100
AcDbEntity
  8
FISHER_PAYKEL
 62
   250
420
  1316376
370
     9
  0
POLYLINE
  5
12C
330
1F
100
AcDbEntity
  8
FISHER_PAYKEL
 62
   250
420
  1316376
370
     9
100
AcDb2dPolyline
 66
     1
 10
0.0
 20
0.0
 30
0.0
  0
VERTEX
  5
12D
330
12C
100
AcDbEntity
  8
FISHER_PAYKEL
 62
   250
420
  1316376
370
     9
100
AcDbVertex
100
AcDb2dVertex
 10
830.7370781236004
 20
109.4413441591782
 30
0.0
  0
VERTEX
  5
12E
330
12C
100
AcDbEntity
  8
FISHER_PAYKEL
 62
   250
420
  1316376
370
     9
100
AcDbVertex
100
AcDb2dVertex
 10
830.7370781236004
 20
69.43923098637356
 30
0.0
  0
SEQEND
  5
12F
330
12C
100
AcDbEntity
  8
FISHER_PAYKEL
 62
   250
420
  1316376
370
     9
  0
POLYLINE
  5
130
330
1F
100
AcDbEntity
  8
FISHER_PAYKEL
 62
   250
420
  1316376
370
     9
100
AcDb2dPolyline
 66
     1
 10
0.0
 20
0.0
 30
0.0
  0
VERTEX
  5
131
330
130
100
AcDbEntity
  8
FISHER_PAYKEL
 62
   250
420
  1316376
370
     9
100
AcDbVertex
100
AcDb2dVertex
 10
576.7330082371957
 20
109.4413441591782
 30
0.0
  0
VERTEX
  5
132
330
130
100
AcDbEntity
  8
FISHER_PAYKEL
 62
   250
420
  1316376
370
     9
100
AcDbVertex
100
AcDb2dVertex
 10
576.7330082371957
 20
69.43923098637356
 30
0.0
  0
SEQEND
  5
133
330
130
100
AcDbEntity
  8
FISHER_PAYKEL
 62
   250
420
  1316376
370
     9
  0
POLYLINE
  5
134
330
1F
100
AcDbEntity
  8
FISHER_PAYKEL
 62
   250
420
  1316376
370
     9
100
AcDb2dPolyline
 66
     1
 10
0.0
 20
0.0
 30
0.0
  0
VERTEX
  5
135
330
134
100
AcDbEntity
  8
FISHER_PAYKEL
 62
   250
420
  1316376
370
     9
100
AcDbVertex
100
AcDb2dVertex
 10
449.7309732939935
 20
109.4413441591782
 30
0.0
  0
VERTEX
  5
136
330
134
100
AcDbEntity
  8
FISHER_PAYKEL
 62
   250
420
  1316376
370
     9
100
AcDbVertex
100
AcDb2dVertex
 10
449.7309732939935
 20
69.43923098637356
 30
0.0
  0
SEQEND
  5
137
330
134
100
AcDbEntity
  8
FISHER_PAYKEL
 62
   250
420
  1316376
370
     9
  0
POLYLINE
  5
138
330
1F
100
AcDbEntity
  8
FISHER_PAYKEL
100
AcDb2dPolyline
 66
     1
 10
0.0
 20
0.0
 30
0.0
  0
VERTEX
  5
139
330
138
100
AcDbEntity
  8
FISHER_PAYKEL
100
AcDbVertex
100
AcDb2dVertex
 10
322.7275272170696
 20
192.9006980533467
 30
0.0
  0
VERTEX
  5
13A
330
138
100
AcDbEntity
  8
FISHER_PAYKEL
100
AcDbVertex
100
AcDb2dVertex
 10
722.7275272170696
 20
192.9006980533466
 30
0.0
  0
SEQEND
  5
13B
330
138
100
AcDbEntity
  8
FISHER_PAYKEL
  0
POLYLINE
  5
13C
330
1F
100
AcDbEntity
  8
FISHER_PAYKEL
 62
   250
420
  1316376
370
     9
100
AcDb2dPolyline
 66
     1
 10
0.0
 20
0.0
 30
0.0
 70
     1
  0
VERTEX
  5
13D
330
13C
100
AcDbEntity
  8
FISHER_PAYKEL
 62
   250
420
  1316376
370
     9
100
AcDbVertex
100
AcDb2dVertex
 10
407.8386641400056
 20
241.2761246237263
 30
0.0
  0
VERTEX
  5
13E
330
13C
100
AcDbEntity
  8
FISHER_PAYKEL
 62
   250
420
  1316376
370
     9
100
AcDbVertex
100
AcDb2dVertex
 10
404.9564235136557
 20
240.3024423558282
 30
0.0
  0
VERTEX
  5
13F
330
13C
100
AcDbEntity
  8
FISHER_PAYKEL
 62
   250
420
  1316376
370
     9
100
AcDbVertex
100
AcDb2dVertex
 10
404.6565575978176
 20
241.170289594607
 30
0.0
  0
VERTEX
  5
140
330
13C
100
AcDbEntity
  8
FISHER_PAYKEL
 62
   250
420
  1316376
370
     9
100
AcDbVertex
100
AcDb2dVertex
 10
408.0715012040681
 20
242.419142938215
 30
0.0
  0
VERTEX
  5
141
330
13C
100
AcDbEntity
  8
FISHER_PAYKEL
 62
   250
420
  1316376
370
     9
100
AcDbVertex
100
AcDb2dVertex
 10
408.9287649399347
 20
242.419142938215
 30
0.0
  0
VERTEX
  5
142
330
13C
100
AcDbEntity
  8
FISHER_PAYKEL
 62
   250
420
  1316376
370
     9
100
AcDbVertex
100
AcDb2dVertex
 10
408.9287649399347
 20
227.5034595009969
 30
0.0
  0
VERTEX
  5
143
330
13C
100
AcDbEntity
  8
FISHER_PAYKEL
 62
   250
420
  1316376
370
     9
100
AcDbVertex
100
AcDb2dVertex
 10
407.8386641400056
 20
227.5034595009969
 30
0.0
  0
SEQEND
  5
144
330
13C
100
AcDbEntity
  8
FISHER_PAYKEL
 62
   250
420
  1316376
370
     9
  0
LINE
  5
145
330
1F
100
AcDbEntity
  8
FISHER_PAYKEL
 62
   250
420
  1316376
370
     9
100
AcDbLine
 10
412.5328004648785
 20
234.866402476829
 30
0.0
 11
412.5328004648785
 21
234.9087364884766
 31
0.0
  0
SPLINE
  5
146
330
1F
100
AcDbEntity
  8
FISHER_PAYKEL
 62
   250
420
  1316376
370
     9
100
AcDbSpline
210
0.0
220
0.0
230
1.0
 70
     8
 71
     3
 72
     8
 73
     4
 74
     0
 42
0.000000001
 43
0.0000000001
 40
2.012
 40
2.012
 40
2.012
 40
2.012
 40
3.012
 40
3.012
 40
3.012
 40
3.012
 10
412.5328004648785
 20
234.9087364884766
 30
0.0
 10
412.5328004648785
 20
238.9904407781788
 30
0.0
 10
414.9493669631034
 20
242.5676647624126
 30
0.0
 10
418.7523723427915
 20
242.5676647624126
 30
0.0
  0
SPLINE
  5
147
330
1F
100
AcDbEntity
  8
FISHER_PAYKEL
 62
   250
420
  1316376
370
     9
100
AcDbSpline
210
0.0
220
0.0
230
1.0
 70
     8
 71
     3
 72
     8
 73
     4
 74
     0
 42
0.000000001
 43
0.0000000001
 40
3.012
 40
3.012
 40
3.012
 40
3.012
 40
4.012
 40
4.012
 40
4.012
 40
4.012
 10
418.7523723427915
 20
242.5676647624126
 30
0.0
 10
422.5553777224796
 20
242.5676647624126
 30
0.0
 10
424.9296102090567
 20
239.0363026241308
 30
0.0
 10
424.9296102090567
 20
234.9510705001243
 30
0.0
  0
LINE
  5
148
330
1F
100
AcDbEntity
  8
FISHER_PAYKEL
 62
   250
420
  1316376
370
     9
100
AcDbLine
 10
424.9296102090567
 20
234.9510705001243
 30
0.0
 11
424.9296102090567
 21
234.9087364884766
 31
0.0
  0
SPLINE
  5
149
330
1F
100
AcDbEntity
  8
FISHER_PAYKEL
 62
   250
420
  1316376
370
     9
100
AcDbSpline
210
0.0
220
0.0
230
1.0
 70
     8
 71
     3
 72
     8
 73
     4
 74
     0
 42
0.000000001
 43
0.0000000001
 40
4.024000000000001
 40
4.024000000000001
 40
4.024000000000001
 40
4.024000000000001
 40
5.024000000000001
 40
5.024000000000001
 40
5.024000000000001
 40
5.024000000000001
 10
424.9296102090567
 20
234.9087364884766
 30
0.0
 10
424.9296102090567
 20
230.8235043644703
 30
0.0
 10
422.5165715451359
 20
227.2498082145406
 30
0.0
 10
418.7100383311437
 20
227.2498082145406
 30
0.0
  0
SPLINE
  5
14A
330
1F
100
AcDbEntity
  8
FISHER_PAYKEL
 62
   250
420
  1316376
370
     9
100
AcDbSpline
210
0.0
220
0.0
230
1.0
 70
     8
 71
     3
 72
     8
 73
     4
 74
     0
 42
0.000000001
 43
0.0000000001
 40
5.024000000000001
 40
5.024000000000001
 40
5.024000000000001
 40
5.024000000000001
 40
6.024000000000001
 40
6.024000000000001
 40
6.024000000000001
 40
6.024000000000001
 10
418.7100383311437
 20
227.2498082145406
 30
0.0
 10
414.9035051171517
 20
227.2498082145406
 30
0.0
 10
412.5328004648785
 20
230.7846981871265
 30
0.0
 10
412.5328004648785
 20
234.866402476829
 30
0.0
  0
LINE
  5
14B
330
1F
100
AcDbEntity
  8
FISHER_PAYKEL
 62
   250
420
  1316376
370
     9
100
AcDbLine
 10
423.7760083916559
 20
234.866402476829
 30
0.0
 11
423.7760083916559
 21
234.9087364884766
 31
0.0
  0
SPLINE
  5
14C
330
1F
100
AcDbEntity
  8
FISHER_PAYKEL
 62
   250
420
  1316376
370
     9
100
AcDbSpline
210
0.0
220
0.0
230
1.0
 70
     8
 71
     3
 72
     8
 73
     4
 74
     0
 42
0.000000001
 43
0.0000000001
 40
0.0120000000000005
 40
0.0120000000000005
 40
0.0120000000000005
 40
0.0120000000000005
 40
1.012
 40
1.012
 40
1.012
 40
1.012
 10
423.7760083916559
 20
234.9087364884766
 30
0.0
 10
423.7760083916559
 20
238.3554306034631
 30
0.0
 10
421.8074768500363
 20
241.5728154886909
 30
0.0
 10
418.7100383311437
 20
241.5728154886909
 30
0.0
  0
SPLINE
  5
14D
330
1F
100
AcDbEntity
  8
FISHER_PAYKEL
 62
   250
420
  1316376
370
     9
100
AcDbSpline
210
0.0
220
0.0
230
1.0
 70
     8
 71
     3
 72
     8
 73
     4
 74
     0
 42
0.000000001
 43
0.0000000001
 40
1.012
 40
1.012
 40
1.012
 40
1.012
 40
2.012
 40
2.012
 40
2.012
 40
2.012
 10
418.7100383311437
 20
241.5728154886909
 30
0.0
 10
415.6125998122512
 20
241.5728154886909
 30
0.0
 10
413.6899301165832
 20
238.3977646151108
 30
0.0
 10
413.6899301165832
 20
234.9510705001243
 30
0.0
  0
LINE
  5
14E
330
1F
100
AcDbEntity
  8
FISHER_PAYKEL
 62
   250
420
  1316376
370
     9
100
AcDbLine
 10
413.6899301165832
 20
234.9510705001243
 30
0.0
 11
413.6899301165832
 21
234.9087364884766
 31
0.0
  0
SPLINE
  5
14F
330
1F
100
AcDbEntity
  8
FISHER_PAYKEL
 62
   250
420
  1316376
370
     9
100
AcDbSpline
210
0.0
220
0.0
230
1.0
 70
     8
 71
     3
 72
     8
 73
     4
 74
     0
 42
0.000000001
 43
0.0000000001
 40
2.024000000000001
 40
2.024000000000001
 40
2.024000000000001
 40
2.024000000000001
 40
3.024000000000001
 40
3.024000000000001
 40
3.024000000000001
 40
3.024000000000001
 10
413.6899301165832
 20
234.9087364884766
 30
0.0
 10
413.6899301165832
 20
231.4832093793142
 30
0.0
 10
415.6549338238989
 20
228.2446574882623
 30
0.0
 10
418.7523723427915
 20
228.2446574882623
 30
0.0
  0
SPLINE
  5
150
330
1F
100
AcDbEntity
  8
FISHER_PAYKEL
 62
   250
420
  1316376
370
     9
100
AcDbSpline
210
0.0
220
0.0
230
1.0
 70
     8
 71
     3
 72
     8
 73
     4
 74
     0
 42
0.000000001
 43
0.0000000001
 40
3.024000000000001
 40
3.024000000000001
 40
3.024000000000001
 40
3.024000000000001
 40
4.024000000000001
 40
4.024000000000001
 40
4.024000000000001
 40
4.024000000000001
 10
418.7523723427915
 20
228.2446574882623
 30
0.0
 10
421.8533386959879
 20
228.2446574882623
 30
0.0
 10
423.7760083916559
 20
231.4373475333626
 30
0.0
 10
423.7760083916559
 20
234.866402476829
 30
0.0
  0
LINE
  5
151
330
1F
100
AcDbEntity
  8
FISHER_PAYKEL
 62
   250
420
  1316376
370
     9
100
AcDbLine
 10
427.6675624123737
 20
234.866402476829
 30
0.0
 11
427.6675624123737
 21
234.9087364884766
 31
0.0
  0
SPLINE
  5
152
330
1F
100
AcDbEntity
  8
FISHER_PAYKEL
 62
   250
420
  1316376
370
     9
100
AcDbSpline
210
0.0
220
0.0
230
1.0
 70
     8
 71
     3
 72
     8
 73
     4
 74
     0
 42
0.000000001
 43
0.0000000001
 40
2.012
 40
2.012
 40
2.012
 40
2.012
 40
3.012
 40
3.012
 40
3.012
 40
3.012
 10
427.6675624123737
 20
234.9087364884766
 30
0.0
 10
427.6675624123737
 20
238.9904407781788
 30
0.0
 10
430.0841289105985
 20
242.5676647624126
 30
0.0
 10
433.8906621245907
 20
242.5676647624126
 30
0.0
  0
SPLINE
  5
153
330
1F
100
AcDbEntity
  8
FISHER_PAYKEL
 62
   250
420
  1316376
370
     9
100
AcDbSpline
210
0.0
220
0.0
230
1.0
 70
     8
 71
     3
 72
     8
 73
     4
 74
     0
 42
0.000000001
 43
0.0000000001
 40
3.012
 40
3.012
 40
3.012
 40
3.012
 40
4.012
 40
4.012
 40
4.012
 40
4.012
 10
433.8906621245907
 20
242.5676647624126
 30
0.0
 10
437.6936675042788
 20
242.5676647624126
 30
0.0
 10
440.0643721565517
 20
239.0363026241308
 30
0.0
 10
440.0643721565517
 20
234.9510705001243
 30
0.0
  0
LINE
  5
154
330
1F
100
AcDbEntity
  8
FISHER_PAYKEL
 62
   250
420
  1316376
370
     9
100
AcDbLine
 10
440.0643721565517
 20
234.9510705001243
 30
0.0
 11
440.0643721565517
 21
234.9087364884766
 31
0.0
  0
SPLINE
  5
155
330
1F
100
AcDbEntity
  8
FISHER_PAYKEL
 62
   250
420
  1316376
370
     9
100
AcDbSpline
210
0.0
220
0.0
230
1.0
 70
     8
 71
     3
 72
     8
 73
     4
 74
     0
 42
0.000000001
 43
0.0000000001
 40
4.024000000000001
 40
4.024000000000001
 40
4.024000000000001
 40
4.024000000000001
 40
5.024000000000001
 40
5.024000000000001
 40
5.024000000000001
 40
5.024000000000001
 10
440.0643721565517
 20
234.9087364884766
 30
0.0
 10
440.0643721565517
 20
230.8235043644703
 30
0.0
 10
437.6513334926309
 20
227.2498082145406
 30
0.0
 10
433.8448002786389
 20
227.2498082145406
 30
0.0
  0
SPLINE
  5
156
330
1F
100
AcDbEntity
  8
FISHER_PAYKEL
 62
   250
420
  1316376
370
     9
100
AcDbSpline
210
0.0
220
0.0
230
1.0
 70
     8
 71
     3
 72
     8
 73
     4
 74
     0
 42
0.000000001
 43
0.0000000001
 40
5.024000000000001
 40
5.024000000000001
 40
5.024000000000001
 40
5.024000000000001
 40
6.024000000000001
 40
6.024000000000001
 40
6.024000000000001
 40
6.024000000000001
 10
433.8448002786389
 20
227.2498082145406
 30
0.0
 10
430.0417948989508
 20
227.2498082145406
 30
0.0
 10
427.6675624123737
 20
230.7846981871265
 30
0.0
 10
427.6675624123737
 20
234.866402476829
 30
0.0
  0
LINE
  5
157
330
1F
100
AcDbEntity
  8
FISHER_PAYKEL
 62
   250
420
  1316376
370
     9
100
AcDbLine
 10
438.9107703391511
 20
234.866402476829
 30
0.0
 11
438.9107703391511
 21
234.9087364884766
 31
0.0
  0
SPLINE
  5
158
330
1F
100
AcDbEntity
  8
FISHER_PAYKEL
 62
   250
420
  1316376
370
     9
100
AcDbSpline
210
0.0
220
0.0
230
1.0
 70
     8
 71
     3
 72
     8
 73
     4
 74
     0
 42
0.000000001
 43
0.0000000001
 40
0.0120000000000005
 40
0.0120000000000005
 40
0.0120000000000005
 40
0.0120000000000005
 40
1.012
 40
1.012
 40
1.012
 40
1.012
 10
438.9107703391511
 20
234.9087364884766
 30
0.0
 10
438.9107703391511
 20
238.3554306034631
 30
0.0
 10
436.9457666318355
 20
241.5728154886909
 30
0.0
 10
433.8448002786389
 20
241.5728154886909
 30
0.0
  0
SPLINE
  5
159
330
1F
100
AcDbEntity
  8
FISHER_PAYKEL
 62
   250
420
  1316376
370
     9
100
AcDbSpline
210
0.0
220
0.0
230
1.0
 70
     8
 71
     3
 72
     8
 73
     4
 74
     0
 42
0.000000001
 43
0.0000000001
 40
1.012
 40
1.012
 40
1.012
 40
1.012
 40
2.012
 40
2.012
 40
2.012
 40
2.012
 10
433.8448002786389
 20
241.5728154886909
 30
0.0
 10
430.7508895940504
 20
241.5728154886909
 30
0.0
 10
428.8246920640785
 20
238.3977646151108
 30
0.0
 10
428.8246920640785
 20
234.9510705001243
 30
0.0
  0
LINE
  5
15A
330
1F
100
AcDbEntity
  8
FISHER_PAYKEL
 62
   250
420
  1316376
370
     9
100
AcDbLine
 10
428.8246920640785
 20
234.9510705001243
 30
0.0
 11
428.8246920640785
 21
234.9087364884766
 31
0.0
  0
SPLINE
  5
15B
330
1F
100
AcDbEntity
  8
FISHER_PAYKEL
 62
   250
420
  1316376
370
     9
100
AcDbSpline
210
0.0
220
0.0
230
1.0
 70
     8
 71
     3
 72
     8
 73
     4
 74
     0
 42
0.000000001
 43
0.0000000001
 40
2.024000000000001
 40
2.024000000000001
 40
2.024000000000001
 40
2.024000000000001
 40
3.024000000000001
 40
3.024000000000001
 40
3.024000000000001
 40
3.024000000000001
 10
428.8246920640785
 20
234.9087364884766
 30
0.0
 10
428.8246920640785
 20
231.4832093793142
 30
0.0
 10
430.7896957713941
 20
228.2446574882623
 30
0.0
 10
433.8906621245907
 20
228.2446574882623
 30
0.0
  0
SPLINE
  5
15C
330
1F
100
AcDbEntity
  8
FISHER_PAYKEL
 62
   250
420
  1316376
370
     9
100
AcDbSpline
210
0.0
220
0.0
230
1.0
 70
     8
 71
     3
 72
     8
 73
     4
 74
     0
 42
0.000000001
 43
0.0000000001
 40
3.024000000000001
 40
3.024000000000001
 40
3.024000000000001
 40
3.024000000000001
 40
4.024000000000001
 40
4.024000000000001
 40
4.024000000000001
 40
4.024000000000001
 10
433.8906621245907
 20
228.2446574882623
 30
0.0
 10
436.9881006434831
 20
228.2446574882623
 30
0.0
 10
438.9107703391511
 20
231.4373475333626
 30
0.0
 10
438.9107703391511
 20
234.866402476829
 30
0.0
  0
LINE
  5
15D
330
1F
100
AcDbEntity
  8
FISHER_PAYKEL
 62
   250
420
  1316376
370
     9
100
AcDbLine
 10
502.3186529851276
 20
228.3293255115583
 30
0.0
 11
507.8961590197166
 21
233.3247388859908
 31
0.0
  0
SPLINE
  5
15E
330
1F
100
AcDbEntity
  8
FISHER_PAYKEL
 62
   250
420
  1316376
370
     9
100
AcDbSpline
210
0.0
220
0.0
230
1.0
 70
     8
 71
     3
 72
     8
 73
     4
 74
     0
 42
0.000000001
 43
0.0000000001
 40
2.122408301906088
 40
2.122408301906088
 40
2.122408301906088
 40
2.122408301906088
 40
3.122408301906088
 40
3.122408301906088
 40
3.122408301906088
 40
3.122408301906088
 10
507.8961590197166
 20
233.3247388859908
 30
0.0
 10
510.3515316952848
 20
235.5437466631928
 30
0.0
 10
511.2087954311514
 20
236.8137670126245
 30
0.0
 10
511.2087954311514
 20
238.3765976092869
 30
0.0
  0
SPLINE
  5
15F
330
1F
100
AcDbEntity
  8
FISHER_PAYKEL
 62
   250
420
  1316376
370
     9
100
AcDbSpline
210
0.0
220
0.0
230
1.0
 70
     8
 71
     3
 72
     8
 73
     4
 74
     0
 42
0.000000001
 43
0.0000000001
 40
3.122408301906088
 40
3.122408301906088
 40
3.122408301906088
 40
3.122408301906088
 40
4.122408301906088
 40
4.122408301906088
 40
4.122408301906088
 40
4.122408301906088
 10
511.2087954311514
 20
238.3765976092869
 30
0.0
 10
511.2087954311514
 20
240.3027951392588
 30
0.0
 10
509.6247978286656
 20
241.5516484828669
 30
0.0
 10
507.8291301679408
 20
241.5516484828669
 30
0.0
  0
SPLINE
  5
160
330
1F
100
AcDbEntity
  8
FISHER_PAYKEL
 62
   250
420
  1316376
370
     9
100
AcDbSpline
210
0.0
220
0.0
230
1.0
 70
     8
 71
     3
 72
     8
 73
     4
 74
     0
 42
0.000000001
 43
0.0000000001
 40
4.122408301906088
 40
4.122408301906088
 40
4.122408301906088
 40
4.122408301906088
 40
5.122408301906088
 40
5.122408301906088
 40
5.122408301906088
 40
5.122408301906088
 10
507.8291301679408
 20
241.5516484828669
 30
0.0
 10
505.9276274780968
 20
241.5516484828669
 30
0.0
 10
504.6928854717044
 20
240.5779662149688
 30
0.0
 10
503.4510877967044
 20
238.7999377257644
 30
0.0
  0
LINE
  5
161
330
1F
100
AcDbEntity
  8
FISHER_PAYKEL
 62
   250
420
  1316376
370
     9
100
AcDbLine
 10
503.4510877967044
 20
238.7999377257644
 30
0.0
 11
502.6185189009653
 21
239.3538077114887
 31
0.0
  0
SPLINE
  5
162
330
1F
100
AcDbEntity
  8
FISHER_PAYKEL
 62
   250
420
  1316376
370
     9
100
AcDbSpline
210
0.0
220
0.0
230
1.0
 70
     8
 71
     3
 72
     8
 73
     4
 74
     0
 42
0.000000001
 43
0.0000000001
 40
5.405860237867048
 40
5.405860237867048
 40
5.405860237867048
 40
5.405860237867048
 40
6.405860237867048
 40
6.405860237867048
 40
6.405860237867048
 40
6.405860237867048
 10
502.6185189009653
 20
239.3538077114887
 30
0.0
 10
503.9202897591334
 20
241.3188114188046
 30
0.0
 10
505.3102564749006
 20
242.5253307507647
 30
0.0
 10
507.938493031364
 20
242.5253307507647
 30
0.0
  0
SPLINE
  5
163
330
1F
100
AcDbEntity
  8
FISHER_PAYKEL
 62
   250
420
  1316376
370
     9
100
AcDbSpline
210
0.0
220
0.0
230
1.0
 70
     8
 71
     3
 72
     8
 73
     4
 74
     0
 42
0.000000001
 43
0.0000000001
 40
6.405860237867048
 40
6.405860237867048
 40
6.405860237867048
 40
6.405860237867048
 40
7.405860237867048
 40
7.405860237867048
 40
7.405860237867048
 40
7.405860237867048
 10
507.938493031364
 20
242.5253307507647
 30
0.0
 10
510.4820615645322
 20
242.5253307507647
 30
0.0
 10
512.3870920886802
 20
240.7684692673839
 30
0.0
 10
512.3870920886802
 20
238.4647934668864
 30
0.0
  0
LINE
  5
164
330
1F
100
AcDbEntity
  8
FISHER_PAYKEL
 62
   250
420
  1316376
370
     9
100
AcDbLine
 10
512.3870920886802
 20
238.4647934668864
 30
0.0
 11
512.3870920886802
 21
238.4189316209346
 31
0.0
  0
SPLINE
  5
165
330
1F
100
AcDbEntity
  8
FISHER_PAYKEL
 62
   250
420
  1316376
370
     9
100
AcDbSpline
210
0.0
220
0.0
230
1.0
 70
     8
 71
     3
 72
     8
 73
     4
 74
     0
 42
0.000000001
 43
0.0000000001
 40
7.418860237867025
 40
7.418860237867025
 40
7.418860237867025
 40
7.418860237867025
 40
8.418860237867026
 40
8.418860237867026
 40
8.418860237867026
 40
8.418860237867026
 10
512.3870920886802
 20
238.4189316209346
 30
0.0
 10
512.3870920886802
 20
236.3904268961472
 30
0.0
 10
511.2722964486231
 20
235.0357385234198
 30
0.0
 10
508.6440598921597
 20
232.6650338711466
 30
0.0
  0
LINE
  5
166
330
1F
100
AcDbEntity
  8
FISHER_PAYKEL
 62
   250
420
  1316376
370
     9
100
AcDbLine
 10
508.6440598921597
 20
232.6650338711466
 30
0.0
 11
504.0719866342043
 21
228.5621625756206
 31
0.0
  0
LINE
  5
167
330
1F
100
AcDbEntity
  8
FISHER_PAYKEL
 62
   250
420
  1316376
370
     9
100
AcDbLine
 10
504.0719866342043
 20
228.5621625756206
 30
0.0
 11
512.5352611294472
 21
228.5621625756206
 31
0.0
  0
LINE
  5
168
330
1F
100
AcDbEntity
  8
FISHER_PAYKEL
 62
   250
420
  1316376
370
     9
100
AcDbLine
 10
512.5352611294472
 20
228.5621625756206
 30
0.0
 11
512.5352611294472
 21
227.5038122844272
 31
0.0
  0
LINE
  5
169
330
1F
100
AcDbEntity
  8
FISHER_PAYKEL
 62
   250
420
  1316376
370
     9
100
AcDbLine
 10
512.5352611294472
 20
227.5038122844272
 30
0.0
 11
502.3186529851274
 21
227.5038122844272
 31
0.0
  0
LINE
  5
16A
330
1F
100
AcDbEntity
  8
FISHER_PAYKEL
 62
   250
420
  1316376
370
     9
100
AcDbLine
 10
502.3186529851274
 20
227.5038122844272
 30
0.0
 11
502.3186529851276
 21
228.3293255115583
 31
0.0
  0
LINE
  5
16B
330
1F
100
AcDbEntity
  8
FISHER_PAYKEL
 62
   250
420
  1316376
370
     9
100
AcDbLine
 10
515.2534574606623
 20
234.866402476829
 30
0.0
 11
515.2534574606623
 21
234.9087364884766
 31
0.0
  0
SPLINE
  5
16C
330
1F
100
AcDbEntity
  8
FISHER_PAYKEL
 62
   250
420
  1316376
370
     9
100
AcDbSpline
210
0.0
220
0.0
230
1.0
 70
     8
 71
     3
 72
     8
 73
     4
 74
     0
 42
0.000000001
 43
0.0000000001
 40
2.012
 40
2.012
 40
2.012
 40
2.012
 40
3.012
 40
3.012
 40
3.012
 40
3.012
 10
515.2534574606623
 20
234.9087364884766
 30
0.0
 10
515.2534574606623
 20
238.9904407781788
 30
0.0
 10
517.670023958887
 20
242.5676647624126
 30
0.0
 10
521.476557172879
 20
242.5676647624126
 30
0.0
  0
SPLINE
  5
16D
330
1F
100
AcDbEntity
  8
FISHER_PAYKEL
 62
   250
420
  1316376
370
     9
100
AcDbSpline
210
0.0
220
0.0
230
1.0
 70
     8
 71
     3
 72
     8
 73
     4
 74
     0
 42
0.000000001
 43
0.0000000001
 40
3.012
 40
3.012
 40
3.012
 40
3.012
 40
4.012
 40
4.012
 40
4.012
 40
4.012
 10
521.476557172879
 20
242.5676647624126
 30
0.0
 10
525.2795625525671
 20
242.5676647624126
 30
0.0
 10
527.6502672048402
 20
239.0363026241308
 30
0.0
 10
527.6502672048402
 20
234.9510705001243
 30
0.0
  0
LINE
  5
16E
330
1F
100
AcDbEntity
  8
FISHER_PAYKEL
 62
   250
420
  1316376
370
     9
100
AcDbLine
 10
527.6502672048402
 20
234.9510705001243
 30
0.0
 11
527.6502672048402
 21
234.9087364884766
 31
0.0
  0
SPLINE
  5
16F
330
1F
100
AcDbEntity
  8
FISHER_PAYKEL
 62
   250
420
  1316376
370
     9
100
AcDbSpline
210
0.0
220
0.0
230
1.0
 70
     8
 71
     3
 72
     8
 73
     4
 74
     0
 42
0.000000001
 43
0.0000000001
 40
4.024000000000001
 40
4.024000000000001
 40
4.024000000000001
 40
4.024000000000001
 40
5.024000000000001
 40
5.024000000000001
 40
5.024000000000001
 40
5.024000000000001
 10
527.6502672048402
 20
234.9087364884766
 30
0.0
 10
527.6502672048402
 20
230.8235043644703
 30
0.0
 10
525.2372285409192
 20
227.2498082145406
 30
0.0
 10
521.4306953269274
 20
227.2498082145406
 30
0.0
  0
SPLINE
  5
170
330
1F
100
AcDbEntity
  8
FISHER_PAYKEL
 62
   250
420
  1316376
370
     9
100
AcDbSpline
210
0.0
220
0.0
230
1.0
 70
     8
 71
     3
 72
     8
 73
     4
 74
     0
 42
0.000000001
 43
0.0000000001
 40
5.024000000000001
 40
5.024000000000001
 40
5.024000000000001
 40
5.024000000000001
 40
6.024000000000001
 40
6.024000000000001
 40
6.024000000000001
 40
6.024000000000001
 10
521.4306953269274
 20
227.2498082145406
 30
0.0
 10
517.6276899472393
 20
227.2498082145406
 30
0.0
 10
515.2534574606623
 20
230.7846981871265
 30
0.0
 10
515.2534574606623
 20
234.866402476829
 30
0.0
  0
LINE
  5
171
330
1F
100
AcDbEntity
  8
FISHER_PAYKEL
 62
   250
420
  1316376
370
     9
100
AcDbLine
 10
526.4966653874394
 20
234.866402476829
 30
0.0
 11
526.4966653874394
 21
234.9087364884766
 31
0.0
  0
SPLINE
  5
172
330
1F
100
AcDbEntity
  8
FISHER_PAYKEL
 62
   250
420
  1316376
370
     9
100
AcDbSpline
210
0.0
220
0.0
230
1.0
 70
     8
 71
     3
 72
     8
 73
     4
 74
     0
 42
0.000000001
 43
0.0000000001
 40
0.0120000000000005
 40
0.0120000000000005
 40
0.0120000000000005
 40
0.0120000000000005
 40
1.012
 40
1.012
 40
1.012
 40
1.012
 10
526.4966653874394
 20
234.9087364884766
 30
0.0
 10
526.4966653874394
 20
238.3554306034631
 30
0.0
 10
524.5316616801238
 20
241.5728154886909
 30
0.0
 10
521.4306953269274
 20
241.5728154886909
 30
0.0
  0
SPLINE
  5
173
330
1F
100
AcDbEntity
  8
FISHER_PAYKEL
 62
   250
420
  1316376
370
     9
100
AcDbSpline
210
0.0
220
0.0
230
1.0
 70
     8
 71
     3
 72
     8
 73
     4
 74
     0
 42
0.000000001
 43
0.0000000001
 40
1.012
 40
1.012
 40
1.012
 40
1.012
 40
2.012
 40
2.012
 40
2.012
 40
2.012
 10
521.4306953269274
 20
241.5728154886909
 30
0.0
 10
518.3367846423389
 20
241.5728154886909
 30
0.0
 10
516.410587112367
 20
238.3977646151108
 30
0.0
 10
516.410587112367
 20
234.9510705001243
 30
0.0
  0
LINE
  5
174
330
1F
100
AcDbEntity
  8
FISHER_PAYKEL
 62
   250
420
  1316376
370
     9
100
AcDbLine
 10
516.410587112367
 20
234.9510705001243
 30
0.0
 11
516.410587112367
 21
234.9087364884766
 31
0.0
  0
SPLINE
  5
175
330
1F
100
AcDbEntity
  8
FISHER_PAYKEL
 62
   250
420
  1316376
370
     9
100
AcDbSpline
210
0.0
220
0.0
230
1.0
 70
     8
 71
     3
 72
     8
 73
     4
 74
     0
 42
0.000000001
 43
0.0000000001
 40
2.024000000000001
 40
2.024000000000001
 40
2.024000000000001
 40
2.024000000000001
 40
3.024000000000001
 40
3.024000000000001
 40
3.024000000000001
 40
3.024000000000001
 10
516.410587112367
 20
234.9087364884766
 30
0.0
 10
516.410587112367
 20
231.4832093793142
 30
0.0
 10
518.3755908196824
 20
228.2446574882623
 30
0.0
 10
521.476557172879
 20
228.2446574882623
 30
0.0
  0
SPLINE
  5
176
330
1F
100
AcDbEntity
  8
FISHER_PAYKEL
 62
   250
420
  1316376
370
     9
100
AcDbSpline
210
0.0
220
0.0
230
1.0
 70
     8
 71
     3
 72
     8
 73
     4
 74
     0
 42
0.000000001
 43
0.0000000001
 40
3.024000000000001
 40
3.024000000000001
 40
3.024000000000001
 40
3.024000000000001
 40
4.024000000000001
 40
4.024000000000001
 40
4.024000000000001
 40
4.024000000000001
 10
521.476557172879
 20
228.2446574882623
 30
0.0
 10
524.5739956917716
 20
228.2446574882623
 30
0.0
 10
526.4966653874394
 20
231.4373475333626
 30
0.0
 10
526.4966653874394
 20
234.866402476829
 30
0.0
  0
LINE
  5
177
330
1F
100
AcDbEntity
  8
FISHER_PAYKEL
 62
   250
420
  1316376
370
     9
100
AcDbLine
 10
530.3913944590311
 20
234.866402476829
 30
0.0
 11
530.3913944590311
 21
234.9087364884766
 31
0.0
  0
SPLINE
  5
178
330
1F
100
AcDbEntity
  8
FISHER_PAYKEL
 62
   250
420
  1316376
370
     9
100
AcDbSpline
210
0.0
220
0.0
230
1.0
 70
     8
 71
     3
 72
     8
 73
     4
 74
     0
 42
0.000000001
 43
0.0000000001
 40
2.012
 40
2.012
 40
2.012
 40
2.012
 40
3.012
 40
3.012
 40
3.012
 40
3.012
 10
530.3913944590311
 20
234.9087364884766
 30
0.0
 10
530.3913944590311
 20
238.9904407781788
 30
0.0
 10
532.8079609572558
 20
242.5676647624126
 30
0.0
 10
536.614494171248
 20
242.5676647624126
 30
0.0
  0
SPLINE
  5
179
330
1F
100
AcDbEntity
  8
FISHER_PAYKEL
 62
   250
420
  1316376
370
     9
100
AcDbSpline
210
0.0
220
0.0
230
1.0
 70
     8
 71
     3
 72
     8
 73
     4
 74
     0
 42
0.000000001
 43
0.0000000001
 40
3.012
 40
3.012
 40
3.012
 40
3.012
 40
4.012
 40
4.012
 40
4.012
 40
4.012
 10
536.614494171248
 20
242.5676647624126
 30
0.0
 10
540.4174995509361
 20
242.5676647624126
 30
0.0
 10
542.7882042032093
 20
239.0363026241308
 30
0.0
 10
542.7882042032093
 20
234.9510705001243
 30
0.0
  0
LINE
  5
17A
330
1F
100
AcDbEntity
  8
FISHER_PAYKEL
 62
   250
420
  1316376
370
     9
100
AcDbLine
 10
542.7882042032093
 20
234.9510705001243
 30
0.0
 11
542.7882042032093
 21
234.9087364884766
 31
0.0
  0
SPLINE
  5
17B
330
1F
100
AcDbEntity
  8
FISHER_PAYKEL
 62
   250
420
  1316376
370
     9
100
AcDbSpline
210
0.0
220
0.0
230
1.0
 70
     8
 71
     3
 72
     8
 73
     4
 74
     0
 42
0.000000001
 43
0.0000000001
 40
4.024000000000001
 40
4.024000000000001
 40
4.024000000000001
 40
4.024000000000001
 40
5.024000000000001
 40
5.024000000000001
 40
5.024000000000001
 40
5.024000000000001
 10
542.7882042032093
 20
234.9087364884766
 30
0.0
 10
542.7882042032093
 20
230.8235043644703
 30
0.0
 10
540.3751655392882
 20
227.2498082145406
 30
0.0
 10
536.5686323252962
 20
227.2498082145406
 30
0.0
  0
SPLINE
  5
17C
330
1F
100
AcDbEntity
  8
FISHER_PAYKEL
 62
   250
420
  1316376
370
     9
100
AcDbSpline
210
0.0
220
0.0
230
1.0
 70
     8
 71
     3
 72
     8
 73
     4
 74
     0
 42
0.000000001
 43
0.0000000001
 40
5.024000000000001
 40
5.024000000000001
 40
5.024000000000001
 40
5.024000000000001
 40
6.024000000000001
 40
6.024000000000001
 40
6.024000000000001
 40
6.024000000000001
 10
536.5686323252962
 20
227.2498082145406
 30
0.0
 10
532.7656269456081
 20
227.2498082145406
 30
0.0
 10
530.3913944590311
 20
230.7846981871265
 30
0.0
 10
530.3913944590311
 20
234.866402476829
 30
0.0
  0
LINE
  5
17D
330
1F
100
AcDbEntity
  8
FISHER_PAYKEL
 62
   250
420
  1316376
370
     9
100
AcDbLine
 10
541.6346023858084
 20
234.866402476829
 30
0.0
 11
541.6346023858084
 21
234.9087364884766
 31
0.0
  0
SPLINE
  5
17E
330
1F
100
AcDbEntity
  8
FISHER_PAYKEL
 62
   250
420
  1316376
370
     9
100
AcDbSpline
210
0.0
220
0.0
230
1.0
 70
     8
 71
     3
 72
     8
 73
     4
 74
     0
 42
0.000000001
 43
0.0000000001
 40
0.0120000000000005
 40
0.0120000000000005
 40
0.0120000000000005
 40
0.0120000000000005
 40
1.012
 40
1.012
 40
1.012
 40
1.012
 10
541.6346023858084
 20
234.9087364884766
 30
0.0
 10
541.6346023858084
 20
238.3554306034631
 30
0.0
 10
539.6695986784928
 20
241.5728154886909
 30
0.0
 10
536.5686323252962
 20
241.5728154886909
 30
0.0
  0
SPLINE
  5
17F
330
1F
100
AcDbEntity
  8
FISHER_PAYKEL
 62
   250
420
  1316376
370
     9
100
AcDbSpline
210
0.0
220
0.0
230
1.0
 70
     8
 71
     3
 72
     8
 73
     4
 74
     0
 42
0.000000001
 43
0.0000000001
 40
1.012
 40
1.012
 40
1.012
 40
1.012
 40
2.012
 40
2.012
 40
2.012
 40
2.012
 10
536.5686323252962
 20
241.5728154886909
 30
0.0
 10
533.4747216407077
 20
241.5728154886909
 30
0.0
 10
531.5485241107358
 20
238.3977646151108
 30
0.0
 10
531.5485241107358
 20
234.9510705001243
 30
0.0
  0
LINE
  5
180
330
1F
100
AcDbEntity
  8
FISHER_PAYKEL
 62
   250
420
  1316376
370
     9
100
AcDbLine
 10
531.5485241107358
 20
234.9510705001243
 30
0.0
 11
531.5485241107358
 21
234.9087364884766
 31
0.0
  0
SPLINE
  5
181
330
1F
100
AcDbEntity
  8
FISHER_PAYKEL
 62
   250
420
  1316376
370
     9
100
AcDbSpline
210
0.0
220
0.0
230
1.0
 70
     8
 71
     3
 72
     8
 73
     4
 74
     0
 42
0.000000001
 43
0.0000000001
 40
2.024000000000001
 40
2.024000000000001
 40
2.024000000000001
 40
2.024000000000001
 40
3.024000000000001
 40
3.024000000000001
 40
3.024000000000001
 40
3.024000000000001
 10
531.5485241107358
 20
234.9087364884766
 30
0.0
 10
531.5485241107358
 20
231.4832093793142
 30
0.0
 10
533.5135278180514
 20
228.2446574882623
 30
0.0
 10
536.614494171248
 20
228.2446574882623
 30
0.0
  0
SPLINE
  5
182
330
1F
100
AcDbEntity
  8
FISHER_PAYKEL
 62
   250
420
  1316376
370
     9
100
AcDbSpline
210
0.0
220
0.0
230
1.0
 70
     8
 71
     3
 72
     8
 73
     4
 74
     0
 42
0.000000001
 43
0.0000000001
 40
3.024000000000001
 40
3.024000000000001
 40
3.024000000000001
 40
3.024000000000001
 40
4.024000000000001
 40
4.024000000000001
 40
4.024000000000001
 40
4.024000000000001
 10
536.614494171248
 20
228.2446574882623
 30
0.0
 10
539.7119326901404
 20
228.2446574882623
 30
0.0
 10
541.6346023858084
 20
231.4373475333626
 30
0.0
 10
541.6346023858084
 20
234.866402476829
 30
0.0
  0
POLYLINE
  5
183
330
1F
100
AcDbEntity
  8
FISHER_PAYKEL
 62
   250
420
  1316376
370
     9
100
AcDb2dPolyline
 66
     1
 10
0.0
 20
0.0
 30
0.0
 70
     1
  0
VERTEX
  5
184
330
183
100
AcDbEntity
  8
FISHER_PAYKEL
 62
   250
420
  1316376
370
     9
100
AcDbVertex
100
AcDb2dVertex
 10
710.0163697975188
 20
231.1216063631567
 30
0.0
  0
VERTEX
  5
185
330
183
100
AcDbEntity
  8
FISHER_PAYKEL
 62
   250
420
  1316376
370
     9
100
AcDbVertex
100
AcDb2dVertex
 10
701.9164622355856
 20
231.1216063631567
 30
0.0
  0
VERTEX
  5
186
330
183
100
AcDbEntity
  8
FISHER_PAYKEL
 62
   250
420
  1316376
370
     9
100
AcDbVertex
100
AcDb2dVertex
 10
701.5319282964522
 20
231.9471195902876
 30
0.0
  0
VERTEX
  5
187
330
183
100
AcDbEntity
  8
FISHER_PAYKEL
 62
   250
420
  1316376
370
     9
100
AcDbVertex
100
AcDb2dVertex
 10
710.0798708149903
 20
242.4177318044939
 30
0.0
  0
VERTEX
  5
188
330
183
100
AcDbEntity
  8
FISHER_PAYKEL
 62
   250
420
  1316376
370
     9
100
AcDbVertex
100
AcDb2dVertex
 10
711.0853035916241
 20
242.4177318044939
 30
0.0
  0
VERTEX
  5
189
330
183
100
AcDbEntity
  8
FISHER_PAYKEL
 62
   250
420
  1316376
370
     9
100
AcDbVertex
100
AcDb2dVertex
 10
711.0853035916241
 20
232.0741216252305
 30
0.0
  0
VERTEX
  5
18A
330
183
100
AcDbEntity
  8
FISHER_PAYKEL
 62
   250
420
  1316376
370
     9
100
AcDbVertex
100
AcDb2dVertex
 10
713.5195092613687
 20
232.0741216252305
 30
0.0
  0
VERTEX
  5
18B
330
183
100
AcDbEntity
  8
FISHER_PAYKEL
 62
   250
420
  1316376
370
     9
100
AcDbVertex
100
AcDb2dVertex
 10
713.5195092613687
 20
231.1216063631567
 30
0.0
  0
VERTEX
  5
18C
330
183
100
AcDbEntity
  8
FISHER_PAYKEL
 62
   250
420
  1316376
370
     9
100
AcDbVertex
100
AcDb2dVertex
 10
711.0853035916241
 20
231.1216063631567
 30
0.0
  0
VERTEX
  5
18D
330
183
100
AcDbEntity
  8
FISHER_PAYKEL
 62
   250
420
  1316376
370
     9
100
AcDbVertex
100
AcDb2dVertex
 10
711.0853035916241
 20
227.5055762015794
 30
0.0
  0
VERTEX
  5
18E
330
183
100
AcDbEntity
  8
FISHER_PAYKEL
 62
   250
420
  1316376
370
     9
100
AcDbVertex
100
AcDb2dVertex
 10
710.0163697975188
 20
227.5055762015794
 30
0.0
  0
SEQEND
  5
18F
330
183
100
AcDbEntity
  8
FISHER_PAYKEL
 62
   250
420
  1316376
370
     9
  0
POLYLINE
  5
190
330
1F
100
AcDbEntity
  8
FISHER_PAYKEL
 62
   250
420
  1316376
370
     9
100
AcDb2dPolyline
 66
     1
 10
0.0
 20
0.0
 30
0.0
 70
     1
  0
VERTEX
  5
191
330
190
100
AcDbEntity
  8
FISHER_PAYKEL
 62
   250
420
  1316376
370
     9
100
AcDbVertex
100
AcDb2dVertex
 10
710.0163697975188
 20
232.0741216252305
 30
0.0
  0
VERTEX
  5
192
330
190
100
AcDbEntity
  8
FISHER_PAYKEL
 62
   250
420
  1316376
370
     9
100
AcDbVertex
100
AcDb2dVertex
 10
710.0163697975188
 20
240.8302063677037
 30
0.0
  0
VERTEX
  5
193
330
190
100
AcDbEntity
  8
FISHER_PAYKEL
 62
   250
420
  1316376
370
     9
100
AcDbVertex
100
AcDb2dVertex
 10
702.8795610005716
 20
232.0741216252305
 30
0.0
  0
SEQEND
  5
194
330
190
100
AcDbEntity
  8
FISHER_PAYKEL
 62
   250
420
  1316376
370
     9
  0
LINE
  5
195
330
1F
100
AcDbEntity
  8
FISHER_PAYKEL
 62
   250
420
  1316376
370
     9
100
AcDbLine
 10
716.0472025401689
 20
234.866402476829
 30
0.0
 11
716.0472025401689
 21
234.9087364884766
 31
0.0
  0
SPLINE
  5
196
330
1F
100
AcDbEntity
  8
FISHER_PAYKEL
 62
   250
420
  1316376
370
     9
100
AcDbSpline
210
0.0
220
0.0
230
1.0
 70
     8
 71
     3
 72
     8
 73
     4
 74
     0
 42
0.000000001
 43
0.0000000001
 40
2.012
 40
2.012
 40
2.012
 40
2.012
 40
3.012
 40
3.012
 40
3.012
 40
3.012
 10
716.0472025401689
 20
234.9087364884766
 30
0.0
 10
716.0472025401689
 20
238.9904407781788
 30
0.0
 10
718.4637690383936
 20
242.5676647624126
 30
0.0
 10
722.2667744180819
 20
242.5676647624126
 30
0.0
  0
SPLINE
  5
197
330
1F
100
AcDbEntity
  8
FISHER_PAYKEL
 62
   250
420
  1316376
370
     9
100
AcDbSpline
210
0.0
220
0.0
230
1.0
 70
     8
 71
     3
 72
     8
 73
     4
 74
     0
 42
0.000000001
 43
0.0000000001
 40
3.012
 40
3.012
 40
3.012
 40
3.012
 40
4.012
 40
4.012
 40
4.012
 40
4.012
 10
722.2667744180819
 20
242.5676647624126
 30
0.0
 10
726.0697797977698
 20
242.5676647624126
 30
0.0
 10
728.4440122843471
 20
239.0363026241308
 30
0.0
 10
728.4440122843471
 20
234.9510705001243
 30
0.0
  0
LINE
  5
198
330
1F
100
AcDbEntity
  8
FISHER_PAYKEL
 62
   250
420
  1316376
370
     9
100
AcDbLine
 10
728.4440122843471
 20
234.9510705001243
 30
0.0
 11
728.4440122843471
 21
234.9087364884766
 31
0.0
  0
SPLINE
  5
199
330
1F
100
AcDbEntity
  8
FISHER_PAYKEL
 62
   250
420
  1316376
370
     9
100
AcDbSpline
210
0.0
220
0.0
230
1.0
 70
     8
 71
     3
 72
     8
 73
     4
 74
     0
 42
0.000000001
 43
0.0000000001
 40
4.024000000000001
 40
4.024000000000001
 40
4.024000000000001
 40
4.024000000000001
 40
5.024000000000001
 40
5.024000000000001
 40
5.024000000000001
 40
5.024000000000001
 10
728.4440122843471
 20
234.9087364884766
 30
0.0
 10
728.4440122843471
 20
230.8235043644703
 30
0.0
 10
726.030973620426
 20
227.2498082145406
 30
0.0
 10
722.2244404064343
 20
227.2498082145406
 30
0.0
  0
SPLINE
  5
19A
330
1F
100
AcDbEntity
  8
FISHER_PAYKEL
 62
   250
420
  1316376
370
     9
100
AcDbSpline
210
0.0
220
0.0
230
1.0
 70
     8
 71
     3
 72
     8
 73
     4
 74
     0
 42
0.000000001
 43
0.0000000001
 40
5.024000000000001
 40
5.024000000000001
 40
5.024000000000001
 40
5.024000000000001
 40
6.024000000000001
 40
6.024000000000001
 40
6.024000000000001
 40
6.024000000000001
 10
722.2244404064343
 20
227.2498082145406
 30
0.0
 10
718.417907192442
 20
227.2498082145406
 30
0.0
 10
716.0472025401689
 20
230.7846981871265
 30
0.0
 10
716.0472025401689
 20
234.866402476829
 30
0.0
  0
LINE
  5
19B
330
1F
100
AcDbEntity
  8
FISHER_PAYKEL
 62
   250
420
  1316376
370
     9
100
AcDbLine
 10
727.2904104669462
 20
234.866402476829
 30
0.0
 11
727.2904104669462
 21
234.9087364884766
 31
0.0
  0
SPLINE
  5
19C
330
1F
100
AcDbEntity
  8
FISHER_PAYKEL
 62
   250
420
  1316376
370
     9
100
AcDbSpline
210
0.0
220
0.0
230
1.0
 70
     8
 71
     3
 72
     8
 73
     4
 74
     0
 42
0.000000001
 43
0.0000000001
 40
0.0120000000000005
 40
0.0120000000000005
 40
0.0120000000000005
 40
0.0120000000000005
 40
1.012
 40
1.012
 40
1.012
 40
1.012
 10
727.2904104669462
 20
234.9087364884766
 30
0.0
 10
727.2904104669462
 20
238.3554306034631
 30
0.0
 10
725.3218789253267
 20
241.5728154886909
 30
0.0
 10
722.2244404064343
 20
241.5728154886909
 30
0.0
  0
SPLINE
  5
19D
330
1F
100
AcDbEntity
  8
FISHER_PAYKEL
 62
   250
420
  1316376
370
     9
100
AcDbSpline
210
0.0
220
0.0
230
1.0
 70
     8
 71
     3
 72
     8
 73
     4
 74
     0
 42
0.000000001
 43
0.0000000001
 40
1.012
 40
1.012
 40
1.012
 40
1.012
 40
2.012
 40
2.012
 40
2.012
 40
2.012
 10
722.2244404064343
 20
241.5728154886909
 30
0.0
 10
719.1270018875414
 20
241.5728154886909
 30
0.0
 10
717.2043321918736
 20
238.3977646151108
 30
0.0
 10
717.2043321918736
 20
234.9510705001243
 30
0.0
  0
LINE
  5
19E
330
1F
100
AcDbEntity
  8
FISHER_PAYKEL
 62
   250
420
  1316376
370
     9
100
AcDbLine
 10
717.2043321918736
 20
234.9510705001243
 30
0.0
 11
717.2043321918736
 21
234.9087364884766
 31
0.0
  0
SPLINE
  5
19F
330
1F
100
AcDbEntity
  8
FISHER_PAYKEL
 62
   250
420
  1316376
370
     9
100
AcDbSpline
210
0.0
220
0.0
230
1.0
 70
     8
 71
     3
 72
     8
 73
     4
 74
     0
 42
0.000000001
 43
0.0000000001
 40
2.024000000000001
 40
2.024000000000001
 40
2.024000000000001
 40
2.024000000000001
 40
3.024000000000001
 40
3.024000000000001
 40
3.024000000000001
 40
3.024000000000001
 10
717.2043321918736
 20
234.9087364884766
 30
0.0
 10
717.2043321918736
 20
231.4832093793142
 30
0.0
 10
719.1693358991893
 20
228.2446574882623
 30
0.0
 10
722.2667744180819
 20
228.2446574882623
 30
0.0
  0
SPLINE
  5
1A0
330
1F
100
AcDbEntity
  8
FISHER_PAYKEL
 62
   250
420
  1316376
370
     9
100
AcDbSpline
210
0.0
220
0.0
230
1.0
 70
     8
 71
     3
 72
     8
 73
     4
 74
     0
 42
0.000000001
 43
0.0000000001
 40
3.024000000000001
 40
3.024000000000001
 40
3.024000000000001
 40
3.024000000000001
 40
4.024000000000001
 40
4.024000000000001
 40
4.024000000000001
 40
4.024000000000001
 10
722.2667744180819
 20
228.2446574882623
 30
0.0
 10
725.3677407712782
 20
228.2446574882623
 30
0.0
 10
727.2904104669462
 20
231.4373475333626
 30
0.0
 10
727.2904104669462
 20
234.866402476829
 30
0.0
  0
LINE
  5
1A1
330
1F
100
AcDbEntity
  8
FISHER_PAYKEL
 62
   250
420
  1316376
370
     9
100
AcDbLine
 10
731.1851395385377
 20
234.866402476829
 30
0.0
 11
731.1851395385377
 21
234.9087364884766
 31
0.0
  0
SPLINE
  5
1A2
330
1F
100
AcDbEntity
  8
FISHER_PAYKEL
 62
   250
420
  1316376
370
     9
100
AcDbSpline
210
0.0
220
0.0
230
1.0
 70
     8
 71
     3
 72
     8
 73
     4
 74
     0
 42
0.000000001
 43
0.0000000001
 40
2.012
 40
2.012
 40
2.012
 40
2.012
 40
3.012
 40
3.012
 40
3.012
 40
3.012
 10
731.1851395385377
 20
234.9087364884766
 30
0.0
 10
731.1851395385377
 20
238.9904407781788
 30
0.0
 10
733.6017060367626
 20
242.5676647624126
 30
0.0
 10
737.4047114164509
 20
242.5676647624126
 30
0.0
  0
SPLINE
  5
1A3
330
1F
100
AcDbEntity
  8
FISHER_PAYKEL
 62
   250
420
  1316376
370
     9
100
AcDbSpline
210
0.0
220
0.0
230
1.0
 70
     8
 71
     3
 72
     8
 73
     4
 74
     0
 42
0.000000001
 43
0.0000000001
 40
3.012
 40
3.012
 40
3.012
 40
3.012
 40
4.012
 40
4.012
 40
4.012
 40
4.012
 10
737.4047114164509
 20
242.5676647624126
 30
0.0
 10
741.2077167961388
 20
242.5676647624126
 30
0.0
 10
743.5819492827159
 20
239.0363026241308
 30
0.0
 10
743.5819492827159
 20
234.9510705001243
 30
0.0
  0
LINE
  5
1A4
330
1F
100
AcDbEntity
  8
FISHER_PAYKEL
 62
   250
420
  1316376
370
     9
100
AcDbLine
 10
743.5819492827159
 20
234.9510705001243
 30
0.0
 11
743.5819492827159
 21
234.9087364884766
 31
0.0
  0
SPLINE
  5
1A5
330
1F
100
AcDbEntity
  8
FISHER_PAYKEL
 62
   250
420
  1316376
370
     9
100
AcDbSpline
210
0.0
220
0.0
230
1.0
 70
     8
 71
     3
 72
     8
 73
     4
 74
     0
 42
0.000000001
 43
0.0000000001
 40
4.024000000000001
 40
4.024000000000001
 40
4.024000000000001
 40
4.024000000000001
 40
5.024000000000001
 40
5.024000000000001
 40
5.024000000000001
 40
5.024000000000001
 10
743.5819492827159
 20
234.9087364884766
 30
0.0
 10
743.5819492827159
 20
230.8235043644703
 30
0.0
 10
741.168910618795
 20
227.2498082145406
 30
0.0
 10
737.362377404803
 20
227.2498082145406
 30
0.0
  0
SPLINE
  5
1A6
330
1F
100
AcDbEntity
  8
FISHER_PAYKEL
 62
   250
420
  1316376
370
     9
100
AcDbSpline
210
0.0
220
0.0
230
1.0
 70
     8
 71
     3
 72
     8
 73
     4
 74
     0
 42
0.000000001
 43
0.0000000001
 40
5.024000000000001
 40
5.024000000000001
 40
5.024000000000001
 40
5.024000000000001
 40
6.024000000000001
 40
6.024000000000001
 40
6.024000000000001
 40
6.024000000000001
 10
737.362377404803
 20
227.2498082145406
 30
0.0
 10
733.5558441908108
 20
227.2498082145406
 30
0.0
 10
731.1851395385377
 20
230.7846981871265
 30
0.0
 10
731.1851395385377
 20
234.866402476829
 30
0.0
  0
LINE
  5
1A7
330
1F
100
AcDbEntity
  8
FISHER_PAYKEL
 62
   250
420
  1316376
370
     9
100
AcDbLine
 10
742.428347465315
 20
234.866402476829
 30
0.0
 11
742.428347465315
 21
234.9087364884766
 31
0.0
  0
SPLINE
  5
1A8
330
1F
100
AcDbEntity
  8
FISHER_PAYKEL
 62
   250
420
  1316376
370
     9
100
AcDbSpline
210
0.0
220
0.0
230
1.0
 70
     8
 71
     3
 72
     8
 73
     4
 74
     0
 42
0.000000001
 43
0.0000000001
 40
0.0120000000000005
 40
0.0120000000000005
 40
0.0120000000000005
 40
0.0120000000000005
 40
1.012
 40
1.012
 40
1.012
 40
1.012
 10
742.428347465315
 20
234.9087364884766
 30
0.0
 10
742.428347465315
 20
238.3554306034631
 30
0.0
 10
740.4598159236955
 20
241.5728154886909
 30
0.0
 10
737.362377404803
 20
241.5728154886909
 30
0.0
  0
SPLINE
  5
1A9
330
1F
100
AcDbEntity
  8
FISHER_PAYKEL
 62
   250
420
  1316376
370
     9
100
AcDbSpline
210
0.0
220
0.0
230
1.0
 70
     8
 71
     3
 72
     8
 73
     4
 74
     0
 42
0.000000001
 43
0.0000000001
 40
1.012
 40
1.012
 40
1.012
 40
1.012
 40
2.012
 40
2.012
 40
2.012
 40
2.012
 10
737.362377404803
 20
241.5728154886909
 30
0.0
 10
734.2649388859104
 20
241.5728154886909
 30
0.0
 10
732.3422691902426
 20
238.3977646151108
 30
0.0
 10
732.3422691902426
 20
234.9510705001243
 30
0.0
  0
LINE
  5
1AA
330
1F
100
AcDbEntity
  8
FISHER_PAYKEL
 62
   250
420
  1316376
370
     9
100
AcDbLine
 10
732.3422691902426
 20
234.9510705001243
 30
0.0
 11
732.3422691902426
 21
234.9087364884766
 31
0.0
  0
SPLINE
  5
1AB
330
1F
100
AcDbEntity
  8
FISHER_PAYKEL
 62
   250
420
  1316376
370
     9
100
AcDbSpline
210
0.0
220
0.0
230
1.0
 70
     8
 71
     3
 72
     8
 73
     4
 74
     0
 42
0.000000001
 43
0.0000000001
 40
2.024000000000001
 40
2.024000000000001
 40
2.024000000000001
 40
2.024000000000001
 40
3.024000000000001
 40
3.024000000000001
 40
3.024000000000001
 40
3.024000000000001
 10
732.3422691902426
 20
234.9087364884766
 30
0.0
 10
732.3422691902426
 20
231.4832093793142
 30
0.0
 10
734.307272897558
 20
228.2446574882623
 30
0.0
 10
737.4047114164509
 20
228.2446574882623
 30
0.0
  0
SPLINE
  5
1AC
330
1F
100
AcDbEntity
  8
FISHER_PAYKEL
 62
   250
420
  1316376
370
     9
100
AcDbSpline
210
0.0
220
0.0
230
1.0
 70
     8
 71
     3
 72
     8
 73
     4
 74
     0
 42
0.000000001
 43
0.0000000001
 40
3.024000000000001
 40
3.024000000000001
 40
3.024000000000001
 40
3.024000000000001
 40
4.024000000000001
 40
4.024000000000001
 40
4.024000000000001
 40
4.024000000000001
 10
737.4047114164509
 20
228.2446574882623
 30
0.0
 10
740.5056777696473
 20
228.2446574882623
 30
0.0
 10
742.428347465315
 20
231.4373475333626
 30
0.0
 10
742.428347465315
 20
234.866402476829
 30
0.0
  0
LINE
  5
1AD
330
1F
100
AcDbEntity
  8
FISHER_PAYKEL
 62
   250
420
  1316376
370
     9
100
AcDbLine
 10
316.5301983341598
 20
234.866402476829
 30
0.0
 11
316.5301983341598
 21
234.9087364884766
 31
0.0
  0
SPLINE
  5
1AE
330
1F
100
AcDbEntity
  8
FISHER_PAYKEL
 62
   250
420
  1316376
370
     9
100
AcDbSpline
210
0.0
220
0.0
230
1.0
 70
     8
 71
     3
 72
     8
 73
     4
 74
     0
 42
0.000000001
 43
0.0000000001
 40
2.012
 40
2.012
 40
2.012
 40
2.012
 40
3.012
 40
3.012
 40
3.012
 40
3.012
 10
316.5301983341598
 20
234.9087364884766
 30
0.0
 10
316.5301983341598
 20
238.9904407781788
 30
0.0
 10
318.9467648323845
 20
242.5676647624126
 30
0.0
 10
322.7532980463766
 20
242.5676647624126
 30
0.0
  0
SPLINE
  5
1AF
330
1F
100
AcDbEntity
  8
FISHER_PAYKEL
 62
   250
420
  1316376
370
     9
100
AcDbSpline
210
0.0
220
0.0
230
1.0
 70
     8
 71
     3
 72
     8
 73
     4
 74
     0
 42
0.000000001
 43
0.0000000001
 40
3.012
 40
3.012
 40
3.012
 40
3.012
 40
4.012
 40
4.012
 40
4.012
 40
4.012
 10
322.7532980463766
 20
242.5676647624126
 30
0.0
 10
326.556303426065
 20
242.5676647624126
 30
0.0
 10
328.927008078338
 20
239.0363026241308
 30
0.0
 10
328.927008078338
 20
234.9510705001243
 30
0.0
  0
LINE
  5
1B0
330
1F
100
AcDbEntity
  8
FISHER_PAYKEL
 62
   250
420
  1316376
370
     9
100
AcDbLine
 10
328.927008078338
 20
234.9510705001243
 30
0.0
 11
328.927008078338
 21
234.9087364884766
 31
0.0
  0
SPLINE
  5
1B1
330
1F
100
AcDbEntity
  8
FISHER_PAYKEL
 62
   250
420
  1316376
370
     9
100
AcDbSpline
210
0.0
220
0.0
230
1.0
 70
     8
 71
     3
 72
     8
 73
     4
 74
     0
 42
0.000000001
 43
0.0000000001
 40
4.024000000000001
 40
4.024000000000001
 40
4.024000000000001
 40
4.024000000000001
 40
5.024000000000001
 40
5.024000000000001
 40
5.024000000000001
 40
5.024000000000001
 10
328.927008078338
 20
234.9087364884766
 30
0.0
 10
328.927008078338
 20
230.8235043644703
 30
0.0
 10
326.5139694144171
 20
227.2498082145406
 30
0.0
 10
322.707436200425
 20
227.2498082145406
 30
0.0
  0
SPLINE
  5
1B2
330
1F
100
AcDbEntity
  8
FISHER_PAYKEL
 62
   250
420
  1316376
370
     9
100
AcDbSpline
210
0.0
220
0.0
230
1.0
 70
     8
 71
     3
 72
     8
 73
     4
 74
     0
 42
0.000000001
 43
0.0000000001
 40
5.024000000000001
 40
5.024000000000001
 40
5.024000000000001
 40
5.024000000000001
 40
6.024000000000001
 40
6.024000000000001
 40
6.024000000000001
 40
6.024000000000001
 10
322.707436200425
 20
227.2498082145406
 30
0.0
 10
318.9044308207369
 20
227.2498082145406
 30
0.0
 10
316.5301983341598
 20
230.7846981871265
 30
0.0
 10
316.5301983341598
 20
234.866402476829
 30
0.0
  0
LINE
  5
1B3
330
1F
100
AcDbEntity
  8
FISHER_PAYKEL
 62
   250
420
  1316376
370
     9
100
AcDbLine
 10
327.7734062609373
 20
234.866402476829
 30
0.0
 11
327.7734062609373
 21
234.9087364884766
 31
0.0
  0
SPLINE
  5
1B4
330
1F
100
AcDbEntity
  8
FISHER_PAYKEL
 62
   250
420
  1316376
370
     9
100
AcDbSpline
210
0.0
220
0.0
230
1.0
 70
     8
 71
     3
 72
     8
 73
     4
 74
     0
 42
0.000000001
 43
0.0000000001
 40
0.0120000000000005
 40
0.0120000000000005
 40
0.0120000000000005
 40
0.0120000000000005
 40
1.012
 40
1.012
 40
1.012
 40
1.012
 10
327.7734062609373
 20
234.9087364884766
 30
0.0
 10
327.7734062609373
 20
238.3554306034631
 30
0.0
 10
325.8084025536216
 20
241.5728154886909
 30
0.0
 10
322.707436200425
 20
241.5728154886909
 30
0.0
  0
SPLINE
  5
1B5
330
1F
100
AcDbEntity
  8
FISHER_PAYKEL
 62
   250
420
  1316376
370
     9
100
AcDbSpline
210
0.0
220
0.0
230
1.0
 70
     8
 71
     3
 72
     8
 73
     4
 74
     0
 42
0.000000001
 43
0.0000000001
 40
1.012
 40
1.012
 40
1.012
 40
1.012
 40
2.012
 40
2.012
 40
2.012
 40
2.012
 10
322.707436200425
 20
241.5728154886909
 30
0.0
 10
319.6135255158366
 20
241.5728154886909
 30
0.0
 10
317.6873279858646
 20
238.3977646151108
 30
0.0
 10
317.6873279858646
 20
234.9510705001243
 30
0.0
  0
LINE
  5
1B6
330
1F
100
AcDbEntity
  8
FISHER_PAYKEL
 62
   250
420
  1316376
370
     9
100
AcDbLine
 10
317.6873279858646
 20
234.9510705001243
 30
0.0
 11
317.6873279858646
 21
234.9087364884766
 31
0.0
  0
SPLINE
  5
1B7
330
1F
100
AcDbEntity
  8
FISHER_PAYKEL
 62
   250
420
  1316376
370
     9
100
AcDbSpline
210
0.0
220
0.0
230
1.0
 70
     8
 71
     3
 72
     8
 73
     4
 74
     0
 42
0.000000001
 43
0.0000000001
 40
2.024000000000001
 40
2.024000000000001
 40
2.024000000000001
 40
2.024000000000001
 40
3.024000000000001
 40
3.024000000000001
 40
3.024000000000001
 40
3.024000000000001
 10
317.6873279858646
 20
234.9087364884766
 30
0.0
 10
317.6873279858646
 20
231.4832093793142
 30
0.0
 10
319.6523316931803
 20
228.2446574882623
 30
0.0
 10
322.7532980463766
 20
228.2446574882623
 30
0.0
  0
SPLINE
  5
1B8
330
1F
100
AcDbEntity
  8
FISHER_PAYKEL
 62
   250
420
  1316376
370
     9
100
AcDbSpline
210
0.0
220
0.0
230
1.0
 70
     8
 71
     3
 72
     8
 73
     4
 74
     0
 42
0.000000001
 43
0.0000000001
 40
3.024000000000001
 40
3.024000000000001
 40
3.024000000000001
 40
3.024000000000001
 40
4.024000000000001
 40
4.024000000000001
 40
4.024000000000001
 40
4.024000000000001
 10
322.7532980463766
 20
228.2446574882623
 30
0.0
 10
325.8507365652693
 20
228.2446574882623
 30
0.0
 10
327.7734062609373
 20
231.4373475333626
 30
0.0
 10
327.7734062609373
 20
234.866402476829
 30
0.0
  0
POLYLINE
  5
1B9
330
1F
100
AcDbEntity
  8
FISHER_PAYKEL
 62
   250
420
  1316376
370
     9
100
AcDb2dPolyline
 66
     1
 10
0.0
 20
0.0
 30
0.0
 70
     1
  0
VERTEX
  5
1BA
330
1B9
100
AcDbEntity
  8
FISHER_PAYKEL
 62
   250
420
  1316376
370
     9
100
AcDbVertex
100
AcDb2dVertex
 10
737.7328000067207
 20
193.0598020575395
 30
0.0
  0
VERTEX
  5
1BB
330
1B9
100
AcDbEntity
  8
FISHER_PAYKEL
 62
   250
420
  1316376
370
     9
100
AcDbVertex
100
AcDb2dVertex
 10
738.7805667950022
 20
193.0598020575395
 30
0.0
  0
VERTEX
  5
1BC
330
1B9
100
AcDbEntity
  8
FISHER_PAYKEL
 62
   250
420
  1316376
370
     9
100
AcDbVertex
100
AcDb2dVertex
 10
744.7849407803726
 20
184.3001894807625
 30
0.0
  0
VERTEX
  5
1BD
330
1B9
100
AcDbEntity
  8
FISHER_PAYKEL
 62
   250
420
  1316376
370
     9
100
AcDbVertex
100
AcDb2dVertex
 10
750.789314765743
 20
193.0598020575395
 30
0.0
  0
VERTEX
  5
1BE
330
1B9
100
AcDbEntity
  8
FISHER_PAYKEL
 62
   250
420
  1316376
370
     9
100
AcDbVertex
100
AcDb2dVertex
 10
751.8370815540243
 20
193.0598020575395
 30
0.0
  0
VERTEX
  5
1BF
330
1B9
100
AcDbEntity
  8
FISHER_PAYKEL
 62
   250
420
  1316376
370
     9
100
AcDbVertex
100
AcDb2dVertex
 10
751.8370815540243
 20
178.2499536494405
 30
0.0
  0
VERTEX
  5
1C0
330
1B9
100
AcDbEntity
  8
FISHER_PAYKEL
 62
   250
420
  1316376
370
     9
100
AcDbVertex
100
AcDb2dVertex
 10
750.7293415825752
 20
178.2499536494405
 30
0.0
  0
VERTEX
  5
1C1
330
1B9
100
AcDbEntity
  8
FISHER_PAYKEL
 62
   250
420
  1316376
370
     9
100
AcDbVertex
100
AcDb2dVertex
 10
750.7293415825752
 20
191.1124375217438
 30
0.0
  0
VERTEX
  5
1C2
330
1B9
100
AcDbEntity
  8
FISHER_PAYKEL
 62
   250
420
  1316376
370
     9
100
AcDbVertex
100
AcDb2dVertex
 10
744.8096356205003
 20
182.5856620090293
 30
0.0
  0
VERTEX
  5
1C3
330
1B9
100
AcDbEntity
  8
FISHER_PAYKEL
 62
   250
420
  1316376
370
     9
100
AcDbVertex
100
AcDb2dVertex
 10
744.7214397629009
 20
182.5856620090293
 30
0.0
  0
VERTEX
  5
1C4
330
1B9
100
AcDbEntity
  8
FISHER_PAYKEL
 62
   250
420
  1316376
370
     9
100
AcDbVertex
100
AcDb2dVertex
 10
738.8052616351299
 20
191.1124375217438
 30
0.0
  0
VERTEX
  5
1C5
330
1B9
100
AcDbEntity
  8
FISHER_PAYKEL
 62
   250
420
  1316376
370
     9
100
AcDbVertex
100
AcDb2dVertex
 10
738.8052616351299
 20
178.2499536494405
 30
0.0
  0
VERTEX
  5
1C6
330
1B9
100
AcDbEntity
  8
FISHER_PAYKEL
 62
   250
420
  1316376
370
     9
100
AcDbVertex
100
AcDb2dVertex
 10
737.7328000067207
 20
178.2499536494405
 30
0.0
  0
SEQEND
  5
1C7
330
1B9
100
AcDbEntity
  8
FISHER_PAYKEL
 62
   250
420
  1316376
370
     9
  0
POLYLINE
  5
1C8
330
1F
100
AcDbEntity
  8
FISHER_PAYKEL
 62
   250
420
  1316376
370
     9
100
AcDb2dPolyline
 66
     1
 10
0.0
 20
0.0
 30
0.0
 70
     1
  0
VERTEX
  5
1C9
330
1C8
100
AcDbEntity
  8
FISHER_PAYKEL
 62
   250
420
  1316376
370
     9
100
AcDbVertex
100
AcDb2dVertex
 10
756.0295598408713
 20
193.2682970649045
 30
0.0
  0
VERTEX
  5
1CA
330
1C8
100
AcDbEntity
  8
FISHER_PAYKEL
 62
   250
420
  1316376
370
     9
100
AcDbVertex
100
AcDb2dVertex
 10
757.3348585333433
 20
193.2682970649045
 30
0.0
  0
VERTEX
  5
1CB
330
1C8
100
AcDbEntity
  8
FISHER_PAYKEL
 62
   250
420
  1316376
370
     9
100
AcDbVertex
100
AcDb2dVertex
 10
757.3348585333433
 20
191.8536355090092
 30
0.0
  0
VERTEX
  5
1CC
330
1C8
100
AcDbEntity
  8
FISHER_PAYKEL
 62
   250
420
  1316376
370
     9
100
AcDbVertex
100
AcDb2dVertex
 10
756.0295598408713
 20
191.8536355090092
 30
0.0
  0
SEQEND
  5
1CD
330
1C8
100
AcDbEntity
  8
FISHER_PAYKEL
 62
   250
420
  1316376
370
     9
  0
POLYLINE
  5
1CE
330
1F
100
AcDbEntity
  8
FISHER_PAYKEL
 62
   250
420
  1316376
370
     9
100
AcDb2dPolyline
 66
     1
 10
0.0
 20
0.0
 30
0.0
 70
     1
  0
VERTEX
  5
1CF
330
1CE
100
AcDbEntity
  8
FISHER_PAYKEL
 62
   250
420
  1316376
370
     9
100
AcDbVertex
100
AcDb2dVertex
 10
756.1600897101187
 20
189.0384237344352
 30
0.0
  0
VERTEX
  5
1D0
330
1CE
100
AcDbEntity
  8
FISHER_PAYKEL
 62
   250
420
  1316376
370
     9
100
AcDbVertex
100
AcDb2dVertex
 10
757.2078564984001
 20
189.0384237344352
 30
0.0
  0
VERTEX
  5
1D1
330
1CE
100
AcDbEntity
  8
FISHER_PAYKEL
 62
   250
420
  1316376
370
     9
100
AcDbVertex
100
AcDb2dVertex
 10
757.2078564984001
 20
178.2467785985667
 30
0.0
  0
VERTEX
  5
1D2
330
1CE
100
AcDbEntity
  8
FISHER_PAYKEL
 62
   250
420
  1316376
370
     9
100
AcDbVertex
100
AcDb2dVertex
 10
756.1600897101187
 20
178.2467785985667
 30
0.0
  0
SEQEND
  5
1D3
330
1CE
100
AcDbEntity
  8
FISHER_PAYKEL
 62
   250
420
  1316376
370
     9
  0
POLYLINE
  5
1D4
330
1F
100
AcDbEntity
  8
FISHER_PAYKEL
 62
   250
420
  1316376
370
     9
100
AcDb2dPolyline
 66
     1
 10
0.0
 20
0.0
 30
0.0
 70
     1
  0
VERTEX
  5
1D5
330
1D4
100
AcDbEntity
  8
FISHER_PAYKEL
 62
   250
420
  1316376
370
     9
100
AcDbVertex
100
AcDb2dVertex
 10
761.4518411660854
 20
193.695165015686
 30
0.0
  0
VERTEX
  5
1D6
330
1D4
100
AcDbEntity
  8
FISHER_PAYKEL
 62
   250
420
  1316376
370
     9
100
AcDbVertex
100
AcDb2dVertex
 10
762.4996079543669
 20
193.695165015686
 30
0.0
  0
VERTEX
  5
1D7
330
1D4
100
AcDbEntity
  8
FISHER_PAYKEL
 62
   250
420
  1316376
370
     9
100
AcDbVertex
100
AcDb2dVertex
 10
762.4996079543669
 20
178.2503064328711
 30
0.0
  0
VERTEX
  5
1D8
330
1D4
100
AcDbEntity
  8
FISHER_PAYKEL
 62
   250
420
  1316376
370
     9
100
AcDbVertex
100
AcDb2dVertex
 10
761.4518411660854
 20
178.2503064328711
 30
0.0
  0
SEQEND
  5
1D9
330
1D4
100
AcDbEntity
  8
FISHER_PAYKEL
 62
   250
420
  1316376
370
     9
  0
POLYLINE
  5
1DA
330
1F
100
AcDbEntity
  8
FISHER_PAYKEL
 62
   250
420
  1316376
370
     9
100
AcDb2dPolyline
 66
     1
 10
0.0
 20
0.0
 30
0.0
 70
     1
  0
VERTEX
  5
1DB
330
1DA
100
AcDbEntity
  8
FISHER_PAYKEL
 62
   250
420
  1316376
370
     9
100
AcDbVertex
100
AcDb2dVertex
 10
766.747120456356
 20
193.695165015686
 30
0.0
  0
VERTEX
  5
1DC
330
1DA
100
AcDbEntity
  8
FISHER_PAYKEL
 62
   250
420
  1316376
370
     9
100
AcDbVertex
100
AcDb2dVertex
 10
767.7948872446377
 20
193.695165015686
 30
0.0
  0
VERTEX
  5
1DD
330
1DA
100
AcDbEntity
  8
FISHER_PAYKEL
 62
   250
420
  1316376
370
     9
100
AcDbVertex
100
AcDb2dVertex
 10
767.7948872446377
 20
178.2503064328711
 30
0.0
  0
VERTEX
  5
1DE
330
1DA
100
AcDbEntity
  8
FISHER_PAYKEL
 62
   250
420
  1316376
370
     9
100
AcDbVertex
100
AcDb2dVertex
 10
766.747120456356
 20
178.2503064328711
 30
0.0
  0
SEQEND
  5
1DF
330
1DA
100
AcDbEntity
  8
FISHER_PAYKEL
 62
   250
420
  1316376
370
     9
  0
POLYLINE
  5
1E0
330
1F
100
AcDbEntity
  8
FISHER_PAYKEL
 62
   250
420
  1316376
370
     9
100
AcDb2dPolyline
 66
     1
 10
0.0
 20
0.0
 30
0.0
 70
     1
  0
VERTEX
  5
1E1
330
1E0
100
AcDbEntity
  8
FISHER_PAYKEL
 62
   250
420
  1316376
370
     9
100
AcDbVertex
100
AcDb2dVertex
 10
771.9153977116837
 20
193.2682970649045
 30
0.0
  0
VERTEX
  5
1E2
330
1E0
100
AcDbEntity
  8
FISHER_PAYKEL
 62
   250
420
  1316376
370
     9
100
AcDbVertex
100
AcDb2dVertex
 10
773.2171685698515
 20
193.2682970649045
 30
0.0
  0
VERTEX
  5
1E3
330
1E0
100
AcDbEntity
  8
FISHER_PAYKEL
 62
   250
420
  1316376
370
     9
100
AcDbVertex
100
AcDb2dVertex
 10
773.2171685698515
 20
191.8536355090092
 30
0.0
  0
VERTEX
  5
1E4
330
1E0
100
AcDbEntity
  8
FISHER_PAYKEL
 62
   250
420
  1316376
370
     9
100
AcDbVertex
100
AcDb2dVertex
 10
771.9153977116837
 20
191.8536355090092
 30
0.0
  0
SEQEND
  5
1E5
330
1E0
100
AcDbEntity
  8
FISHER_PAYKEL
 62
   250
420
  1316376
370
     9
  0
POLYLINE
  5
1E6
330
1F
100
AcDbEntity
  8
FISHER_PAYKEL
 62
   250
420
  1316376
370
     9
100
AcDb2dPolyline
 66
     1
 10
0.0
 20
0.0
 30
0.0
 70
     1
  0
VERTEX
  5
1E7
330
1E6
100
AcDbEntity
  8
FISHER_PAYKEL
 62
   250
420
  1316376
370
     9
100
AcDbVertex
100
AcDb2dVertex
 10
772.0423997466269
 20
189.0384237344352
 30
0.0
  0
VERTEX
  5
1E8
330
1E6
100
AcDbEntity
  8
FISHER_PAYKEL
 62
   250
420
  1316376
370
     9
100
AcDbVertex
100
AcDb2dVertex
 10
773.0901665349083
 20
189.0384237344352
 30
0.0
  0
VERTEX
  5
1E9
330
1E6
100
AcDbEntity
  8
FISHER_PAYKEL
 62
   250
420
  1316376
370
     9
100
AcDbVertex
100
AcDb2dVertex
 10
773.0901665349083
 20
178.2467785985667
 30
0.0
  0
VERTEX
  5
1EA
330
1E6
100
AcDbEntity
  8
FISHER_PAYKEL
 62
   250
420
  1316376
370
     9
100
AcDbVertex
100
AcDb2dVertex
 10
772.0423997466269
 20
178.2467785985667
 30
0.0
  0
SEQEND
  5
1EB
330
1E6
100
AcDbEntity
  8
FISHER_PAYKEL
 62
   250
420
  1316376
370
     9
  0
LINE
  5
1EC
330
1F
100
AcDbEntity
  8
FISHER_PAYKEL
 62
   250
420
  1316376
370
     9
100
AcDbLine
 10
777.1866877286873
 20
189.0391293012959
 30
0.0
 11
778.2344545169688
 21
189.0391293012959
 31
0.0
  0
LINE
  5
1ED
330
1F
100
AcDbEntity
  8
FISHER_PAYKEL
 62
   250
420
  1316376
370
     9
100
AcDbLine
 10
778.2344545169688
 20
189.0391293012959
 30
0.0
 11
778.2344545169688
 21
187.112931771324
 31
0.0
  0
SPLINE
  5
1EE
330
1F
100
AcDbEntity
  8
FISHER_PAYKEL
 62
   250
420
  1316376
370
     9
100
AcDbSpline
210
0.0
220
0.0
230
1.0
 70
     8
 71
     3
 72
     8
 73
     4
 74
     0
 42
0.000000001
 43
0.0000000001
 40
0.8430000000000177
 40
0.8430000000000177
 40
0.8430000000000177
 40
0.8430000000000177
 40
1.843000000000018
 40
1.843000000000018
 40
1.843000000000018
 40
1.843000000000018
 10
778.2344545169688
 20
187.112931771324
 30
0.0
 10
778.9400213777644
 20
188.2312552456852
 30
0.0
 10
779.9207593142698
 20
189.2931333711823
 30
0.0
 10
781.8681238500658
 20
189.2931333711823
 30
0.0
  0
SPLINE
  5
1EF
330
1F
100
AcDbEntity
  8
FISHER_PAYKEL
 62
   250
420
  1316376
370
     9
100
AcDbSpline
210
0.0
220
0.0
230
1.0
 70
     8
 71
     3
 72
     8
 73
     4
 74
     0
 42
0.000000001
 43
0.0000000001
 40
1.843000000000018
 40
1.843000000000018
 40
1.843000000000018
 40
1.843000000000018
 40
2.843000000000018
 40
2.843000000000018
 40
2.843000000000018
 40
2.843000000000018
 10
781.8681238500658
 20
189.2931333711823
 30
0.0
 10
783.76962653991
 20
189.2931333711823
 30
0.0
 10
784.9443953631346
 20
188.2136160741653
 30
0.0
 10
785.5441271948107
 20
186.9647627305568
 30
0.0
  0
SPLINE
  5
1F0
330
1F
100
AcDbEntity
  8
FISHER_PAYKEL
 62
   250
420
  1316376
370
     9
100
AcDbSpline
210
0.0
220
0.0
230
1.0
 70
     8
 71
     3
 72
     8
 73
     4
 74
     0
 42
0.000000001
 43
0.0000000001
 40
2.843000000000018
 40
2.843000000000018
 40
2.843000000000018
 40
2.843000000000018
 40
3.843000000000018
 40
3.843000000000018
 40
3.843000000000018
 40
3.843000000000018
 10
785.5441271948107
 20
186.9647627305568
 30
0.0
 10
786.2461662213022
 20
188.1712820625177
 30
0.0
 10
787.4209350445269
 20
189.2931333711823
 30
0.0
 10
789.474134609442
 20
189.2931333711823
 30
0.0
  0
SPLINE
  5
1F1
330
1F
100
AcDbEntity
  8
FISHER_PAYKEL
 62
   250
420
  1316376
370
     9
100
AcDbSpline
210
0.0
220
0.0
230
1.0
 70
     8
 71
     3
 72
     8
 73
     4
 74
     0
 42
0.000000001
 43
0.0000000001
 40
3.843000000000018
 40
3.843000000000018
 40
3.843000000000018
 40
3.843000000000018
 40
4.843000000000018
 40
4.843000000000018
 40
4.843000000000018
 40
4.843000000000018
 10
789.474134609442
 20
189.2931333711823
 30
0.0
 10
792.0635649885617
 20
189.2931333711823
 30
0.0
 10
793.6652017625677
 20
187.4974657104575
 30
0.0
 10
793.6652017625677
 20
184.7880889650027
 30
0.0
  0
LINE
  5
1F2
330
1F
100
AcDbEntity
  8
FISHER_PAYKEL
 62
   250
420
  1316376
370
     9
100
AcDbLine
 10
793.6652017625677
 20
184.7880889650027
 30
0.0
 11
793.6652017625677
 21
178.2474841654276
 31
0.0
  0
LINE
  5
1F3
330
1F
100
AcDbEntity
  8
FISHER_PAYKEL
 62
   250
420
  1316376
370
     9
100
AcDbLine
 10
793.6652017625677
 20
178.2474841654276
 30
0.0
 11
792.6174349742864
 21
178.2474841654276
 31
0.0
  0
LINE
  5
1F4
330
1F
100
AcDbEntity
  8
FISHER_PAYKEL
 62
   250
420
  1316376
370
     9
100
AcDbLine
 10
792.6174349742864
 20
178.2474841654276
 30
0.0
 11
792.6174349742864
 21
184.6610869300595
 31
0.0
  0
SPLINE
  5
1F5
330
1F
100
AcDbEntity
  8
FISHER_PAYKEL
 62
   250
420
  1316376
370
     9
100
AcDbSpline
210
0.0
220
0.0
230
1.0
 70
     8
 71
     3
 72
     8
 73
     4
 74
     0
 42
0.000000001
 43
0.0000000001
 40
8.812000000000069
 40
8.812000000000069
 40
8.812000000000069
 40
8.812000000000069
 40
9.812000000000069
 40
9.812000000000069
 40
9.812000000000069
 40
9.812000000000069
 10
792.6174349742864
 20
184.6610869300595
 30
0.0
 10
792.6174349742864
 20
186.9859297363809
 30
0.0
 10
791.39680430511
 20
188.3406181091085
 30
0.0
 10
789.3894665861467
 20
188.3406181091085
 30
0.0
  0
SPLINE
  5
1F6
330
1F
100
AcDbEntity
  8
FISHER_PAYKEL
 62
   250
420
  1316376
370
     9
100
AcDbSpline
210
0.0
220
0.0
230
1.0
 70
     8
 71
     3
 72
     8
 73
     4
 74
     0
 42
0.000000001
 43
0.0000000001
 40
9.812000000000069
 40
9.812000000000069
 40
9.812000000000069
 40
9.812000000000069
 40
10.81200000000007
 40
10.81200000000007
 40
10.81200000000007
 40
10.81200000000007
 10
789.3894665861467
 20
188.3406181091085
 30
0.0
 10
787.5514649137742
 20
188.3406181091085
 30
0.0
 10
785.9463003054643
 20
186.9435957247332
 30
0.0
 10
785.9463003054643
 20
184.5340848951163
 30
0.0
  0
LINE
  5
1F7
330
1F
100
AcDbEntity
  8
FISHER_PAYKEL
 62
   250
420
  1316376
370
     9
100
AcDbLine
 10
785.9463003054643
 20
184.5340848951163
 30
0.0
 11
785.9463003054643
 21
178.2474841654276
 31
0.0
  0
LINE
  5
1F8
330
1F
100
AcDbEntity
  8
FISHER_PAYKEL
 62
   250
420
  1316376
370
     9
100
AcDbLine
 10
785.9463003054643
 20
178.2474841654276
 30
0.0
 11
784.9020613514867
 21
178.2474841654276
 31
0.0
  0
LINE
  5
1F9
330
1F
100
AcDbEntity
  8
FISHER_PAYKEL
 62
   250
420
  1316376
370
     9
100
AcDbLine
 10
784.9020613514867
 20
178.2474841654276
 30
0.0
 11
784.9020613514867
 21
184.7210601132271
 31
0.0
  0
SPLINE
  5
1FA
330
1F
100
AcDbEntity
  8
FISHER_PAYKEL
 62
   250
420
  1316376
370
     9
100
AcDbSpline
210
0.0
220
0.0
230
1.0
 70
     8
 71
     3
 72
     8
 73
     4
 74
     0
 42
0.000000001
 43
0.0000000001
 40
14.72500000000014
 40
14.72500000000014
 40
14.72500000000014
 40
14.72500000000014
 40
15.72500000000014
 40
15.72500000000014
 40
15.72500000000014
 40
15.72500000000014
 10
784.9020613514867
 20
184.7210601132271
 30
0.0
 10
784.9020613514867
 20
186.9647627305568
 30
0.0
 10
783.6637915107906
 20
188.3406181091085
 30
0.0
 10
781.7164269749946
 20
188.3406181091085
 30
0.0
  0
SPLINE
  5
1FB
330
1F
100
AcDbEntity
  8
FISHER_PAYKEL
 62
   250
420
  1316376
370
     9
100
AcDbSpline
210
0.0
220
0.0
230
1.0
 70
     8
 71
     3
 72
     8
 73
     4
 74
     0
 42
0.000000001
 43
0.0000000001
 40
15.72500000000014
 40
15.72500000000014
 40
15.72500000000014
 40
15.72500000000014
 40
16.72500000000014
 40
16.72500000000014
 40
16.72500000000014
 40
16.72500000000014
 10
781.7164269749946
 20
188.3406181091085
 30
0.0
 10
779.772590273503
 20
188.3406181091085
 30
0.0
 10
778.2344545169688
 20
186.6472576431989
 30
0.0
 10
778.2344545169688
 20
184.4705838776446
 30
0.0
  0
LINE
  5
1FC
330
1F
100
AcDbEntity
  8
FISHER_PAYKEL
 62
   250
420
  1316376
370
     9
100
AcDbLine
 10
778.2344545169688
 20
184.4705838776446
 30
0.0
 11
778.2344545169688
 21
178.2474841654276
 31
0.0
  0
LINE
  5
1FD
330
1F
100
AcDbEntity
  8
FISHER_PAYKEL
 62
   250
420
  1316376
370
     9
100
AcDbLine
 10
778.2344545169688
 20
178.2474841654276
 30
0.0
 11
777.1866877286873
 21
178.2474841654276
 31
0.0
  0
LINE
  5
1FE
330
1F
100
AcDbEntity
  8
FISHER_PAYKEL
 62
   250
420
  1316376
370
     9
100
AcDbLine
 10
777.1866877286873
 20
178.2474841654276
 30
0.0
 11
777.1866877286873
 21
189.0391293012959
 31
0.0
  0
LINE
  5
1FF
330
1F
100
AcDbEntity
  8
FISHER_PAYKEL
 62
   250
420
  1316376
370
     9
100
AcDbLine
 10
796.722422970395
 20
183.6246092115508
 30
0.0
 11
796.722422970395
 21
183.6634153888946
 31
0.0
  0
SPLINE
  5
200
330
1F
100
AcDbEntity
  8
FISHER_PAYKEL
 62
   250
420
  1316376
370
     9
100
AcDbSpline
210
0.0
220
0.0
230
1.0
 70
     8
 71
     3
 72
     8
 73
     4
 74
     0
 42
0.000000001
 43
0.0000000001
 40
2.010999999999967
 40
2.010999999999967
 40
2.010999999999967
 40
2.010999999999967
 40
3.010999999999967
 40
3.010999999999967
 40
3.010999999999967
 40
3.010999999999967
 10
796.722422970395
 20
183.6634153888946
 30
0.0
 10
796.722422970395
 20
186.7961322508271
 30
0.0
 10
798.9449585819009
 20
189.293838938043
 30
0.0
 10
801.8942280600265
 20
189.293838938043
 30
0.0
  0
SPLINE
  5
201
330
1F
100
AcDbEntity
  8
FISHER_PAYKEL
 62
   250
420
  1316376
370
     9
100
AcDbSpline
210
0.0
220
0.0
230
1.0
 70
     8
 71
     3
 72
     8
 73
     4
 74
     0
 42
0.000000001
 43
0.0000000001
 40
3.010999999999967
 40
3.010999999999967
 40
3.010999999999967
 40
3.010999999999967
 40
4.010999999999967
 40
4.010999999999967
 40
4.010999999999967
 40
4.010999999999967
 10
801.8942280600265
 20
189.293838938043
 30
0.0
 10
804.9528604015754
 20
189.293838938043
 30
0.0
 10
806.8931692687631
 20
186.8384662624748
 30
0.0
 10
806.8931692687631
 20
183.6422483830708
 30
0.0
  0
SPLINE
  5
202
330
1F
100
AcDbEntity
  8
FISHER_PAYKEL
 62
   250
420
  1316376
370
     9
100
AcDbSpline
210
0.0
220
0.0
230
1.0
 70
     8
 71
     3
 72
     8
 73
     4
 74
     0
 42
0.000000001
 43
0.0000000001
 40
4.010999999999967
 40
4.010999999999967
 40
4.010999999999967
 40
4.010999999999967
 40
5.010999999999967
 40
5.010999999999967
 40
5.010999999999967
 40
5.010999999999967
 10
806.8931692687631
 20
183.6422483830708
 30
0.0
 10
806.8931692687631
 20
183.45527316496
 30
0.0
 10
806.8931692687631
 20
183.3882443131844
 30
0.0
 10
806.8720022629391
 20
183.2189082665935
 30
0.0
  0
LINE
  5
203
330
1F
100
AcDbEntity
  8
FISHER_PAYKEL
 62
   250
420
  1316376
370
     9
100
AcDbLine
 10
806.8720022629391
 20
183.2189082665935
 30
0.0
 11
797.8336907761479
 21
183.2189082665935
 31
0.0
  0
SPLINE
  5
204
330
1F
100
AcDbEntity
  8
FISHER_PAYKEL
 62
   250
420
  1316376
370
     9
100
AcDbSpline
210
0.0
220
0.0
230
1.0
 70
     8
 71
     3
 72
     8
 73
     4
 74
     0
 42
0.000000001
 43
0.0000000001
 40
7.572999999999979
 40
7.572999999999979
 40
7.572999999999979
 40
7.572999999999979
 40
8.572999999999979
 40
8.572999999999979
 40
8.572999999999979
 40
8.572999999999979
 10
797.8336907761479
 20
183.2189082665935
 30
0.0
 10
798.0277216628667
 20
180.5377541955701
 30
0.0
 10
799.9680305300546
 20
178.9678679303
 30
0.0
 10
802.1094259525689
 20
178.9678679303
 30
0.0
  0
SPLINE
  5
205
330
1F
100
AcDbEntity
  8
FISHER_PAYKEL
 62
   250
420
  1316376
370
     9
100
AcDbSpline
210
0.0
220
0.0
230
1.0
 70
     8
 71
     3
 72
     8
 73
     4
 74
     0
 42
0.000000001
 43
0.0000000001
 40
8.572999999999979
 40
8.572999999999979
 40
8.572999999999979
 40
8.572999999999979
 40
9.572999999999979
 40
9.572999999999979
 40
9.572999999999979
 40
9.572999999999979
 10
802.1094259525689
 20
178.9678679303
 30
0.0
 10
803.7957307498705
 20
178.9678679303
 30
0.0
 10
804.9528604015754
 20
179.7087131341353
 30
0.0
 10
805.8454024804817
 20
180.6612283962094
 30
0.0
  0
LINE
  5
206
330
1F
100
AcDbEntity
  8
FISHER_PAYKEL
 62
   250
420
  1316376
370
     9
100
AcDbLine
 10
805.8454024804817
 20
180.6612283962094
 30
0.0
 11
806.5721363471012
 21
180.0262182214932
 31
0.0
  0
SPLINE
  5
207
330
1F
100
AcDbEntity
  8
FISHER_PAYKEL
 62
   250
420
  1316376
370
     9
100
AcDbSpline
210
0.0
220
0.0
230
1.0
 70
     8
 71
     3
 72
     8
 73
     4
 74
     0
 42
0.000000001
 43
0.0000000001
 40
9.84656169322476
 40
9.84656169322476
 40
9.84656169322476
 40
9.84656169322476
 40
10.84656169322476
 40
10.84656169322476
 40
10.84656169322476
 40
10.84656169322476
 10
806.5721363471012
 20
180.0262182214932
 30
0.0
 10
805.4643963756521
 20
178.8408658953568
 30
0.0
 10
804.1590976831803
 20
177.9941856624022
 30
0.0
 10
802.0635641066174
 20
177.9941856624022
 30
0.0
  0
SPLINE
  5
208
330
1F
100
AcDbEntity
  8
FISHER_PAYKEL
 62
   250
420
  1316376
370
     9
100
AcDbSpline
210
0.0
220
0.0
230
1.0
 70
     8
 71
     3
 72
     8
 73
     4
 74
     0
 42
0.000000001
 43
0.0000000001
 40
10.84656169322476
 40
10.84656169322476
 40
10.84656169322476
 40
10.84656169322476
 40
11.84656169322476
 40
11.84656169322476
 40
11.84656169322476
 40
11.84656169322476
 10
802.0635641066174
 20
177.9941856624022
 30
0.0
 10
799.2024904860916
 20
177.9941856624022
 30
0.0
 10
796.722422970395
 20
180.259055285556
 30
0.0
 10
796.722422970395
 20
183.6246092115508
 30
0.0
  0
SPLINE
  5
209
330
1F
100
AcDbEntity
  8
FISHER_PAYKEL
 62
   250
420
  1316376
370
     9
100
AcDbSpline
210
0.0
220
0.0
230
1.0
 70
     8
 71
     3
 72
     8
 73
     4
 74
     0
 42
0.000000001
 43
0.0000000001
 40
0.0
 40
0.0
 40
0.0
 40
0.0
 40
1.0
 40
1.0
 40
1.0
 40
1.0
 10
805.7607344571861
 20
184.1537843571476
 30
0.0
 10
805.6125654164193
 20
186.330458122702
 30
0.0
 10
804.3531285698991
 20
188.3413236759692
 30
0.0
 10
801.8518940483787
 20
188.3413236759692
 30
0.0
  0
SPLINE
  5
20A
330
1F
100
AcDbEntity
  8
FISHER_PAYKEL
 62
   250
420
  1316376
370
     9
100
AcDbSpline
210
0.0
220
0.0
230
1.0
 70
     8
 71
     3
 72
     8
 73
     4
 74
     0
 42
0.000000001
 43
0.0000000001
 40
1.0
 40
1.0
 40
1.0
 40
1.0
 40
2.0
 40
2.0
 40
2.0
 40
2.0
 10
801.8518940483787
 20
188.3413236759692
 30
0.0
 10
799.6928594543442
 20
188.3413236759692
 30
0.0
 10
798.0277216628667
 20
186.5456560152444
 30
0.0
 10
797.8336907761479
 20
184.1537843571476
 30
0.0
  0
LINE
  5
20B
330
1F
100
AcDbEntity
  8
FISHER_PAYKEL
 62
   250
420
  1316376
370
     9
100
AcDbLine
 10
797.8336907761479
 20
184.1537843571476
 30
0.0
 11
805.7607344571861
 21
184.1537843571476
 31
0.0
  0
LINE
  5
20C
330
1F
100
AcDbEntity
  8
FISHER_PAYKEL
 62
   250
420
  1316376
370
     9
100
AcDbLine
 10
810.494382526264
 20
181.0221258455064
 30
0.0
 11
810.494382526264
 21
188.0883779563738
 31
0.0
  0
LINE
  5
20D
330
1F
100
AcDbEntity
  8
FISHER_PAYKEL
 62
   250
420
  1316376
370
     9
100
AcDbLine
 10
810.494382526264
 20
188.0883779563738
 30
0.0
 11
808.9139127580818
 21
188.0883779563738
 31
0.0
  0
LINE
  5
20E
330
1F
100
AcDbEntity
  8
FISHER_PAYKEL
 62
   250
420
  1316376
370
     9
100
AcDbLine
 10
808.9139127580818
 20
188.0883779563738
 30
0.0
 11
808.9139127580818
 21
189.0373653841442
 31
0.0
  0
LINE
  5
20F
330
1F
100
AcDbEntity
  8
FISHER_PAYKEL
 62
   250
420
  1316376
370
     9
100
AcDbLine
 10
808.9139127580818
 20
189.0373653841442
 30
0.0
 11
810.494382526264
 21
189.0373653841442
 31
0.0
  0
LINE
  5
210
330
1F
100
AcDbEntity
  8
FISHER_PAYKEL
 62
   250
420
  1316376
370
     9
100
AcDbLine
 10
810.494382526264
 20
189.0373653841442
 30
0.0
 11
810.494382526264
 21
192.4875873334344
 31
0.0
  0
LINE
  5
211
330
1F
100
AcDbEntity
  8
FISHER_PAYKEL
 62
   250
420
  1316376
370
     9
100
AcDbLine
 10
810.494382526264
 20
192.4875873334344
 30
0.0
 11
811.5421493145454
 21
192.4875873334344
 31
0.0
  0
LINE
  5
212
330
1F
100
AcDbEntity
  8
FISHER_PAYKEL
 62
   250
420
  1316376
370
     9
100
AcDbLine
 10
811.5421493145454
 20
192.4875873334344
 30
0.0
 11
811.5421493145454
 21
189.0373653841442
 31
0.0
  0
LINE
  5
213
330
1F
100
AcDbEntity
  8
FISHER_PAYKEL
 62
   250
420
  1316376
370
     9
100
AcDbLine
 10
811.5421493145454
 20
189.0373653841442
 30
0.0
 11
815.3663217000571
 21
189.0373653841442
 31
0.0
  0
LINE
  5
214
330
1F
100
AcDbEntity
  8
FISHER_PAYKEL
 62
   250
420
  1316376
370
     9
100
AcDbLine
 10
815.3663217000571
 20
189.0373653841442
 30
0.0
 11
815.3663217000571
 21
188.0883779563738
 31
0.0
  0
LINE
  5
215
330
1F
100
AcDbEntity
  8
FISHER_PAYKEL
 62
   250
420
  1316376
370
     9
100
AcDbLine
 10
815.3663217000571
 20
188.0883779563738
 30
0.0
 11
811.5421493145454
 21
188.0883779563738
 31
0.0
  0
LINE
  5
216
330
1F
100
AcDbEntity
  8
FISHER_PAYKEL
 62
   250
420
  1316376
370
     9
100
AcDbLine
 10
811.5421493145454
 20
188.0883779563738
 30
0.0
 11
811.5421493145454
 21
181.1279608746257
 31
0.0
  0
SPLINE
  5
217
330
1F
100
AcDbEntity
  8
FISHER_PAYKEL
 62
   250
420
  1316376
370
     9
100
AcDbSpline
210
0.0
220
0.0
230
1.0
 70
     8
 71
     3
 72
     8
 73
     4
 74
     0
 42
0.000000001
 43
0.0000000001
 40
9.830999999999904
 40
9.830999999999904
 40
9.830999999999904
 40
9.830999999999904
 40
10.8309999999999
 40
10.8309999999999
 40
10.8309999999999
 40
10.8309999999999
 10
811.5421493145454
 20
181.1279608746257
 30
0.0
 10
811.5421493145454
 20
179.5827694494834
 30
0.0
 10
812.4629140678835
 20
179.0359551323669
 30
0.0
 10
813.7223509144035
 20
179.0359551323669
 30
0.0
  0
SPLINE
  5
218
330
1F
100
AcDbEntity
  8
FISHER_PAYKEL
 62
   250
420
  1316376
370
     9
100
AcDbSpline
210
0.0
220
0.0
230
1.0
 70
     8
 71
     3
 72
     8
 73
     4
 74
     0
 42
0.000000001
 43
0.0000000001
 40
10.8309999999999
 40
10.8309999999999
 40
10.8309999999999
 40
10.8309999999999
 40
11.8309999999999
 40
11.8309999999999
 40
11.8309999999999
 40
11.8309999999999
 10
813.7223509144035
 20
179.0359551323669
 30
0.0
 10
814.255053894304
 20
179.0359551323669
 30
0.0
 10
814.7030888509094
 20
179.1382623271824
 30
0.0
 10
815.3239876884095
 20
179.4134334028926
 30
0.0
  0
LINE
  5
219
330
1F
100
AcDbEntity
  8
FISHER_PAYKEL
 62
   250
420
  1316376
370
     9
100
AcDbLine
 10
815.3239876884095
 20
179.4134334028926
 30
0.0
 11
815.3239876884095
 21
178.4432789692986
 31
0.0
  0
SPLINE
  5
21A
330
1F
100
AcDbEntity
  8
FISHER_PAYKEL
 62
   250
420
  1316376
370
     9
100
AcDbSpline
210
0.0
220
0.0
230
1.0
 70
     8
 71
     3
 72
     8
 73
     4
 74
     0
 42
0.000000001
 43
0.0000000001
 40
12.10599999999988
 40
12.10599999999988
 40
12.10599999999988
 40
12.10599999999988
 40
13.10599999999988
 40
13.10599999999988
 40
13.10599999999988
 40
13.10599999999988
 10
815.3239876884095
 20
178.4432789692986
 30
0.0
 10
814.770117702685
 20
178.1857470651083
 30
0.0
 10
814.237414722784
 20
178.0587450301651
 30
0.0
 10
813.5494870335087
 20
178.0587450301651
 30
0.0
  0
SPLINE
  5
21B
330
1F
100
AcDbEntity
  8
FISHER_PAYKEL
 62
   250
420
  1316376
370
     9
100
AcDbSpline
210
0.0
220
0.0
230
1.0
 70
     8
 71
     3
 72
     8
 73
     4
 74
     0
 42
0.000000001
 43
0.0000000001
 40
13.10599999999988
 40
13.10599999999988
 40
13.10599999999988
 40
13.10599999999988
 40
14.10599999999988
 40
14.10599999999988
 40
14.10599999999988
 40
14.10599999999988
 10
813.5494870335087
 20
178.0587450301651
 30
0.0
 10
811.8631822362072
 20
178.0587450301651
 30
0.0
 10
810.494382526264
 20
178.9689262805915
 30
0.0
 10
810.494382526264
 20
181.0221258455064
 30
0.0
  0
LINE
  5
21C
330
1F
100
AcDbEntity
  8
FISHER_PAYKEL
 62
   250
420
  1316376
370
     9
100
AcDbLine
 10
818.4351847610874
 20
189.0391293012959
 30
0.0
 11
819.4829515493691
 21
189.0391293012959
 31
0.0
  0
LINE
  5
21D
330
1F
100
AcDbEntity
  8
FISHER_PAYKEL
 62
   250
420
  1316376
370
     9
100
AcDbLine
 10
819.4829515493691
 20
189.0391293012959
 30
0.0
 11
819.4829515493691
 21
185.973441291139
 31
0.0
  0
SPLINE
  5
21E
330
1F
100
AcDbEntity
  8
FISHER_PAYKEL
 62
   250
420
  1316376
370
     9
100
AcDbSpline
210
0.0
220
0.0
230
1.0
 70
     8
 71
     3
 72
     8
 73
     4
 74
     0
 42
0.000000001
 43
0.0000000001
 40
1.166000000000054
 40
1.166000000000054
 40
1.166000000000054
 40
1.166000000000054
 40
2.166000000000054
 40
2.166000000000054
 40
2.166000000000054
 40
2.166000000000054
 10
819.4829515493691
 20
185.973441291139
 30
0.0
 10
820.3366874509315
 20
187.8961109868072
 30
0.0
 10
822.1535221174802
 20
189.2931333711823
 30
0.0
 10
824.3125567115146
 20
189.208465347887
 30
0.0
  0
LINE
  5
21F
330
1F
100
AcDbEntity
  8
FISHER_PAYKEL
 62
   250
420
  1316376
370
     9
100
AcDbLine
 10
824.3125567115146
 20
189.208465347887
 30
0.0
 11
824.3125567115146
 21
188.068974867702
 31
0.0
  0
LINE
  5
220
330
1F
100
AcDbEntity
  8
FISHER_PAYKEL
 62
   250
420
  1316376
370
     9
100
AcDbLine
 10
824.3125567115146
 20
188.068974867702
 30
0.0
 11
824.2067216823953
 21
188.068974867702
 31
0.0
  0
SPLINE
  5
221
330
1F
100
AcDbEntity
  8
FISHER_PAYKEL
 62
   250
420
  1316376
370
     9
100
AcDbSpline
210
0.0
220
0.0
230
1.0
 70
     8
 71
     3
 72
     8
 73
     4
 74
     0
 42
0.000000001
 43
0.0000000001
 40
2.519000000000005
 40
2.519000000000005
 40
2.519000000000005
 40
2.519000000000005
 40
3.519000000000005
 40
3.519000000000005
 40
3.519000000000005
 40
3.519000000000005
 10
824.2067216823953
 20
188.068974867702
 30
0.0
 10
821.6843201550512
 20
188.068974867702
 30
0.0
 10
819.4829515493691
 20
186.1815835150741
 30
0.0
 10
819.4829515493691
 20
182.6713883826159
 30
0.0
  0
LINE
  5
222
330
1F
100
AcDbEntity
  8
FISHER_PAYKEL
 62
   250
420
  1316376
370
     9
100
AcDbLine
 10
819.4829515493691
 20
182.6713883826159
 30
0.0
 11
819.4829515493691
 21
178.2474841654276
 31
0.0
  0
LINE
  5
223
330
1F
100
AcDbEntity
  8
FISHER_PAYKEL
 62
   250
420
  1316376
370
     9
100
AcDbLine
 10
819.4829515493691
 20
178.2474841654276
 30
0.0
 11
818.4351847610874
 21
178.2474841654276
 31
0.0
  0
LINE
  5
224
330
1F
100
AcDbEntity
  8
FISHER_PAYKEL
 62
   250
420
  1316376
370
     9
100
AcDbLine
 10
818.4351847610874
 20
178.2474841654276
 30
0.0
 11
818.4351847610874
 21
189.0391293012959
 31
0.0
  0
LINE
  5
225
330
1F
100
AcDbEntity
  8
FISHER_PAYKEL
 62
   250
420
  1316376
370
     9
100
AcDbLine
 10
826.2059453824595
 20
183.6246092115508
 30
0.0
 11
826.2059453824595
 21
183.6634153888946
 31
0.0
  0
SPLINE
  5
226
330
1F
100
AcDbEntity
  8
FISHER_PAYKEL
 62
   250
420
  1316376
370
     9
100
AcDbSpline
210
0.0
220
0.0
230
1.0
 70
     8
 71
     3
 72
     8
 73
     4
 74
     0
 42
0.000000001
 43
0.0000000001
 40
2.010999999999967
 40
2.010999999999967
 40
2.010999999999967
 40
2.010999999999967
 40
3.010999999999967
 40
3.010999999999967
 40
3.010999999999967
 40
3.010999999999967
 10
826.2059453824595
 20
183.6634153888946
 30
0.0
 10
826.2059453824595
 20
186.7961322508271
 30
0.0
 10
828.4284809939656
 20
189.293838938043
 30
0.0
 10
831.3777504720911
 20
189.293838938043
 30
0.0
  0
SPLINE
  5
227
330
1F
100
AcDbEntity
  8
FISHER_PAYKEL
 62
   250
420
  1316376
370
     9
100
AcDbSpline
210
0.0
220
0.0
230
1.0
 70
     8
 71
     3
 72
     8
 73
     4
 74
     0
 42
0.000000001
 43
0.0000000001
 40
3.010999999999967
 40
3.010999999999967
 40
3.010999999999967
 40
3.010999999999967
 40
4.010999999999967
 40
4.010999999999967
 40
4.010999999999967
 40
4.010999999999967
 10
831.3777504720911
 20
189.293838938043
 30
0.0
 10
834.43638281364
 20
189.293838938043
 30
0.0
 10
836.3766916808279
 20
186.8384662624748
 30
0.0
 10
836.3766916808279
 20
183.6422483830708
 30
0.0
  0
SPLINE
  5
228
330
1F
100
AcDbEntity
  8
FISHER_PAYKEL
 62
   250
420
  1316376
370
     9
100
AcDbSpline
210
0.0
220
0.0
230
1.0
 70
     8
 71
     3
 72
     8
 73
     4
 74
     0
 42
0.000000001
 43
0.0000000001
 40
4.010999999999967
 40
4.010999999999967
 40
4.010999999999967
 40
4.010999999999967
 40
5.010999999999967
 40
5.010999999999967
 40
5.010999999999967
 40
5.010999999999967
 10
836.3766916808279
 20
183.6422483830708
 30
0.0
 10
836.3766916808279
 20
183.45527316496
 30
0.0
 10
836.3766916808279
 20
183.3882443131844
 30
0.0
 10
836.3555246750036
 20
183.2189082665935
 30
0.0
  0
LINE
  5
229
330
1F
100
AcDbEntity
  8
FISHER_PAYKEL
 62
   250
420
  1316376
370
     9
100
AcDbLine
 10
836.3555246750036
 20
183.2189082665935
 30
0.0
 11
827.3172131882127
 21
183.2189082665935
 31
0.0
  0
SPLINE
  5
22A
330
1F
100
AcDbEntity
  8
FISHER_PAYKEL
 62
   250
420
  1316376
370
     9
100
AcDbSpline
210
0.0
220
0.0
230
1.0
 70
     8
 71
     3
 72
     8
 73
     4
 74
     0
 42
0.000000001
 43
0.0000000001
 40
7.572999999999979
 40
7.572999999999979
 40
7.572999999999979
 40
7.572999999999979
 40
8.572999999999979
 40
8.572999999999979
 40
8.572999999999979
 40
8.572999999999979
 10
827.3172131882127
 20
183.2189082665935
 30
0.0
 10
827.5112440749313
 20
180.5377541955701
 30
0.0
 10
829.4515529421194
 20
178.9678679303
 30
0.0
 10
831.5929483646337
 20
178.9678679303
 30
0.0
  0
SPLINE
  5
22B
330
1F
100
AcDbEntity
  8
FISHER_PAYKEL
 62
   250
420
  1316376
370
     9
100
AcDbSpline
210
0.0
220
0.0
230
1.0
 70
     8
 71
     3
 72
     8
 73
     4
 74
     0
 42
0.000000001
 43
0.0000000001
 40
8.572999999999979
 40
8.572999999999979
 40
8.572999999999979
 40
8.572999999999979
 40
9.572999999999979
 40
9.572999999999979
 40
9.572999999999979
 40
9.572999999999979
 10
831.5929483646337
 20
178.9678679303
 30
0.0
 10
833.279253161935
 20
178.9678679303
 30
0.0
 10
834.43638281364
 20
179.7087131341353
 30
0.0
 10
835.3289248925462
 20
180.6612283962094
 30
0.0
  0
LINE
  5
22C
330
1F
100
AcDbEntity
  8
FISHER_PAYKEL
 62
   250
420
  1316376
370
     9
100
AcDbLine
 10
835.3289248925462
 20
180.6612283962094
 30
0.0
 11
836.0556587591657
 21
180.0262182214932
 31
0.0
  0
SPLINE
  5
22D
330
1F
100
AcDbEntity
  8
FISHER_PAYKEL
 62
   250
420
  1316376
370
     9
100
AcDbSpline
210
0.0
220
0.0
230
1.0
 70
     8
 71
     3
 72
     8
 73
     4
 74
     0
 42
0.000000001
 43
0.0000000001
 40
9.84656169322476
 40
9.84656169322476
 40
9.84656169322476
 40
9.84656169322476
 40
10.84656169322476
 40
10.84656169322476
 40
10.84656169322476
 40
10.84656169322476
 10
836.0556587591657
 20
180.0262182214932
 30
0.0
 10
834.9479187877168
 20
178.8408658953568
 30
0.0
 10
833.6426200952449
 20
177.9941856624022
 30
0.0
 10
831.5470865186819
 20
177.9941856624022
 30
0.0
  0
SPLINE
  5
22E
330
1F
100
AcDbEntity
  8
FISHER_PAYKEL
 62
   250
420
  1316376
370
     9
100
AcDbSpline
210
0.0
220
0.0
230
1.0
 70
     8
 71
     3
 72
     8
 73
     4
 74
     0
 42
0.000000001
 43
0.0000000001
 40
10.84656169322476
 40
10.84656169322476
 40
10.84656169322476
 40
10.84656169322476
 40
11.84656169322476
 40
11.84656169322476
 40
11.84656169322476
 40
11.84656169322476
 10
831.5470865186819
 20
177.9941856624022
 30
0.0
 10
828.6860128981562
 20
177.9941856624022
 30
0.0
 10
826.2059453824595
 20
180.259055285556
 30
0.0
 10
826.2059453824595
 20
183.6246092115508
 30
0.0
  0
SPLINE
  5
22F
330
1F
100
AcDbEntity
  8
FISHER_PAYKEL
 62
   250
420
  1316376
370
     9
100
AcDbSpline
210
0.0
220
0.0
230
1.0
 70
     8
 71
     3
 72
     8
 73
     4
 74
     0
 42
0.000000001
 43
0.0000000001
 40
0.0
 40
0.0
 40
0.0
 40
0.0
 40
1.0
 40
1.0
 40
1.0
 40
1.0
 10
835.2442568692509
 20
184.1537843571476
 30
0.0
 10
835.0960878284839
 20
186.330458122702
 30
0.0
 10
833.8366509819637
 20
188.3413236759692
 30
0.0
 10
831.3354164604434
 20
188.3413236759692
 30
0.0
  0
SPLINE
  5
230
330
1F
100
AcDbEntity
  8
FISHER_PAYKEL
 62
   250
420
  1316376
370
     9
100
AcDbSpline
210
0.0
220
0.0
230
1.0
 70
     8
 71
     3
 72
     8
 73
     4
 74
     0
 42
0.000000001
 43
0.0000000001
 40
1.0
 40
1.0
 40
1.0
 40
1.0
 40
2.0
 40
2.0
 40
2.0
 40
2.0
 10
831.3354164604434
 20
188.3413236759692
 30
0.0
 10
829.1763818664087
 20
188.3413236759692
 30
0.0
 10
827.5112440749313
 20
186.5456560152444
 30
0.0
 10
827.3172131882127
 20
184.1537843571476
 30
0.0
  0
LINE
  5
231
330
1F
100
AcDbEntity
  8
FISHER_PAYKEL
 62
   250
420
  1316376
370
     9
100
AcDbLine
 10
827.3172131882127
 20
184.1537843571476
 30
0.0
 11
835.2442568692509
 21
184.1537843571476
 31
0.0
  0
LINE
  5
232
330
1F
100
AcDbEntity
  8
FISHER_PAYKEL
 62
   250
420
  1316376
370
     9
100
AcDbLine
 10
838.461994537909
 20
179.6028781050162
 30
0.0
 11
839.0828933754085
 21
180.4283913321464
 31
0.0
  0
SPLINE
  5
233
330
1F
100
AcDbEntity
  8
FISHER_PAYKEL
 62
   250
420
  1316376
370
     9
100
AcDbSpline
210
0.0
220
0.0
230
1.0
 70
     8
 71
     3
 72
     8
 73
     4
 74
     0
 42
0.000000001
 43
0.0000000001
 40
0.292800273223734
 40
0.292800273223734
 40
0.292800273223734
 40
0.292800273223734
 40
1.292800273223734
 40
1.292800273223734
 40
1.292800273223734
 40
1.292800273223734
 10
839.0828933754085
 20
180.4283913321464
 30
0.0
 10
840.2788292044577
 20
179.5217379160243
 30
0.0
 10
841.6052949027535
 20
179.0102019419477
 30
0.0
 10
842.9917337842164
 20
179.0102019419477
 30
0.0
  0
SPLINE
  5
234
330
1F
100
AcDbEntity
  8
FISHER_PAYKEL
 62
   250
420
  1316376
370
     9
100
AcDbSpline
210
0.0
220
0.0
230
1.0
 70
     8
 71
     3
 72
     8
 73
     4
 74
     0
 42
0.000000001
 43
0.0000000001
 40
1.292800273223734
 40
1.292800273223734
 40
1.292800273223734
 40
1.292800273223734
 40
2.292800273223734
 40
2.292800273223734
 40
2.292800273223734
 40
2.292800273223734
 10
842.9917337842164
 20
179.0102019419477
 30
0.0
 10
844.466368523279
 20
179.0102019419477
 30
0.0
 10
845.6199703406801
 20
179.8180759975586
 30
0.0
 10
845.6199703406801
 20
181.0634015068628
 30
0.0
  0
LINE
  5
235
330
1F
100
AcDbEntity
  8
FISHER_PAYKEL
 62
   250
420
  1316376
370
     9
100
AcDbLine
 10
845.6199703406801
 20
181.0634015068628
 30
0.0
 11
845.6199703406801
 21
181.1057355185104
 31
0.0
  0
SPLINE
  5
236
330
1F
100
AcDbEntity
  8
FISHER_PAYKEL
 62
   250
420
  1316376
370
     9
100
AcDbSpline
210
0.0
220
0.0
230
1.0
 70
     8
 71
     3
 72
     8
 73
     4
 74
     0
 42
0.000000001
 43
0.0000000001
 40
2.304800273223734
 40
2.304800273223734
 40
2.304800273223734
 40
2.304800273223734
 40
3.304800273223734
 40
3.304800273223734
 40
3.304800273223734
 40
3.304800273223734
 10
845.6199703406801
 20
181.1057355185104
 30
0.0
 10
845.6199703406801
 20
182.3757558679425
 30
0.0
 10
844.2546984650405
 20
182.8414299960676
 30
0.0
 10
842.7342018800259
 20
183.2647701125451
 30
0.0
  0
SPLINE
  5
237
330
1F
100
AcDbEntity
  8
FISHER_PAYKEL
 62
   250
420
  1316376
370
     9
100
AcDbSpline
210
0.0
220
0.0
230
1.0
 70
     8
 71
     3
 72
     8
 73
     4
 74
     0
 42
0.000000001
 43
0.0000000001
 40
3.304800273223734
 40
3.304800273223734
 40
3.304800273223734
 40
3.304800273223734
 40
4.304800273223734
 40
4.304800273223734
 40
4.304800273223734
 40
4.304800273223734
 10
842.7342018800259
 20
183.2647701125451
 30
0.0
 10
840.9597012251252
 20
183.7727782523178
 30
0.0
 10
838.9946975178095
 20
184.2984255636105
 30
0.0
 10
838.9946975178095
 20
186.2246230935824
 30
0.0
  0
LINE
  5
238
330
1F
100
AcDbEntity
  8
FISHER_PAYKEL
 62
   250
420
  1316376
370
     9
100
AcDbLine
 10
838.9946975178095
 20
186.2246230935824
 30
0.0
 11
838.9946975178095
 21
186.270484939534
 31
0.0
  0
SPLINE
  5
239
330
1F
100
AcDbEntity
  8
FISHER_PAYKEL
 62
   250
420
  1316376
370
     9
100
AcDbSpline
210
0.0
220
0.0
230
1.0
 70
     8
 71
     3
 72
     8
 73
     4
 74
     0
 42
0.000000001
 43
0.0000000001
 40
4.317800273223711
 40
4.317800273223711
 40
4.317800273223711
 40
4.317800273223711
 40
5.317800273223711
 40
5.317800273223711
 40
5.317800273223711
 40
5.317800273223711
 10
838.9946975178095
 20
186.270484939534
 30
0.0
 10
838.9946975178095
 20
188.0026515827871
 30
0.0
 10
840.4693322568723
 20
189.2515049263953
 30
0.0
 10
842.5860328392589
 20
189.2515049263953
 30
0.0
  0
SPLINE
  5
23A
330
1F
100
AcDbEntity
  8
FISHER_PAYKEL
 62
   250
420
  1316376
370
     9
100
AcDbSpline
210
0.0
220
0.0
230
1.0
 70
     8
 71
     3
 72
     8
 73
     4
 74
     0
 42
0.000000001
 43
0.0000000001
 40
5.317800273223711
 40
5.317800273223711
 40
5.317800273223711
 40
5.317800273223711
 40
6.317800273223711
 40
6.317800273223711
 40
6.317800273223711
 40
6.317800273223711
 10
842.5860328392589
 20
189.2515049263953
 30
0.0
 10
843.887803697427
 20
189.2515049263953
 30
0.0
 10
845.3624384364896
 20
188.7858307982705
 30
0.0
 10
846.4560670707231
 20
188.066152600259
 30
0.0
  0
LINE
  5
23B
330
1F
100
AcDbEntity
  8
FISHER_PAYKEL
 62
   250
420
  1316376
370
     9
100
AcDbLine
 10
846.4560670707231
 20
188.066152600259
 30
0.0
 11
845.8951414163907
 21
187.1983053614805
 31
0.0
  0
SPLINE
  5
23C
330
1F
100
AcDbEntity
  8
FISHER_PAYKEL
 62
   250
420
  1316376
370
     9
100
AcDbSpline
210
0.0
220
0.0
230
1.0
 70
     8
 71
     3
 72
     8
 73
     4
 74
     0
 42
0.000000001
 43
0.0000000001
 40
6.610711522580898
 40
6.610711522580898
 40
6.610711522580898
 40
6.610711522580898
 40
7.610711522580898
 40
7.610711522580898
 40
7.610711522580898
 40
7.610711522580898
 10
845.8951414163907
 20
187.1983053614805
 30
0.0
 10
844.8932364740608
 20
187.85448254202
 30
0.0
 10
843.6937728107082
 20
188.2778226584975
 30
0.0
 10
842.5436988276113
 20
188.2778226584975
 30
0.0
  0
SPLINE
  5
23D
330
1F
100
AcDbEntity
  8
FISHER_PAYKEL
 62
   250
420
  1316376
370
     9
100
AcDbSpline
210
0.0
220
0.0
230
1.0
 70
     8
 71
     3
 72
     8
 73
     4
 74
     0
 42
0.000000001
 43
0.0000000001
 40
7.610711522580898
 40
7.610711522580898
 40
7.610711522580898
 40
7.610711522580898
 40
8.610711522580898
 40
8.610711522580898
 40
8.610711522580898
 40
8.610711522580898
 10
842.5436988276113
 20
188.2778226584975
 30
0.0
 10
841.0443692484207
 20
188.2778226584975
 30
0.0
 10
840.0636313119151
 20
187.4734764371907
 30
0.0
 10
840.0636313119151
 20
186.3939591401735
 30
0.0
  0
LINE
  5
23E
330
1F
100
AcDbEntity
  8
FISHER_PAYKEL
 62
   250
420
  1316376
370
     9
100
AcDbLine
 10
840.0636313119151
 20
186.3939591401735
 30
0.0
 11
840.0636313119151
 21
186.3516251285258
 31
0.0
  0
SPLINE
  5
23F
330
1F
100
AcDbEntity
  8
FISHER_PAYKEL
 62
   250
420
  1316376
370
     9
100
AcDbSpline
210
0.0
220
0.0
230
1.0
 70
     8
 71
     3
 72
     8
 73
     4
 74
     0
 42
0.000000001
 43
0.0000000001
 40
8.622711522580898
 40
8.622711522580898
 40
8.622711522580898
 40
8.622711522580898
 40
9.622711522580898
 40
9.622711522580898
 40
9.622711522580898
 40
9.622711522580898
 10
840.0636313119151
 20
186.3516251285258
 30
0.0
 10
840.0636313119151
 20
185.1451057965652
 30
0.0
 10
841.5382660509779
 20
184.7005986742639
 30
0.0
 10
843.0975688133362
 20
184.2560915519629
 30
0.0
  0
SPLINE
  5
240
330
1F
100
AcDbEntity
  8
FISHER_PAYKEL
 62
   250
420
  1316376
370
     9
100
AcDbSpline
210
0.0
220
0.0
230
1.0
 70
     8
 71
     3
 72
     8
 73
     4
 74
     0
 42
0.000000001
 43
0.0000000001
 40
9.622711522580898
 40
9.622711522580898
 40
9.622711522580898
 40
9.622711522580898
 40
10.6227115225809
 40
10.6227115225809
 40
10.6227115225809
 40
10.6227115225809
 10
843.0975688133362
 20
184.2560915519629
 30
0.0
 10
844.8509024624132
 20
183.7727782523178
 30
0.0
 10
846.6889041347854
 20
183.1377680776017
 30
0.0
 10
846.6889041347854
 20
181.2327375534538
 30
0.0
  0
LINE
  5
241
330
1F
100
AcDbEntity
  8
FISHER_PAYKEL
 62
   250
420
  1316376
370
     9
100
AcDbLine
 10
846.6889041347854
 20
181.2327375534538
 30
0.0
 11
846.6889041347854
 21
181.1904035418062
 31
0.0
  0
SPLINE
  5
242
330
1F
100
AcDbEntity
  8
FISHER_PAYKEL
 62
   250
420
  1316376
370
     9
100
AcDbSpline
210
0.0
220
0.0
230
1.0
 70
     8
 71
     3
 72
     8
 73
     4
 74
     0
 42
0.000000001
 43
0.0000000001
 40
10.6347115225809
 40
10.6347115225809
 40
10.6347115225809
 40
10.6347115225809
 40
11.6347115225809
 40
11.6347115225809
 40
11.6347115225809
 40
11.6347115225809
 10
846.6889041347854
 20
181.1904035418062
 30
0.0
 10
846.6889041347854
 20
179.2642060118341
 30
0.0
 10
845.020238509004
 20
178.040047508354
 30
0.0
 10
842.9282327667454
 20
178.040047508354
 30
0.0
  0
SPLINE
  5
243
330
1F
100
AcDbEntity
  8
FISHER_PAYKEL
 62
   250
420
  1316376
370
     9
100
AcDbSpline
210
0.0
220
0.0
230
1.0
 70
     8
 71
     3
 72
     8
 73
     4
 74
     0
 42
0.000000001
 43
0.0000000001
 40
11.6347115225809
 40
11.6347115225809
 40
11.6347115225809
 40
11.6347115225809
 40
12.6347115225809
 40
12.6347115225809
 40
12.6347115225809
 40
12.6347115225809
 10
842.9282327667454
 20
178.040047508354
 30
0.0
 10
841.3442355419136
 20
178.040047508354
 30
0.0
 10
839.6155971795886
 20
178.6715295476516
 30
0.0
 10
838.461994537909
 20
179.6028781050162
 30
0.0
  0
POLYLINE
  5
244
330
1F
100
AcDbEntity
  8
FISHER_PAYKEL
100
AcDb2dPolyline
 66
     1
 10
0.0
 20
0.0
 30
0.0
  0
VERTEX
  5
245
330
244
100
AcDbEntity
  8
FISHER_PAYKEL
100
AcDbVertex
100
AcDb2dVertex
 10
722.7275272170696
 20
177.9006980533467
 30
0.0
  0
VERTEX
  5
246
330
244
100
AcDbEntity
  8
FISHER_PAYKEL
100
AcDbVertex
100
AcDb2dVertex
 10
722.7275272170696
 20
217.9006980533467
 30
0.0
  0
SEQEND
  5
247
330
244
100
AcDbEntity
  8
FISHER_PAYKEL
  0
POLYLINE
  5
248
330
1F
100
AcDbEntity
  8
FISHER_PAYKEL
100
AcDb2dPolyline
 66
     1
 10
0.0
 20
0.0
 30
0.0
  0
VERTEX
  5
249
330
248
100
AcDbEntity
  8
FISHER_PAYKEL
100
AcDbVertex
100
AcDb2dVertex
 10
522.7275272170696
 20
177.9006980533467
 30
0.0
  0
VERTEX
  5
24A
330
248
100
AcDbEntity
  8
FISHER_PAYKEL
100
AcDbVertex
100
AcDb2dVertex
 10
522.7275272170696
 20
217.9006980533467
 30
0.0
  0
SEQEND
  5
24B
330
248
100
AcDbEntity
  8
FISHER_PAYKEL
  0
POLYLINE
  5
24C
330
1F
100
AcDbEntity
  8
FISHER_PAYKEL
100
AcDb2dPolyline
 66
     1
 10
0.0
 20
0.0
 30
0.0
  0
VERTEX
  5
24D
330
24C
100
AcDbEntity
  8
FISHER_PAYKEL
100
AcDbVertex
100
AcDb2dVertex
 10
422.7275272170697
 20
177.9006980533467
 30
0.0
  0
VERTEX
  5
24E
330
24C
100
AcDbEntity
  8
FISHER_PAYKEL
100
AcDbVertex
100
AcDb2dVertex
 10
422.7275272170697
 20
217.9006980533467
 30
0.0
  0
SEQEND
  5
24F
330
24C
100
AcDbEntity
  8
FISHER_PAYKEL
  0
POLYLINE
  5
250
330
1F
100
AcDbEntity
  8
FISHER_PAYKEL
100
AcDb2dPolyline
 66
     1
 10
0.0
 20
0.0
 30
0.0
  0
VERTEX
  5
251
330
250
100
AcDbEntity
  8
FISHER_PAYKEL
100
AcDbVertex
100
AcDb2dVertex
 10
322.7275272170696
 20
177.9006980533467
 30
0.0
  0
VERTEX
  5
252
330
250
100
AcDbEntity
  8
FISHER_PAYKEL
100
AcDbVertex
100
AcDb2dVertex
 10
322.7275272170696
 20
217.9006980533467
 30
0.0
  0
SEQEND
  5
253
330
250
100
AcDbEntity
  8
FISHER_PAYKEL
  0
POLYLINE
  5
254
330
1F
100
AcDbEntity
  8
FISHER_PAYKEL
100
AcDb2dPolyline
 66
     1
 10
0.0
 20
0.0
 30
0.0
 70
     1
  0
VERTEX
  5
255
330
254
100
AcDbEntity
  8
FISHER_PAYKEL
100
AcDbVertex
100
AcDb2dVertex
 10
322.7275272170696
 20
177.9006980533467
 30
0.0
  0
VERTEX
  5
256
330
254
100
AcDbEntity
  8
FISHER_PAYKEL
100
AcDbVertex
100
AcDb2dVertex
 10
722.7275272170696
 20
177.9006980533467
 30
0.0
  0
VERTEX
  5
257
330
254
100
AcDbEntity
  8
FISHER_PAYKEL
100
AcDbVertex
100
AcDb2dVertex
 10
722.7275272170696
 20
207.9006980533467
 30
0.0
  0
VERTEX
  5
258
330
254
100
AcDbEntity
  8
FISHER_PAYKEL
100
AcDbVertex
100
AcDb2dVertex
 10
322.7275272170696
 20
207.9006980533467
 30
0.0
  0
SEQEND
  5
259
330
254
100
AcDbEntity
  8
FISHER_PAYKEL
  0
LINE
  5
25A
330
1F
100
AcDbEntity
  8
FISHER_PAYKEL
  6
Continuous
 62
     1
420
 16711680
100
AcDbLine
 10
1473.228938350791
 20
609.4392309863734
 30
0.0
 11
1982.228938350791
 21
609.4392309863734
 31
0.0
  0
LINE
  5
25B
330
1F
100
AcDbEntity
  8
FISHER_PAYKEL
  6
Continuous
 62
    18
420
        0
100
AcDbLine
 10
1930.229102391491
 20
618.4392309863734
 30
0.0
 11
1958.228774309991
 21
618.4392309863734
 31
0.0
  0
LINE
  5
25C
330
1F
100
AcDbEntity
  8
FISHER_PAYKEL
  6
Continuous
 62
    18
420
        0
100
AcDbLine
 10
1513.228938350791
 20
619.4392309863734
 30
0.0
 11
1980.228938350791
 21
619.4392309863734
 31
0.0
  0
LINE
  5
25D
330
1F
100
AcDbEntity
  8
FISHER_PAYKEL
  6
Continuous
 62
    18
420
        0
100
AcDbLine
 10
1513.228938350791
 20
627.4392309863734
 30
0.0
 11
1492.228938350791
 21
627.4392309863734
 31
0.0
  0
LINE
  5
25E
330
1F
100
AcDbEntity
  8
FISHER_PAYKEL
  6
Continuous
 62
    18
420
        0
100
AcDbLine
 10
1476.228938350791
 20
639.4392309863734
 30
0.0
 11
1513.228938350791
 21
639.4392309863734
 31
0.0
  0
LINE
  5
25F
330
1F
100
AcDbEntity
  8
FISHER_PAYKEL
  6
Continuous
 62
    18
420
        0
100
AcDbLine
 10
1985.728938350791
 20
675.4392309863734
 30
0.0
 11
1468.728938350791
 21
675.4392309863734
 31
0.0
  0
LINE
  5
260
330
1F
100
AcDbEntity
  8
FISHER_PAYKEL
  6
Continuous
 62
    18
420
        0
100
AcDbLine
 10
1462.728938350791
 20
676.9392309863734
 30
0.0
 11
1992.728938350791
 21
676.9392309863734
 31
0.0
  0
LINE
  5
261
330
1F
100
AcDbEntity
  8
FISHER_PAYKEL
  6
Continuous
 62
    18
420
        0
100
AcDbLine
 10
1462.728938350791
 20
680.9392309863734
 30
0.0
 11
1992.728938350791
 21
680.9392309863734
 31
0.0
  0
LINE
  5
262
330
1F
100
AcDbEntity
  8
FISHER_PAYKEL
  6
Continuous
 62
    18
420
        0
100
AcDbLine
 10
1462.728938350791
 20
680.9392309863734
 30
0.0
 11
1462.728938350791
 21
676.9392309863734
 31
0.0
  0
LINE
  5
263
330
1F
100
AcDbEntity
  8
FISHER_PAYKEL
  6
Continuous
 62
    18
420
        0
100
AcDbLine
 10
1468.728938350791
 20
676.9392309863734
 30
0.0
 11
1468.728938350791
 21
675.4392309863734
 31
0.0
  0
LINE
  5
264
330
1F
100
AcDbEntity
  8
FISHER_PAYKEL
  6
Continuous
 62
    18
420
        0
100
AcDbLine
 10
1476.228938350791
 20
675.4392309863734
 30
0.0
 11
1476.228938350791
 21
639.4392309863734
 31
0.0
  0
LINE
  5
265
330
1F
100
AcDbEntity
  8
FISHER_PAYKEL
  6
Continuous
 62
    18
420
        0
100
AcDbLine
 10
1492.228938350791
 20
627.4392309863734
 30
0.0
 11
1492.228938350791
 21
639.4392309863734
 31
0.0
  0
LINE
  5
266
330
1F
100
AcDbEntity
  8
FISHER_PAYKEL
  6
Continuous
 62
    18
420
        0
100
AcDbLine
 10
1513.228938350791
 20
639.4392309863734
 30
0.0
 11
1513.228938350791
 21
619.4392309863734
 31
0.0
  0
LINE
  5
267
330
1F
100
AcDbEntity
  8
FISHER_PAYKEL
  6
Continuous
 62
     1
420
 16711680
100
AcDbLine
 10
2002.728938350791
 20
1130.939230986373
 30
0.0
 11
1473.728938350791
 21
1130.939230986373
 31
0.0
  0
LINE
  5
268
330
1F
100
AcDbEntity
  8
FISHER_PAYKEL
  6
Continuous
 62
    18
420
        0
100
AcDbLine
 10
1930.228938350791
 20
619.4392309863734
 30
0.0
 11
1930.228938350791
 21
618.4392309863734
 31
0.0
  0
LINE
  5
269
330
1F
100
AcDbEntity
  8
FISHER_PAYKEL
  6
Continuous
 62
    18
420
        0
100
AcDbLine
 10
1958.228938350791
 20
619.4392309863734
 30
0.0
 11
1958.228938350791
 21
618.4392309863734
 31
0.0
  0
LINE
  5
26A
330
1F
100
AcDbEntity
  8
FISHER_PAYKEL
  6
Continuous
 62
    18
420
        0
100
AcDbLine
 10
1980.228938350791
 20
619.4392309863734
 30
0.0
 11
1980.228938350791
 21
675.4392309863734
 31
0.0
  0
LINE
  5
26B
330
1F
100
AcDbEntity
  8
FISHER_PAYKEL
  6
Continuous
 62
    18
420
        0
100
AcDbLine
 10
1985.728938350791
 20
676.9392309863734
 30
0.0
 11
1985.728938350791
 21
675.4392309863734
 31
0.0
  0
LINE
  5
26C
330
1F
100
AcDbEntity
  8
FISHER_PAYKEL
  6
Continuous
 62
    18
420
        0
100
AcDbLine
 10
1992.728938350791
 20
680.9392309863734
 30
0.0
 11
1992.728938350791
 21
676.9392309863734
 31
0.0
  0
LINE
  5
26D
330
1F
100
AcDbEntity
  8
FISHER_PAYKEL
  6
Continuous
 62
    18
420
        0
100
AcDbLine
 10
1994.228938350791
 20
562.4392309863734
 30
0.0
 11
1994.228938350791
 21
576.4392309863734
 31
0.0
  0
LINE
  5
26E
330
1F
100
AcDbEntity
  8
FISHER_PAYKEL
  6
Continuous
 62
     1
420
 16711680
100
AcDbLine
 10
2002.728938350791
 20
1330.939230986373
 30
0.0
 11
1473.728938350791
 21
1330.939230986373
 31
0.0
  0
ARC
  5
26F
330
1F
100
AcDbEntity
  8
FISHER_PAYKEL
  6
Continuous
 62
    18
420
        0
100
AcDbCircle
 10
1994.228938350791
 20
619.4392309863734
 30
0.0
 40
57.0
100
AcDbArc
 50
181.0053932754
 51
270.0
  0
ARC
  5
270
330
1F
100
AcDbEntity
  8
FISHER_PAYKEL
  6
Continuous
 62
    18
420
        0
100
AcDbCircle
 10
1994.228938350791
 20
619.4392309863734
 30
0.0
 40
43.0
100
AcDbArc
 50
181.3327706699
 51
270.0
  0
LINE
  5
271
330
1F
100
AcDbEntity
  8
FISHER_PAYKEL
  6
Continuous
 62
     1
420
 16711680
100
AcDbLine
 10
2002.728938350791
 20
680.9392309863734
 30
0.0
 11
2002.728938350791
 21
1330.939230986373
 31
0.0
  0
LINE
  5
272
330
1F
100
AcDbEntity
  8
FISHER_PAYKEL
  6
Continuous
 62
    18
420
        0
100
AcDbLine
 10
899.7289383507912
 20
675.4392309863734
 30
0.0
 11
899.7289383507912
 21
619.4392309863734
 31
0.0
  0
ARC
  5
273
330
1F
100
AcDbEntity
  8
FISHER_PAYKEL
  6
Continuous
 62
    18
420
        0
100
AcDbCircle
 10
870.7289383507912
 20
569.4392309863734
 30
0.0
 40
7.0
100
AcDbArc
 50
180.0
 51
0.0
  0
LINE
  5
274
330
1F
100
AcDbEntity
  8
FISHER_PAYKEL
  6
Continuous
 62
    18
420
        0
100
AcDbLine
 10
922.7289383507912
 20
680.9392309863734
 30
0.0
 11
922.7289383507912
 21
676.9392309863734
 31
0.0
  0
LINE
  5
275
330
1F
100
AcDbEntity
  8
FISHER_PAYKEL
  6
Continuous
 62
    18
420
        0
100
AcDbLine
 10
909.7289383507912
 20
676.9392309863734
 30
0.0
 11
909.7289383507912
 21
675.4392309863734
 31
0.0
  0
LINE
  5
276
330
1F
100
AcDbEntity
  8
FISHER_PAYKEL
  6
Continuous
 62
    18
420
        0
100
AcDbLine
 10
884.7289383507912
 20
619.4392309863734
 30
0.0
 11
884.7289383507912
 21
618.4392309863734
 31
0.0
  0
LINE
  5
277
330
1F
100
AcDbEntity
  8
FISHER_PAYKEL
  6
Continuous
 62
    18
420
        0
100
AcDbLine
 10
877.7289383507912
 20
569.4392309863734
 30
0.0
 11
877.7289383507912
 21
618.4392309863734
 31
0.0
  0
LINE
  5
278
330
1F
100
AcDbEntity
  8
FISHER_PAYKEL
  6
Continuous
 62
    18
420
        0
100
AcDbLine
 10
873.7289383507912
 20
627.4392309863734
 30
0.0
 11
873.7289383507912
 21
639.4392309863734
 31
0.0
  0
LINE
  5
279
330
1F
100
AcDbEntity
  8
FISHER_PAYKEL
  6
Continuous
 62
    18
420
        0
100
AcDbLine
 10
863.7289383507912
 20
569.4392309863734
 30
0.0
 11
863.7289383507912
 21
618.4392309863734
 31
0.0
  0
LINE
  5
27A
330
1F
100
AcDbEntity
  8
FISHER_PAYKEL
  6
Continuous
 62
    18
420
        0
100
AcDbLine
 10
856.7289383507912
 20
619.4392309863734
 30
0.0
 11
856.7289383507912
 21
618.4392309863734
 31
0.0
  0
LINE
  5
27B
330
1F
100
AcDbEntity
  8
FISHER_PAYKEL
  6
Continuous
 62
    18
420
        0
100
AcDbLine
 10
854.7289383507912
 20
639.4392309863734
 30
0.0
 11
854.7289383507912
 21
627.4392309863734
 31
0.0
  0
LINE
  5
27C
330
1F
100
AcDbEntity
  8
FISHER_PAYKEL
  6
Continuous
 62
    18
420
        0
100
AcDbLine
 10
388.2289383507911
 20
627.4392309863734
 30
0.0
 11
388.2289383507911
 21
639.4392309863734
 31
0.0
  0
LINE
  5
27D
330
1F
100
AcDbEntity
  8
FISHER_PAYKEL
  6
Continuous
 62
    18
420
        0
100
AcDbLine
 10
374.2289383507911
 20
639.4392309863734
 30
0.0
 11
374.2289383507911
 21
627.4392309863734
 31
0.0
  0
LINE
  5
27E
330
1F
100
AcDbEntity
  8
FISHER_PAYKEL
  6
Continuous
 62
    18
420
        0
100
AcDbLine
 10
322.7289383507912
 20
680.9392309863734
 30
0.0
 11
922.7289383507912
 21
680.9392309863734
 31
0.0
  0
LINE
  5
27F
330
1F
100
AcDbEntity
  8
FISHER_PAYKEL
  6
Continuous
 62
    18
420
        0
100
AcDbLine
 10
322.7289383507912
 20
676.9392309863734
 30
0.0
 11
922.7289383507912
 21
676.9392309863734
 31
0.0
  0
LINE
  5
280
330
1F
100
AcDbEntity
  8
FISHER_PAYKEL
  6
Continuous
 62
    18
420
        0
100
AcDbLine
 10
909.7289383507912
 20
675.4392309863734
 30
0.0
 11
335.7289383507911
 21
675.4392309863734
 31
0.0
  0
LINE
  5
281
330
1F
100
AcDbEntity
  8
FISHER_PAYKEL
  6
Continuous
 62
    18
420
        0
100
AcDbLine
 10
345.7289383507911
 20
675.4392309863734
 30
0.0
 11
345.7289383507911
 21
619.4392309863734
 31
0.0
  0
LINE
  5
282
330
1F
100
AcDbEntity
  8
FISHER_PAYKEL
  6
Continuous
 62
    18
420
        0
100
AcDbLine
 10
335.7289383507911
 20
676.9392309863734
 30
0.0
 11
335.7289383507911
 21
675.4392309863734
 31
0.0
  0
LINE
  5
283
330
1F
100
AcDbEntity
  8
FISHER_PAYKEL
  6
Continuous
 62
    18
420
        0
100
AcDbLine
 10
322.7289383507912
 20
680.9392309863734
 30
0.0
 11
322.7289383507912
 21
676.9392309863734
 31
0.0
  0
LINE
  5
284
330
1F
100
AcDbEntity
  8
FISHER_PAYKEL
  6
Continuous
 62
    18
420
        0
100
AcDbLine
 10
345.7289383507911
 20
639.4392309863734
 30
0.0
 11
899.7289383507912
 21
639.4392309863734
 31
0.0
  0
LINE
  5
285
330
1F
100
AcDbEntity
  8
FISHER_PAYKEL
  6
Continuous
 62
    18
420
        0
100
AcDbLine
 10
854.7289383507912
 20
627.4392309863734
 30
0.0
 11
873.7289383507912
 21
627.4392309863734
 31
0.0
  0
LINE
  5
286
330
1F
100
AcDbEntity
  8
FISHER_PAYKEL
  6
Continuous
 62
    18
420
        0
100
AcDbLine
 10
374.2289383507911
 20
627.4392309863734
 30
0.0
 11
388.2289383507911
 21
627.4392309863734
 31
0.0
  0
LINE
  5
287
330
1F
100
AcDbEntity
  8
FISHER_PAYKEL
  6
Continuous
 62
    18
420
        0
100
AcDbLine
 10
345.7289383507911
 20
619.4392309863734
 30
0.0
 11
899.7289383507912
 21
619.4392309863734
 31
0.0
  0
LINE
  5
288
330
1F
100
AcDbEntity
  8
FISHER_PAYKEL
  6
Continuous
 62
    18
420
        0
100
AcDbLine
 10
884.7289383507912
 20
618.4392309863734
 30
0.0
 11
856.7289383507912
 21
618.4392309863734
 31
0.0
  0
LINE
  5
289
330
1F
100
AcDbEntity
  8
FISHER_PAYKEL
  6
Continuous
 62
     1
420
 16711680
100
AcDbLine
 10
903.7289383507912
 20
609.4392309863734
 30
0.0
 11
341.7289383507911
 21
609.4392309863734
 31
0.0
  0
LINE
  5
28A
330
1F
100
AcDbEntity
  8
FISHER_PAYKEL
  6
Continuous
 62
     3
420
    65280
100
AcDbLine
 10
930.6528695913
 20
1280.4558960841
 30
0.0
 11
334.6528695913
 21
1280.4558960841
 31
0.0
  0
LINE
  5
28B
330
1F
100
AcDbEntity
  8
FISHER_PAYKEL
  6
Continuous
 62
     1
420
 16711680
100
AcDbLine
 10
942.6528695913
 20
1822.4558960841
 30
0.0
 11
942.6528695913
 21
1282.4558960841
 31
0.0
  0
ARC
  5
28C
330
1F
100
AcDbEntity
  8
FISHER_PAYKEL
  6
Continuous
 62
    18
420
        0
100
AcDbCircle
 10
334.6528695913
 20
1284.4558960841
 30
0.0
 40
2.0
100
AcDbArc
 50
180.0
 51
270.0
  0
ARC
  5
28D
330
1F
100
AcDbEntity
  8
FISHER_PAYKEL
  6
Continuous
 62
    18
420
        0
100
AcDbCircle
 10
930.6528695913
 20
1284.4558960841
 30
0.0
 40
2.0
100
AcDbArc
 50
270.0
 51
0.0
  0
ARC
  5
28E
330
1F
100
AcDbEntity
  8
FISHER_PAYKEL
  6
Continuous
 62
    18
420
        0
100
AcDbCircle
 10
930.6528695913
 20
1810.4558960841
 30
0.0
 40
2.0
100
AcDbArc
 50
0.0
 51
90.0
  0
ARC
  5
28F
330
1F
100
AcDbEntity
  8
FISHER_PAYKEL
  6
Continuous
 62
    18
420
        0
100
AcDbCircle
 10
334.6528695913
 20
1810.4558960841
 30
0.0
 40
2.0
100
AcDbArc
 50
90.0
 51
180.0
  0
ARC
  5
290
330
1F
100
AcDbEntity
  8
FISHER_PAYKEL
  6
Continuous
 62
     3
420
    65280
100
AcDbCircle
 10
930.6528695913
 20
1810.4558960841
 30
0.0
 40
4.0
100
AcDbArc
 50
0.0
 51
90.0
  0
ARC
  5
291
330
1F
100
AcDbEntity
  8
FISHER_PAYKEL
  6
Continuous
 62
     3
420
    65280
100
AcDbCircle
 10
930.6528695913
 20
1284.4558960841
 30
0.0
 40
4.0
100
AcDbArc
 50
270.0
 51
0.0
  0
ARC
  5
292
330
1F
100
AcDbEntity
  8
FISHER_PAYKEL
  6
Continuous
 62
     3
420
    65280
100
AcDbCircle
 10
334.6528695913
 20
1284.4558960841
 30
0.0
 40
4.0
100
AcDbArc
 50
180.0
 51
270.0
  0
ARC
  5
293
330
1F
100
AcDbEntity
  8
FISHER_PAYKEL
  6
Continuous
 62
     3
420
    65280
100
AcDbCircle
 10
334.6528695913
 20
1810.4558960841
 30
0.0
 40
4.0
100
AcDbArc
 50
90.0
 51
180.0
  0
LINE
  5
294
330
1F
100
AcDbEntity
  8
FISHER_PAYKEL
  6
Continuous
 62
     1
420
 16711680
100
AcDbLine
 10
322.6528695913
 20
1822.4558960841
 30
0.0
 11
942.6528695913
 21
1822.4558960841
 31
0.0
  0
LINE
  5
295
330
1F
100
AcDbEntity
  8
FISHER_PAYKEL
  6
Continuous
 62
     3
420
    65280
100
AcDbLine
 10
334.6528695913
 20
1814.4558960841
 30
0.0
 11
930.6528695913
 21
1814.4558960841
 31
0.0
  0
LINE
  5
296
330
1F
100
AcDbEntity
  8
FISHER_PAYKEL
  6
Continuous
 62
    18
420
        0
100
AcDbLine
 10
887.6528695913
 20
1813.9558960841
 30
0.0
 11
873.6528695913
 21
1813.9558960841
 31
0.0
  0
LINE
  5
297
330
1F
100
AcDbEntity
  8
FISHER_PAYKEL
  6
Continuous
 62
    18
420
        0
100
AcDbLine
 10
930.6528695913
 20
1812.4558960841
 30
0.0
 11
334.6528695913
 21
1812.4558960841
 31
0.0
  0
LINE
  5
298
330
1F
100
AcDbEntity
  8
FISHER_PAYKEL
  6
Continuous
 62
     3
420
    65280
100
AcDbLine
 10
934.6528695913
 20
1810.4558960841
 30
0.0
 11
934.6528695913
 21
1284.4558960841
 31
0.0
  0
LINE
  5
299
330
1F
100
AcDbEntity
  8
FISHER_PAYKEL
  6
Continuous
 62
    18
420
        0
100
AcDbLine
 10
932.6528695913
 20
1284.4558960841
 30
0.0
 11
932.6528695913
 21
1810.4558960841
 31
0.0
  0
LINE
  5
29A
330
1F
100
AcDbEntity
  8
FISHER_PAYKEL
  6
Continuous
 62
     3
420
    65280
100
AcDbLine
 10
913.6528695913
 20
1801.9558960841
 30
0.0
 11
351.6528695913
 21
1801.9558960841
 31
0.0
  0
LINE
  5
29B
330
1F
100
AcDbEntity
  8
FISHER_PAYKEL
  6
Continuous
 62
    18
420
        0
100
AcDbLine
 10
607.6528695912999
 20
1787.9558960841
 30
0.0
 11
382.6528695913
 21
1787.9558960841
 31
0.0
  0
LINE
  5
29C
330
1F
100
AcDbEntity
  8
FISHER_PAYKEL
  6
Continuous
 62
    18
420
        0
100
AcDbLine
 10
882.6528695913
 20
1787.9558960841
 30
0.0
 11
657.6528695912999
 21
1787.9558960841
 31
0.0
  0
LINE
  5
29D
330
1F
100
AcDbEntity
  8
FISHER_PAYKEL
  6
Continuous
 62
    18
420
        0
100
AcDbLine
 10
657.6528695912999
 20
1785.4558960841
 30
0.0
 11
882.6528695913
 21
1785.4558960841
 31
0.0
  0
LINE
  5
29E
330
1F
100
AcDbEntity
  8
FISHER_PAYKEL
  6
Continuous
 62
    18
420
        0
100
AcDbLine
 10
382.6528695913
 20
1785.4558960841
 30
0.0
 11
607.6528695912999
 21
1785.4558960841
 31
0.0
  0
LINE
  5
29F
330
1F
100
AcDbEntity
  8
FISHER_PAYKEL
  6
Continuous
 62
     3
420
    65280
100
AcDbLine
 10
913.6528695913
 20
1292.9558960841
 30
0.0
 11
913.6528695913
 21
1801.9558960841
 31
0.0
  0
LINE
  5
2A0
330
1F
100
AcDbEntity
  8
FISHER_PAYKEL
  6
Continuous
 62
    18
420
        0
100
AcDbLine
 10
887.6528695913
 20
1813.9558960841
 30
0.0
 11
887.6528695913
 21
1812.4558960841
 31
0.0
  0
LINE
  5
2A1
330
1F
100
AcDbEntity
  8
FISHER_PAYKEL
  6
Continuous
 62
    18
420
        0
100
AcDbLine
 10
882.6528695913
 20
1785.4558960841
 30
0.0
 11
882.6528695913
 21
1787.9558960841
 31
0.0
  0
LINE
  5
2A2
330
1F
100
AcDbEntity
  8
FISHER_PAYKEL
  6
Continuous
 62
    18
420
        0
100
AcDbLine
 10
882.6528695913
 20
1596.4558960841
 30
0.0
 11
882.6528695913
 21
1598.9558960841
 31
0.0
  0
LINE
  5
2A3
330
1F
100
AcDbEntity
  8
FISHER_PAYKEL
  6
Continuous
 62
    18
420
        0
100
AcDbLine
 10
882.6528695913
 20
1407.4558960841
 30
0.0
 11
882.6528695913
 21
1409.9558960841
 31
0.0
  0
LINE
  5
2A4
330
1F
100
AcDbEntity
  8
FISHER_PAYKEL
  6
Continuous
 62
    18
420
        0
100
AcDbLine
 10
873.6528695913
 20
1813.9558960841
 30
0.0
 11
873.6528695913
 21
1812.4558960841
 31
0.0
  0
LINE
  5
2A5
330
1F
100
AcDbEntity
  8
FISHER_PAYKEL
  6
Continuous
 62
    18
420
        0
100
AcDbLine
 10
607.6528695912999
 20
1598.9558960841
 30
0.0
 11
382.6528695913
 21
1598.9558960841
 31
0.0
  0
LINE
  5
2A6
330
1F
100
AcDbEntity
  8
FISHER_PAYKEL
  6
Continuous
 62
    18
420
        0
100
AcDbLine
 10
882.6528695913
 20
1598.9558960841
 30
0.0
 11
657.6528695912999
 21
1598.9558960841
 31
0.0
  0
LINE
  5
2A7
330
1F
100
AcDbEntity
  8
FISHER_PAYKEL
  6
Continuous
 62
    18
420
        0
100
AcDbLine
 10
657.6528695912999
 20
1596.4558960841
 30
0.0
 11
882.6528695913
 21
1596.4558960841
 31
0.0
  0
LINE
  5
2A8
330
1F
100
AcDbEntity
  8
FISHER_PAYKEL
  6
Continuous
 62
    18
420
        0
100
AcDbLine
 10
382.6528695913
 20
1596.4558960841
 30
0.0
 11
607.6528695912999
 21
1596.4558960841
 31
0.0
  0
LINE
  5
2A9
330
1F
100
AcDbEntity
  8
FISHER_PAYKEL
  6
Continuous
 62
    18
420
        0
100
AcDbLine
 10
699.6528695913
 20
1308.4558960841
 30
0.0
 11
699.6528695913
 21
1370.4558960841
 31
0.0
  0
LINE
  5
2AA
330
1F
100
AcDbEntity
  8
FISHER_PAYKEL
  6
Continuous
 62
    18
420
        0
100
AcDbLine
 10
657.6528695912999
 20
1409.9558960841
 30
0.0
 11
657.6528695912999
 21
1407.4558960841
 31
0.0
  0
LINE
  5
2AB
330
1F
100
AcDbEntity
  8
FISHER_PAYKEL
  6
Continuous
 62
    18
420
        0
100
AcDbLine
 10
657.6528695912999
 20
1598.9558960841
 30
0.0
 11
657.6528695912999
 21
1596.4558960841
 31
0.0
  0
LINE
  5
2AC
330
1F
100
AcDbEntity
  8
FISHER_PAYKEL
  6
Continuous
 62
    18
420
        0
100
AcDbLine
 10
657.6528695912999
 20
1787.9558960841
 30
0.0
 11
657.6528695912999
 21
1785.4558960841
 31
0.0
  0
LINE
  5
2AD
330
1F
100
AcDbEntity
  8
FISHER_PAYKEL
  6
Continuous
 62
    18
420
        0
100
AcDbLine
 10
607.6528695912999
 20
1785.4558960841
 30
0.0
 11
607.6528695912999
 21
1787.9558960841
 31
0.0
  0
LINE
  5
2AE
330
1F
100
AcDbEntity
  8
FISHER_PAYKEL
  6
Continuous
 62
    18
420
        0
100
AcDbLine
 10
607.6528695912999
 20
1596.4558960841
 30
0.0
 11
607.6528695912999
 21
1598.9558960841
 31
0.0
  0
LINE
  5
2AF
330
1F
100
AcDbEntity
  8
FISHER_PAYKEL
  6
Continuous
 62
    18
420
        0
100
AcDbLine
 10
607.6528695912999
 20
1407.4558960841
 30
0.0
 11
607.6528695912999
 21
1409.9558960841
 31
0.0
  0
LINE
  5
2B0
330
1F
100
AcDbEntity
  8
FISHER_PAYKEL
  6
Continuous
 62
    18
420
        0
100
AcDbLine
 10
565.6528695912999
 20
1370.4558960841
 30
0.0
 11
565.6528695912999
 21
1308.4558960841
 31
0.0
  0
LINE
  5
2B1
330
1F
100
AcDbEntity
  8
FISHER_PAYKEL
  6
Continuous
 62
    18
420
        0
100
AcDbLine
 10
607.6528695912999
 20
1409.9558960841
 30
0.0
 11
382.6528695913
 21
1409.9558960841
 31
0.0
  0
LINE
  5
2B2
330
1F
100
AcDbEntity
  8
FISHER_PAYKEL
  6
Continuous
 62
    18
420
        0
100
AcDbLine
 10
882.6528695913
 20
1409.9558960841
 30
0.0
 11
657.6528695912999
 21
1409.9558960841
 31
0.0
  0
LINE
  5
2B3
330
1F
100
AcDbEntity
  8
FISHER_PAYKEL
  6
Continuous
 62
    18
420
        0
100
AcDbLine
 10
657.6528695912999
 20
1407.4558960841
 30
0.0
 11
882.6528695913
 21
1407.4558960841
 31
0.0
  0
LINE
  5
2B4
330
1F
100
AcDbEntity
  8
FISHER_PAYKEL
  6
Continuous
 62
    18
420
        0
100
AcDbLine
 10
382.6528695913
 20
1407.4558960841
 30
0.0
 11
607.6528695912999
 21
1407.4558960841
 31
0.0
  0
LINE
  5
2B5
330
1F
100
AcDbEntity
  8
FISHER_PAYKEL
  6
Continuous
 62
    18
420
        0
100
AcDbLine
 10
699.6528695913
 20
1370.4558960841
 30
0.0
 11
565.6528695912999
 21
1370.4558960841
 31
0.0
  0
LINE
  5
2B6
330
1F
100
AcDbEntity
  8
FISHER_PAYKEL
  6
Continuous
 62
    18
420
        0
100
AcDbLine
 10
565.6528695912999
 20
1308.4558960841
 30
0.0
 11
699.6528695913
 21
1308.4558960841
 31
0.0
  0
LINE
  5
2B7
330
1F
100
AcDbEntity
  8
FISHER_PAYKEL
  6
Continuous
 62
     3
420
    65280
100
AcDbLine
 10
351.6528695913
 20
1292.9558960841
 30
0.0
 11
913.6528695913
 21
1292.9558960841
 31
0.0
  0
LINE
  5
2B8
330
1F
100
AcDbEntity
  8
FISHER_PAYKEL
  6
Continuous
 62
    18
420
        0
100
AcDbLine
 10
334.6528695913
 20
1282.4558960841
 30
0.0
 11
930.6528695913
 21
1282.4558960841
 31
0.0
  0
LINE
  5
2B9
330
1F
100
AcDbEntity
  8
FISHER_PAYKEL
  6
Continuous
 62
    18
420
        0
100
AcDbLine
 10
382.6528695913
 20
1409.9558960841
 30
0.0
 11
382.6528695913
 21
1407.4558960841
 31
0.0
  0
LINE
  5
2BA
330
1F
100
AcDbEntity
  8
FISHER_PAYKEL
  6
Continuous
 62
    18
420
        0
100
AcDbLine
 10
382.6528695913
 20
1598.9558960841
 30
0.0
 11
382.6528695913
 21
1596.4558960841
 31
0.0
  0
LINE
  5
2BB
330
1F
100
AcDbEntity
  8
FISHER_PAYKEL
  6
Continuous
 62
    18
420
        0
100
AcDbLine
 10
382.6528695913
 20
1787.9558960841
 30
0.0
 11
382.6528695913
 21
1785.4558960841
 31
0.0
  0
LINE
  5
2BC
330
1F
100
AcDbEntity
  8
FISHER_PAYKEL
  6
Continuous
 62
     3
420
    65280
100
AcDbLine
 10
351.6528695913
 20
1801.9558960841
 30
0.0
 11
351.6528695913
 21
1292.9558960841
 31
0.0
  0
LINE
  5
2BD
330
1F
100
AcDbEntity
  8
FISHER_PAYKEL
  6
Continuous
 62
    18
420
        0
100
AcDbLine
 10
332.6528695913
 20
1810.4558960841
 30
0.0
 11
332.6528695913
 21
1284.4558960841
 31
0.0
  0
LINE
  5
2BE
330
1F
100
AcDbEntity
  8
FISHER_PAYKEL
  6
Continuous
 62
     3
420
    65280
100
AcDbLine
 10
330.6528695913
 20
1284.4558960841
 30
0.0
 11
330.6528695913
 21
1810.4558960841
 31
0.0
  0
LINE
  5
2BF
330
1F
100
AcDbEntity
  8
FISHER_PAYKEL
  6
Continuous
 62
     1
420
 16711680
100
AcDbLine
 10
322.6528695913
 20
1282.4558960841
 30
0.0
 11
322.6528695913
 21
1822.4558960841
 31
0.0
  0
ENDSEC
  0
SECTION
  2
OBJECTS
  0
DICTIONARY
  5
C
330
0
100
AcDbDictionary
281
     1
  3
ACAD_DETAILVIEWSTYLE
350
303
  3
ACAD_GROUP
350
D
  3
ACAD_LAYOUT
350
1A
  3
ACAD_MATERIAL
350
43
  3
ACAD_MLEADERSTYLE
350
6B
  3
ACAD_MLINESTYLE
350
17
  3
ACAD_PLOTSETTINGS
350
19
  3
ACAD_PLOTSTYLENAME
350
E
  3
ACAD_SCALELIST
350
47
  3
ACAD_SECTIONVIEWSTYLE
350
304
  3
ACAD_TABLESTYLE
350
69
  3
ACAD_VISUALSTYLE
350
2A
  3
ACDB_RECOMPOSE_DATA
350
300
  3
AcDbVariableDictionary
350
2C8
  0
SUN
  5
6D
330
29
100
AcDbSun
 90
        1
290
     0
 63
     7
421
 16777215
 40
1.0
291
     1
 91
  2455826
 92
 54000000
292
     0
 70
     2
 71
   256
280
     1
  0
DICTIONARY
  5
303
102
{ACAD_REACTORS
330
C
102
}
330
C
100
AcDbDictionary
281
     1
  0
DICTIONARY
  5
D
102
{ACAD_REACTORS
330
C
102
}
330
C
100
AcDbDictionary
281
     1
  0
DICTIONARY
  5
1A
102
{ACAD_REACTORS
330
C
102
}
330
C
100
AcDbDictionary
281
     1
  3
Layout1
350
1E
  3
Layout2
350
26
  3
Model
350
22
  0
DICTIONARY
  5
43
102
{ACAD_REACTORS
330
C
102
}
330
C
100
AcDbDictionary
281
     1
  3
ByBlock
350
45
  3
ByLayer
350
44
  3
Global
350
46
  0
DICTIONARY
  5
6B
102
{ACAD_REACTORS
330
C
102
}
330
C
100
AcDbDictionary
281
     1
  3
Standard
350
6C
  0
DICTIONARY
  5
17
102
{ACAD_REACTORS
330
C
102
}
330
C
100
AcDbDictionary
281
     1
  3
Standard
350
18
  0
DICTIONARY
  5
19
102
{ACAD_REACTORS
330
C
102
}
330
C
100
AcDbDictionary
281
     1
  0
ACDBDICTIONARYWDFLT
  5
E
102
{ACAD_REACTORS
330
C
102
}
330
C
100
AcDbDictionary
281
     1
  3
Normal
350
F
100
AcDbDictionaryWithDefault
340
F
  0
DICTIONARY
  5
47
102
{ACAD_REACTORS
330
C
102
}
330
C
100
AcDbDictionary
281
     1
  3
A0
350
48
  3
A1
350
49
  3
A2
350
4A
  3
A3
350
4B
  3
A4
350
4C
  3
A5
350
4D
  3
A6
350
4E
  3
A7
350
4F
  3
A8
350
50
  3
A9
350
51
  3
B0
350
52
  3
B1
350
53
  3
B2
350
54
  3
B3
350
55
  3
B4
350
56
  3
B5
350
57
  3
B6
350
58
  3
B7
350
59
  3
B8
350
5A
  3
B9
350
5B
  3
C0
350
5C
  3
C1
350
5D
  3
C2
350
5E
  3
C3
350
5F
  3
C4
350
60
  3
C5
350
61
  3
C6
350
62
  3
C7
350
63
  3
C8
350
64
  3
C9
350
65
  3
D0
350
66
  3
D1
350
67
  3
D2
350
68
  0
DICTIONARY
  5
304
102
{ACAD_REACTORS
330
C
102
}
330
C
100
AcDbDictionary
281
     1
  0
DICTIONARY
  5
69
102
{ACAD_REACTORS
330
C
102
}
330
C
100
AcDbDictionary
281
     1
  3
Standard
350
6A
  0
DICTIONARY
  5
2A
102
{ACAD_REACTORS
330
C
102
}
330
C
100
AcDbDictionary
281
     1
  3
2dWireframe
350
2F
  3
Basic
350
32
  3
Brighten
350
36
  3
ColorChange
350
3A
  3
Conceptual
350
34
  3
Dim
350
35
  3
EdgeColorOff
350
3D
  3
Facepattern
350
39
  3
Flat
350
2B
  3
FlatWithEdges
350
2C
  3
Gouraud
350
2D
  3
GouraudWithEdges
350
2E
  3
Hidden
350
31
  3
JitterOff
350
3B
  3
Linepattern
350
38
  3
OverhangOff
350
3C
  3
Realistic
350
33
  3
Shaded
350
42
  3
Shaded with edges
350
41
  3
Shades of Gray
350
3E
  3
Sketchy
350
3F
  3
Thicken
350
37
  3
Wireframe
350
30
  3
X-Ray
350
40
  0
XRECORD
  5
300
102
{ACAD_REACTORS
330
C
102
}
330
C
100
AcDbXrecord
280
     1
 90
        1
330
6A
  0
DICTIONARY
  5
2C8
102
{ACAD_REACTORS
330
C
102
}
330
C
100
AcDbDictionary
281
     1
  3
CANNOSCALE
350
2C9
  3
CMLEADERSTYLE
350
302
  3
CTABLESTYLE
350
301
  3
XCLIPFRAME
350
2CA
  0
LAYOUT
  5
1E
102
{ACAD_REACTORS
330
1A
102
}
330
1A
100
AcDbPlotSettings
  1

  2
none_device
  4

  6

 40
0.0
 41
0.0
 42
0.0
 43
0.0
 44
0.0
 45
0.0
 46
0.0
 47
0.0
 48
0.0
 49
0.0
140
0.0
141
0.0
142
1.0
143
1.0
 70
   688
 72
     0
 73
     0
 74
     5
  7

 75
    16
 76
     0
 77
     2
 78
   300
147
1.0
148
0.0
149
0.0
100
AcDbLayout
  1
Layout1
 70
     1
 71
     1
 10
0.0
 20
0.0
 11
12.0
 21
9.0
 12
0.0
 22
0.0
 32
0.0
 14
1.000000000000000E+20
 24
1.000000000000000E+20
 34
1.000000000000000E+20
 15
-1.000000000000000E+20
 25
-1.000000000000000E+20
 35
-1.000000000000000E+20
146
0.0
 13
0.0
 23
0.0
 33
0.0
 16
1.0
 26
0.0
 36
0.0
 17
0.0
 27
1.0
 37
0.0
 76
     0
330
1B
  0
LAYOUT
  5
26
102
{ACAD_REACTORS
330
1A
102
}
330
1A
100
AcDbPlotSettings
  1

  2
none_device
  4

  6

 40
0.0
 41
0.0
 42
0.0
 43
0.0
 44
0.0
 45
0.0
 46
0.0
 47
0.0
 48
0.0
 49
0.0
140
0.0
141
0.0
142
1.0
143
1.0
 70
   688
 72
     0
 73
     0
 74
     5
  7

 75
    16
 76
     0
 77
     2
 78
   300
147
1.0
148
0.0
149
0.0
100
AcDbLayout
  1
Layout2
 70
     1
 71
     2
 10
0.0
 20
0.0
 11
0.0
 21
0.0
 12
0.0
 22
0.0
 32
0.0
 14
0.0
 24
0.0
 34
0.0
 15
0.0
 25
0.0
 35
0.0
146
0.0
 13
0.0
 23
0.0
 33
0.0
 16
1.0
 26
0.0
 36
0.0
 17
0.0
 27
1.0
 37
0.0
 76
     0
330
23
  0
LAYOUT
  5
22
102
{ACAD_REACTORS
330
1A
102
}
330
1A
100
AcDbPlotSettings
  1

  2
none_device
  4
Letter_(8.50_x_11.00_Inches)
  6

 40
6.35
 41
6.35
 42
6.35000508
 43
6.35000508
 44
215.9
 45
279.4
 46
0.0
 47
0.0
 48
0.0
 49
0.0
140
0.0
141
0.0
142
1.0
143
1.0
 70
  1712
 72
     0
 73
     0
 74
     0
  7

 75
     0
 76
     0
 77
     2
 78
   300
147
1.0
148
0.0
149
0.0
100
AcDbLayout
  1
Model
 70
     1
 71
     0
 10
0.0
 20
0.0
 11
12.0
 21
9.0
 12
0.0
 22
0.0
 32
0.0
 14
1.000000000000000E+20
 24
1.000000000000000E+20
 34
1.000000000000000E+20
 15
-1.000000000000000E+20
 25
-1.000000000000000E+20
 35
-1.000000000000000E+20
146
0.0
 13
0.0
 23
0.0
 33
0.0
 16
1.0
 26
0.0
 36
0.0
 17
0.0
 27
1.0
 37
0.0
 76
     0
330
1F
331
29
  0
MATERIAL
  5
45
102
{ACAD_REACTORS
330
43
102
}
330
43
100
AcDbMaterial
  1
ByBlock
 72
     1
 94
      127
  0
MATERIAL
  5
44
102
{ACAD_REACTORS
330
43
102
}
330
43
100
AcDbMaterial
  1
ByLayer
 72
     1
 94
      127
  0
MATERIAL
  5
46
102
{ACAD_REACTORS
330
43
102
}
330
43
100
AcDbMaterial
  1
Global
 72
     1
 94
      127
  0
MLEADERSTYLE
  5
6C
102
{ACAD_REACTORS
330
6B
102
}
102
{ACAD_XDICTIONARY
360
2FE
102
}
330
6B
100
AcDbMLeaderStyle
170
     2
171
     1
172
     0
 90
        2
 40
0.0
 41
0.0
173
     1
 91
-1056964608
340
14
 92
       -2
290
     1
 42
0.09
291
     1
 43
0.36
  3
Standard
341
0
 44
0.18
300

342
11
174
     1
178
     6
175
     1
176
     0
 93
-1056964608
 45
0.18
292
     0
297
     0
 46
0.18
343
0
 94
-1056964608
 47
1.0
 49
1.0
140
1.0
293
     1
141
0.0
294
     1
177
     0
142
1.0
295
     0
296
     0
143
0.125
1001
ACAD_MLEADERVER
1070
     2
  0
MLINESTYLE
  5
18
102
{ACAD_REACTORS
330
17
102
}
330
17
100
AcDbMlineStyle
  2
Standard
 70
     0
  3

 62
   256
 51
90.0
 52
90.0
 71
     2
 49
0.5
 62
   256
  6
BYLAYER
 49
-0.5
 62
   256
  6
BYLAYER
  0
ACDBPLACEHOLDER
  5
F
102
{ACAD_REACTORS
330
E
102
}
330
E
  0
SCALE
  5
48
102
{ACAD_REACTORS
330
47
102
}
330
47
100
AcDbScale
 70
     0
300
1:1
140
1.0
141
1.0
290
     1
  0
SCALE
  5
49
102
{ACAD_REACTORS
330
47
102
}
330
47
100
AcDbScale
 70
     0
300
1:2
140
1.0
141
2.0
290
     0
  0
SCALE
  5
4A
102
{ACAD_REACTORS
330
47
102
}
330
47
100
AcDbScale
 70
     0
300
1:4
140
1.0
141
4.0
290
     0
  0
SCALE
  5
4B
102
{ACAD_REACTORS
330
47
102
}
330
47
100
AcDbScale
 70
     0
300
1:5
140
1.0
141
5.0
290
     0
  0
SCALE
  5
4C
102
{ACAD_REACTORS
330
47
102
}
330
47
100
AcDbScale
 70
     0
300
1:8
140
1.0
141
8.0
290
     0
  0
SCALE
  5
4D
102
{ACAD_REACTORS
330
47
102
}
330
47
100
AcDbScale
 70
     0
300
1:10
140
1.0
141
10.0
290
     0
  0
SCALE
  5
4E
102
{ACAD_REACTORS
330
47
102
}
330
47
100
AcDbScale
 70
     0
300
1:16
140
1.0
141
16.0
290
     0
  0
SCALE
  5
4F
102
{ACAD_REACTORS
330
47
102
}
330
47
100
AcDbScale
 70
     0
300
1:20
140
1.0
141
20.0
290
     0
  0
SCALE
  5
50
102
{ACAD_REACTORS
330
47
102
}
330
47
100
AcDbScale
 70
     0
300
1:30
140
1.0
141
30.0
290
     0
  0
SCALE
  5
51
102
{ACAD_REACTORS
330
47
102
}
330
47
100
AcDbScale
 70
     0
300
1:40
140
1.0
141
40.0
290
     0
  0
SCALE
  5
52
102
{ACAD_REACTORS
330
47
102
}
330
47
100
AcDbScale
 70
     0
300
1:50
140
1.0
141
50.0
290
     0
  0
SCALE
  5
53
102
{ACAD_REACTORS
330
47
102
}
330
47
100
AcDbScale
 70
     0
300
1:100
140
1.0
141
100.0
290
     0
  0
SCALE
  5
54
102
{ACAD_REACTORS
330
47
102
}
330
47
100
AcDbScale
 70
     0
300
2:1
140
2.0
141
1.0
290
     0
  0
SCALE
  5
55
102
{ACAD_REACTORS
330
47
102
}
330
47
100
AcDbScale
 70
     0
300
4:1
140
4.0
141
1.0
290
     0
  0
SCALE
  5
56
102
{ACAD_REACTORS
330
47
102
}
330
47
100
AcDbScale
 70
     0
300
8:1
140
8.0
141
1.0
290
     0
  0
SCALE
  5
57
102
{ACAD_REACTORS
330
47
102
}
330
47
100
AcDbScale
 70
     0
300
10:1
140
10.0
141
1.0
290
     0
  0
SCALE
  5
58
102
{ACAD_REACTORS
330
47
102
}
330
47
100
AcDbScale
 70
     0
300
100:1
140
100.0
141
1.0
290
     0
  0
SCALE
  5
59
102
{ACAD_REACTORS
330
47
102
}
330
47
100
AcDbScale
 70
     0
300
1/128" = 1'-0"
140
0.0078125
141
12.0
290
     0
  0
SCALE
  5
5A
102
{ACAD_REACTORS
330
47
102
}
330
47
100
AcDbScale
 70
     0
300
1/64" = 1'-0"
140
0.015625
141
12.0
290
     0
  0
SCALE
  5
5B
102
{ACAD_REACTORS
330
47
102
}
330
47
100
AcDbScale
 70
     0
300
1/32" = 1'-0"
140
0.03125
141
12.0
290
     0
  0
SCALE
  5
5C
102
{ACAD_REACTORS
330
47
102
}
330
47
100
AcDbScale
 70
     0
300
1/16" = 1'-0"
140
0.0625
141
12.0
290
     0
  0
SCALE
  5
5D
102
{ACAD_REACTORS
330
47
102
}
330
47
100
AcDbScale
 70
     0
300
3/32" = 1'-0"
140
0.09375
141
12.0
290
     0
  0
SCALE
  5
5E
102
{ACAD_REACTORS
330
47
102
}
330
47
100
AcDbScale
 70
     0
300
1/8" = 1'-0"
140
0.125
141
12.0
290
     0
  0
SCALE
  5
5F
102
{ACAD_REACTORS
330
47
102
}
330
47
100
AcDbScale
 70
     0
300
3/16" = 1'-0"
140
0.1875
141
12.0
290
     0
  0
SCALE
  5
60
102
{ACAD_REACTORS
330
47
102
}
330
47
100
AcDbScale
 70
     0
300
1/4" = 1'-0"
140
0.25
141
12.0
290
     0
  0
SCALE
  5
61
102
{ACAD_REACTORS
330
47
102
}
330
47
100
AcDbScale
 70
     0
300
3/8" = 1'-0"
140
0.375
141
12.0
290
     0
  0
SCALE
  5
62
102
{ACAD_REACTORS
330
47
102
}
330
47
100
AcDbScale
 70
     0
300
1/2" = 1'-0"
140
0.5
141
12.0
290
     0
  0
SCALE
  5
63
102
{ACAD_REACTORS
330
47
102
}
330
47
100
AcDbScale
 70
     0
300
3/4" = 1'-0"
140
0.75
141
12.0
290
     0
  0
SCALE
  5
64
102
{ACAD_REACTORS
330
47
102
}
330
47
100
AcDbScale
 70
     0
300
1" = 1'-0"
140
1.0
141
12.0
290
     0
  0
SCALE
  5
65
102
{ACAD_REACTORS
330
47
102
}
330
47
100
AcDbScale
 70
     0
300
1-1/2" = 1'-0"
140
1.5
141
12.0
290
     0
  0
SCALE
  5
66
102
{ACAD_REACTORS
330
47
102
}
330
47
100
AcDbScale
 70
     0
300
3" = 1'-0"
140
3.0
141
12.0
290
     0
  0
SCALE
  5
67
102
{ACAD_REACTORS
330
47
102
}
330
47
100
AcDbScale
 70
     0
300
6" = 1'-0"
140
6.0
141
12.0
290
     0
  0
SCALE
  5
68
102
{ACAD_REACTORS
330
47
102
}
330
47
100
AcDbScale
 70
     0
300
1'-0" = 1'-0"
140
12.0
141
12.0
290
     0
  0
TABLESTYLE
  5
6A
102
{ACAD_REACTORS
330
69
102
}
102
{ACAD_XDICTIONARY
360
2FB
102
}
330
69
100
AcDbTableStyle
  3
Standard
 70
     0
 71
     0
 40
0.06
 41
0.06
280
     0
281
     0
  7
Standard
140
0.18
170
     2
 62
     0
 63
   257
283
     0
 90
        4
 91
        0
  1

274
    -2
284
     1
 64
     0
275
    -2
285
     1
 65
     0
276
    -2
286
     1
 66
     0
277
    -2
287
     1
 67
     0
278
    -2
288
     1
 68
     0
279
    -2
289
     1
 69
     0
  7
Standard
140
0.25
170
     5
 62
     0
 63
   257
283
     0
 90
        4
 91
        0
  1

274
    -2
284
     1
 64
     0
275
    -2
285
     1
 65
     0
276
    -2
286
     1
 66
     0
277
    -2
287
     1
 67
     0
278
    -2
288
     1
 68
     0
279
    -2
289
     1
 69
     0
  7
Standard
140
0.18
170
     5
 62
     0
 63
   257
283
     0
 90
        4
 91
        0
  1

274
    -2
284
     1
 64
     0
275
    -2
285
     1
 65
     0
276
    -2
286
     1
 66
     0
277
    -2
287
     1
 67
     0
278
    -2
288
     1
 68
     0
279
    -2
289
     1
 69
     0
  0
VISUALSTYLE
  5
2F
102
{ACAD_REACTORS
330
2A
102
}
102
{ACAD_XDICTIONARY
360
2D3
102
}
330
2A
100
AcDbVisualStyle
  2
2dWireframe
 70
     4
 71
     0
 72
     2
 73
     0
 90
        0
 40
0.6
 41
30.0
 62
     5
 63
     7
421
 16777215
 74
     1
 91
        4
 64
     7
 65
   257
 75
     1
175
     1
 42
1.0
 92
        0
 66
   257
 43
1.0
 76
     1
 77
     6
 78
     2
 67
     7
 79
     5
170
     0
171
     0
290
     0
174
     0
 93
        1
 44
0.0
173
     0
291
     0
 45
0.0
  0
VISUALSTYLE
  5
32
102
{ACAD_REACTORS
330
2A
102
}
102
{ACAD_XDICTIONARY
360
2D9
102
}
330
2A
100
AcDbVisualStyle
  2
Basic
 70
     7
 71
     1
 72
     0
 73
     1
 90
        0
 40
0.6
 41
30.0
 62
     5
 63
     7
421
 16777215
 74
     0
 91
        4
 64
     7
 65
   257
 75
     1
175
     1
 42
1.0
 92
        8
 66
     7
 43
1.0
 76
     1
 77
     6
 78
     2
 67
     7
 79
     5
170
     0
171
     0
290
     0
174
     0
 93
        1
 44
0.0
173
     0
291
     1
 45
0.0
  0
VISUALSTYLE
  5
36
102
{ACAD_REACTORS
330
2A
102
}
102
{ACAD_XDICTIONARY
360
2E1
102
}
330
2A
100
AcDbVisualStyle
  2
Brighten
 70
    12
 71
     2
 72
     2
 73
     0
 90
        0
 40
0.6
 41
30.0
 62
     5
 63
     7
421
 16777215
 74
     1
 91
        4
 64
     7
 65
   257
 75
     1
175
     1
 42
1.0
 92
        8
 66
     7
 43
1.0
 76
     1
 77
     6
 78
     2
 67
     7
 79
     5
170
     0
171
     0
290
     0
174
     0
 93
        1
 44
50.0
173
     0
291
     1
 45
0.0
  0
VISUALSTYLE
  5
3A
102
{ACAD_REACTORS
330
2A
102
}
102
{ACAD_XDICTIONARY
360
2E9
102
}
330
2A
100
AcDbVisualStyle
  2
ColorChange
 70
    16
 71
     2
 72
     2
 73
     3
 90
        0
 40
0.6
 41
30.0
 62
     5
 63
     8
421
  8421504
 74
     1
 91
        4
 64
     7
 65
   257
 75
     1
175
     1
 42
1.0
 92
        8
 66
     8
424
  8421504
 43
1.0
 76
     1
 77
     6
 78
     2
 67
     7
 79
     5
170
     0
171
     0
290
     0
174
     0
 93
        1
 44
0.0
173
     0
291
     1
 45
0.0
  0
VISUALSTYLE
  5
34
102
{ACAD_REACTORS
330
2A
102
}
102
{ACAD_XDICTIONARY
360
2DD
102
}
330
2A
100
AcDbVisualStyle
  2
Conceptual
 70
     9
 71
     3
 72
     2
 73
     0
 90
        0
 40
0.6
 41
30.0
 62
     5
 63
     7
421
 16777215
 74
     2
 91
        2
 64
     7
 65
   257
 75
     1
175
     1
 42
179.0
 92
        8
 66
     7
 43
1.0
 76
     1
 77
     6
 78
     2
 67
     7
 79
     3
170
     0
171
     0
290
     0
174
     0
 93
        1
 44
0.0
173
     0
291
     0
 45
0.0
  0
VISUALSTYLE
  5
35
102
{ACAD_REACTORS
330
2A
102
}
102
{ACAD_XDICTIONARY
360
2DF
102
}
330
2A
100
AcDbVisualStyle
  2
Dim
 70
    11
 71
     2
 72
     2
 73
     0
 90
        0
 40
0.6
 41
30.0
 62
     5
 63
     7
421
 16777215
 74
     1
 91
        4
 64
     7
 65
   257
 75
     1
175
     1
 42
1.0
 92
        8
 66
     7
 43
1.0
 76
     1
 77
     6
 78
     2
 67
     7
 79
     5
170
     0
171
     0
290
     0
174
     0
 93
        1
 44
-50.0
173
     0
291
     1
 45
0.0
  0
VISUALSTYLE
  5
3D
102
{ACAD_REACTORS
330
2A
102
}
102
{ACAD_XDICTIONARY
360
2EF
102
}
330
2A
100
AcDbVisualStyle
  2
EdgeColorOff
 70
    22
 71
     2
 72
     2
 73
     0
 90
        0
 40
0.6
 41
30.0
 62
     5
 63
     7
421
 16777215
 74
     1
 91
        4
 64
     7
 65
   257
 75
     1
175
     1
 42
1.0
 92
        8
 66
     7
 43
1.0
 76
     1
 77
     6
 78
     2
 67
     7
 79
     5
170
     0
171
     0
290
     0
174
     0
 93
        1
 44
0.0
173
     0
291
     1
 45
0.0
  0
VISUALSTYLE
  5
39
102
{ACAD_REACTORS
330
2A
102
}
102
{ACAD_XDICTIONARY
360
2E7
102
}
330
2A
100
AcDbVisualStyle
  2
Facepattern
 70
    15
 71
     2
 72
     2
 73
     0
 90
        0
 40
0.6
 41
30.0
 62
     5
 63
     7
421
 16777215
 74
     1
 91
        4
 64
     7
 65
   257
 75
     1
175
     1
 42
1.0
 92
        8
 66
     7
 43
1.0
 76
     1
 77
     6
 78
     2
 67
     7
 79
     5
170
     0
171
     0
290
     0
174
     0
 93
        1
 44
0.0
173
     0
291
     1
 45
0.0
  0
VISUALSTYLE
  5
2B
102
{ACAD_REACTORS
330
2A
102
}
102
{ACAD_XDICTIONARY
360
2CB
102
}
330
2A
100
AcDbVisualStyle
  2
Flat
 70
     0
 71
     2
 72
     1
 73
     1
 90
        2
 40
0.6
 41
30.0
 62
     5
 63
     7
421
 16777215
 74
     0
 91
        0
 64
     7
 65
   257
 75
     1
175
     1
 42
1.0
 92
        8
 66
     7
 43
1.0
 76
     1
 77
     6
 78
     2
 67
     7
 79
     5
170
     0
171
     0
290
     0
174
     0
 93
       13
 44
0.0
173
     0
291
     1
 45
0.0
  0
VISUALSTYLE
  5
2C
102
{ACAD_REACTORS
330
2A
102
}
102
{ACAD_XDICTIONARY
360
2CD
102
}
330
2A
100
AcDbVisualStyle
  2
FlatWithEdges
 70
     1
 71
     2
 72
     1
 73
     1
 90
        2
 40
0.6
 41
30.0
 62
     5
 63
     7
421
 16777215
 74
     1
 91
        0
 64
     7
 65
   257
 75
     1
175
     1
 42
1.0
 92
        0
 66
   257
 43
1.0
 76
     1
 77
     6
 78
     2
 67
     7
 79
     5
170
     0
171
     0
290
     0
174
     0
 93
       13
 44
0.0
173
     0
291
     1
 45
0.0
  0
VISUALSTYLE
  5
2D
102
{ACAD_REACTORS
330
2A
102
}
102
{ACAD_XDICTIONARY
360
2CF
102
}
330
2A
100
AcDbVisualStyle
  2
Gouraud
 70
     2
 71
     2
 72
     2
 73
     1
 90
        2
 40
0.6
 41
30.0
 62
     5
 63
     7
421
 16777215
 74
     0
 91
        0
 64
     7
 65
   257
 75
     1
175
     1
 42
1.0
 92
        0
 66
     7
 43
1.0
 76
     1
 77
     6
 78
     2
 67
     7
 79
     5
170
     0
171
     0
290
     0
174
     0
 93
       13
 44
0.0
173
     0
291
     1
 45
0.0
  0
VISUALSTYLE
  5
2E
102
{ACAD_REACTORS
330
2A
102
}
102
{ACAD_XDICTIONARY
360
2D1
102
}
330
2A
100
AcDbVisualStyle
  2
GouraudWithEdges
 70
     3
 71
     2
 72
     2
 73
     1
 90
        2
 40
0.6
 41
30.0
 62
     5
 63
     7
421
 16777215
 74
     1
 91
        0
 64
     7
 65
   257
 75
     1
175
     1
 42
1.0
 92
        0
 66
   257
 43
1.0
 76
     1
 77
     6
 78
     2
 67
     7
 79
     5
170
     0
171
     0
290
     0
174
     0
 93
       13
 44
0.0
173
     0
291
     1
 45
0.0
  0
VISUALSTYLE
  5
31
102
{ACAD_REACTORS
330
2A
102
}
102
{ACAD_XDICTIONARY
360
2D7
102
}
330
2A
100
AcDbVisualStyle
  2
Hidden
 70
     6
 71
     1
 72
     2
 73
     2
 90
        0
 40
0.6
 41
30.0
 62
     5
 63
     7
421
 16777215
 74
     2
 91
        2
 64
     7
 65
   257
 75
     2
175
     1
 42
40.0
 92
        0
 66
   257
 43
1.0
 76
     1
 77
     6
 78
     2
 67
     7
 79
     3
170
     0
171
     0
290
     0
174
     0
 93
        1
 44
0.0
173
     0
291
     0
 45
0.0
  0
VISUALSTYLE
  5
3B
102
{ACAD_REACTORS
330
2A
102
}
102
{ACAD_XDICTIONARY
360
2EB
102
}
330
2A
100
AcDbVisualStyle
  2
JitterOff
 70
    20
 71
     2
 72
     2
 73
     0
 90
        0
 40
0.6
 41
30.0
 62
     5
 63
     7
421
 16777215
 74
     1
 91
        4
 64
     7
 65
   257
 75
     1
175
     1
 42
1.0
 92
       10
 66
     7
 43
1.0
 76
     1
 77
     6
 78
     2
 67
     7
 79
     5
170
     0
171
     0
290
     0
174
     0
 93
        1
 44
0.0
173
     0
291
     1
 45
0.0
  0
VISUALSTYLE
  5
38
102
{ACAD_REACTORS
330
2A
102
}
102
{ACAD_XDICTIONARY
360
2E5
102
}
330
2A
100
AcDbVisualStyle
  2
Linepattern
 70
    14
 71
     2
 72
     2
 73
     0
 90
        0
 40
0.6
 41
30.0
 62
     5
 63
     7
421
 16777215
 74
     1
 91
        4
 64
     7
 65
   257
 75
     7
175
     7
 42
1.0
 92
        8
 66
     7
 43
1.0
 76
     1
 77
     6
 78
     2
 67
     7
 79
     5
170
     0
171
     0
290
     0
174
     0
 93
        1
 44
0.0
173
     0
291
     1
 45
0.0
  0
VISUALSTYLE
  5
3C
102
{ACAD_REACTORS
330
2A
102
}
102
{ACAD_XDICTIONARY
360
2ED
102
}
330
2A
100
AcDbVisualStyle
  2
OverhangOff
 70
    21
 71
     2
 72
     2
 73
     0
 90
        0
 40
0.6
 41
30.0
 62
     5
 63
     7
421
 16777215
 74
     1
 91
        4
 64
     7
 65
   257
 75
     1
175
     1
 42
1.0
 92
        9
 66
     7
 43
1.0
 76
     1
 77
     6
 78
     2
 67
     7
 79
     5
170
     0
171
     0
290
     0
174
     0
 93
        1
 44
0.0
173
     0
291
     1
 45
0.0
  0
VISUALSTYLE
  5
33
102
{ACAD_REACTORS
330
2A
102
}
102
{ACAD_XDICTIONARY
360
2DB
102
}
330
2A
100
AcDbVisualStyle
  2
Realistic
 70
     8
 71
     2
 72
     3
 73
     0
 90
        2
 40
0.6
 41
30.0
 62
     5
 63
     7
421
 16777215
 74
     0
 91
        0
 64
     7
 65
   257
 75
     1
175
     1
 42
1.0
 92
        8
 66
   257
 43
1.0
 76
     1
 77
     6
 78
     2
 67
     7
 79
     3
170
     0
171
     0
290
     0
174
     0
 93
       13
 44
0.0
173
     0
291
     0
 45
0.0
  0
VISUALSTYLE
  5
42
102
{ACAD_REACTORS
330
2A
102
}
102
{ACAD_XDICTIONARY
360
2F9
102
}
330
2A
100
AcDbVisualStyle
  2
Shaded
 70
    27
 71
     2
 72
     2
 73
     1
 90
        2
 40
0.6
 41
30.0
 62
     5
 63
     7
421
 16777215
 74
     0
 91
        4
 64
     7
 65
   257
 75
     1
175
     1
 42
1.0
 92
        8
 66
   257
 43
1.0
 76
     1
 77
     6
 78
     2
 67
     8
425
  7895160
 79
     3
170
     0
171
     0
290
     0
174
     0
 93
        5
 44
0.0
173
     0
291
     0
 45
0.0
  0
VISUALSTYLE
  5
41
102
{ACAD_REACTORS
330
2A
102
}
102
{ACAD_XDICTIONARY
360
2F7
102
}
330
2A
100
AcDbVisualStyle
  2
Shaded with edges
 70
    26
 71
     2
 72
     2
 73
     1
 90
        2
 40
0.6
 41
30.0
 62
     5
 63
     7
421
 16777215
 74
     1
 91
       10
 64
     7
 65
   257
 75
     2
175
     1
 42
1.0
 92
        8
 66
   257
 43
1.0
 76
     1
 77
     6
 78
     2
 67
     7
 79
     3
170
     0
171
     0
290
     0
174
     0
 93
        5
 44
0.0
173
     0
291
     0
 45
0.0
  0
VISUALSTYLE
  5
3E
102
{ACAD_REACTORS
330
2A
102
}
102
{ACAD_XDICTIONARY
360
2F1
102
}
330
2A
100
AcDbVisualStyle
  2
Shades of Gray
 70
    23
 71
     2
 72
     2
 73
     3
 90
        0
 40
0.6
 41
30.0
 62
     5
 63
     7
421
 16777215
 74
     2
 91
        2
 64
     7
 65
     7
 75
     1
175
     1
 42
40.0
 92
        8
 66
     7
 43
1.0
 76
     1
 77
     6
 78
     2
 67
     7
 79
     3
170
     0
171
     0
290
     0
174
     0
 93
        1
 44
0.0
173
     0
291
     0
 45
0.0
  0
VISUALSTYLE
  5
3F
102
{ACAD_REACTORS
330
2A
102
}
102
{ACAD_XDICTIONARY
360
2F3
102
}
330
2A
100
AcDbVisualStyle
  2
Sketchy
 70
    24
 71
     1
 72
     2
 73
     2
 90
        0
 40
0.6
 41
30.0
 62
     5
 63
     7
421
 16777215
 74
     2
 91
        2
 64
     7
 65
     7
 75
     1
175
     1
 42
40.0
 92
       11
 66
     7
 43
1.0
 76
     1
 77
     6
 78
     2
 67
     7
 79
     6
170
     0
171
     0
290
     0
174
     0
 93
        1
 44
0.0
173
     0
291
     0
 45
0.0
  0
VISUALSTYLE
  5
37
102
{ACAD_REACTORS
330
2A
102
}
102
{ACAD_XDICTIONARY
360
2E3
102
}
330
2A
100
AcDbVisualStyle
  2
Thicken
 70
    13
 71
     2
 72
     2
 73
     0
 90
        0
 40
0.6
 41
30.0
 62
     5
 63
     7
421
 16777215
 74
     1
 91
        4
 64
     7
 65
   257
 75
     1
175
     1
 42
1.0
 92
       12
 66
     7
 43
1.0
 76
     1
 77
     6
 78
     2
 67
     7
 79
     5
170
     0
171
     0
290
     0
174
     0
 93
        1
 44
0.0
173
     0
291
     1
 45
0.0
  0
VISUALSTYLE
  5
30
102
{ACAD_REACTORS
330
2A
102
}
102
{ACAD_XDICTIONARY
360
2D5
102
}
330
2A
100
AcDbVisualStyle
  2
Wireframe
 70
     5
 71
     0
 72
     2
 73
     0
 90
        0
 40
0.6
 41
30.0
 62
     5
 63
     7
421
 16777215
 74
     1
 91
        4
 64
     7
 65
   257
 75
     1
175
     1
 42
1.0
 92
        0
 66
   257
 43
1.0
 76
     1
 77
     6
 78
     2
 67
     7
 79
     3
170
     0
171
     0
290
     0
174
     0
 93
        1
 44
0.0
173
     0
291
     0
 45
0.0
  0
VISUALSTYLE
  5
40
102
{ACAD_REACTORS
330
2A
102
}
102
{ACAD_XDICTIONARY
360
2F5
102
}
330
2A
100
AcDbVisualStyle
  2
X-Ray
 70
    25
 71
     2
 72
     2
 73
     1
 90
        1
 40
0.5
 41
30.0
 62
     5
 63
     7
421
 16777215
 74
     1
 91
        0
 64
     7
 65
   257
 75
     1
175
     1
 42
1.0
 92
        8
 66
     7
 43
1.0
 76
     1
 77
     6
 78
     2
 67
     7
 79
     3
170
     0
171
     0
290
     0
174
     0
 93
       13
 44
0.0
173
     0
291
     0
 45
0.0
  0
DICTIONARYVAR
  5
2C9
102
{ACAD_REACTORS
330
2C8
102
}
330
2C8
100
DictionaryVariables
280
     0
  1
1:1
  0
DICTIONARYVAR
  5
302
102
{ACAD_REACTORS
330
2C8
102
}
330
2C8
100
DictionaryVariables
280
     0
  1
Standard
  0
DICTIONARYVAR
  5
301
102
{ACAD_REACTORS
330
2C8
102
}
330
2C8
100
DictionaryVariables
280
     0
  1
Standard
  0
DICTIONARYVAR
  5
2CA
102
{ACAD_REACTORS
330
2C8
102
}
330
2C8
100
DictionaryVariables
280
     0
  1
2
  0
DICTIONARY
  5
2FE
330
6C
100
AcDbDictionary
280
     1
281
     1
  3
ACAD_XREC_ROUNDTRIP
360
2FF
  0
DICTIONARY
  5
2FB
330
6A
100
AcDbDictionary
280
     1
281
     1
  3
ACAD_ROUNDTRIP_2008_TABLESTYLE_CELLSTYLEMAP
360
2FC
  0
DICTIONARY
  5
2D3
330
2F
100
AcDbDictionary
280
     1
281
     1
  3
ACAD_XREC_ROUNDTRIP
360
2D4
  0
DICTIONARY
  5
2D9
330
32
100
AcDbDictionary
280
     1
281
     1
  3
ACAD_XREC_ROUNDTRIP
360
2DA
  0
DICTIONARY
  5
2E1
330
36
100
AcDbDictionary
280
     1
281
     1
  3
ACAD_XREC_ROUNDTRIP
360
2E2
  0
DICTIONARY
  5
2E9
330
3A
100
AcDbDictionary
280
     1
281
     1
  3
ACAD_XREC_ROUNDTRIP
360
2EA
  0
DICTIONARY
  5
2DD
330
34
100
AcDbDictionary
280
     1
281
     1
  3
ACAD_XREC_ROUNDTRIP
360
2DE
  0
DICTIONARY
  5
2DF
330
35
100
AcDbDictionary
280
     1
281
     1
  3
ACAD_XREC_ROUNDTRIP
360
2E0
  0
DICTIONARY
  5
2EF
330
3D
100
AcDbDictionary
280
     1
281
     1
  3
ACAD_XREC_ROUNDTRIP
360
2F0
  0
DICTIONARY
  5
2E7
330
39
100
AcDbDictionary
280
     1
281
     1
  3
ACAD_XREC_ROUNDTRIP
360
2E8
  0
DICTIONARY
  5
2CB
330
2B
100
AcDbDictionary
280
     1
281
     1
  3
ACAD_XREC_ROUNDTRIP
360
2CC
  0
DICTIONARY
  5
2CD
330
2C
100
AcDbDictionary
280
     1
281
     1
  3
ACAD_XREC_ROUNDTRIP
360
2CE
  0
DICTIONARY
  5
2CF
330
2D
100
AcDbDictionary
280
     1
281
     1
  3
ACAD_XREC_ROUNDTRIP
360
2D0
  0
DICTIONARY
  5
2D1
330
2E
100
AcDbDictionary
280
     1
281
     1
  3
ACAD_XREC_ROUNDTRIP
360
2D2
  0
DICTIONARY
  5
2D7
330
31
100
AcDbDictionary
280
     1
281
     1
  3
ACAD_XREC_ROUNDTRIP
360
2D8
  0
DICTIONARY
  5
2EB
330
3B
100
AcDbDictionary
280
     1
281
     1
  3
ACAD_XREC_ROUNDTRIP
360
2EC
  0
DICTIONARY
  5
2E5
330
38
100
AcDbDictionary
280
     1
281
     1
  3
ACAD_XREC_ROUNDTRIP
360
2E6
  0
DICTIONARY
  5
2ED
330
3C
100
AcDbDictionary
280
     1
281
     1
  3
ACAD_XREC_ROUNDTRIP
360
2EE
  0
DICTIONARY
  5
2DB
330
33
100
AcDbDictionary
280
     1
281
     1
  3
ACAD_XREC_ROUNDTRIP
360
2DC
  0
DICTIONARY
  5
2F9
330
42
100
AcDbDictionary
280
     1
281
     1
  3
ACAD_XREC_ROUNDTRIP
360
2FA
  0
DICTIONARY
  5
2F7
330
41
100
AcDbDictionary
280
     1
281
     1
  3
ACAD_XREC_ROUNDTRIP
360
2F8
  0
DICTIONARY
  5
2F1
330
3E
100
AcDbDictionary
280
     1
281
     1
  3
ACAD_XREC_ROUNDTRIP
360
2F2
  0
DICTIONARY
  5
2F3
330
3F
100
AcDbDictionary
280
     1
281
     1
  3
ACAD_XREC_ROUNDTRIP
360
2F4
  0
DICTIONARY
  5
2E3
330
37
100
AcDbDictionary
280
     1
281
     1
  3
ACAD_XREC_ROUNDTRIP
360
2E4
  0
DICTIONARY
  5
2D5
330
30
100
AcDbDictionary
280
     1
281
     1
  3
ACAD_XREC_ROUNDTRIP
360
2D6
  0
DICTIONARY
  5
2F5
330
40
100
AcDbDictionary
280
     1
281
     1
  3
ACAD_XREC_ROUNDTRIP
360
2F6
  0
XRECORD
  5
2FF
102
{ACAD_REACTORS
330
2FE
102
}
330
2FE
100
AcDbXrecord
280
     1
102
ACAD_ROUNDTRIP_2010_MLEADER_STYLE
  0
CELLSTYLEMAP
  5
2FC
102
{ACAD_REACTORS
330
2FB
102
}
330
2FB
100
AcDbCellStyleMap
 90
        3
300
CELLSTYLE
  1
TABLEFORMAT_BEGIN
 90
        5
170
     1
 91
        0
 92
    32768
 62
   257
 93
        1
300
CONTENTFORMAT
  1
CONTENTFORMAT_BEGIN
 90
        0
 91
        0
 92
        4
 93
        0
300

 40
0.0
140
1.0
 94
        5
 62
     0
340
11
144
0.25
309
CONTENTFORMAT_END
171
     1
301
MARGIN
  1
CELLMARGIN_BEGIN
 40
0.06
 40
0.06
 40
0.06
 40
0.06
 40
0.06
 40
0.06
309
CELLMARGIN_END
 94
        6
 95
        1
302
GRIDFORMAT
  1
GRIDFORMAT_BEGIN
 90
        0
 91
        1
 62
     0
 92
       -2
340
14
 93
        0
 40
0.045
309
GRIDFORMAT_END
 95
        2
302
GRIDFORMAT
  1
GRIDFORMAT_BEGIN
 90
        0
 91
        1
 62
     0
 92
       -2
340
14
 93
        0
 40
0.045
309
GRIDFORMAT_END
 95
        4
302
GRIDFORMAT
  1
GRIDFORMAT_BEGIN
 90
        0
 91
        1
 62
     0
 92
       -2
340
14
 93
        0
 40
0.045
309
GRIDFORMAT_END
 95
        8
302
GRIDFORMAT
  1
GRIDFORMAT_BEGIN
 90
        0
 91
        1
 62
     0
 92
       -2
340
14
 93
        0
 40
0.045
309
GRIDFORMAT_END
 95
       16
302
GRIDFORMAT
  1
GRIDFORMAT_BEGIN
 90
        0
 91
        1
 62
     0
 92
       -2
340
14
 93
        0
 40
0.045
309
GRIDFORMAT_END
 95
       32
302
GRIDFORMAT
  1
GRIDFORMAT_BEGIN
 90
        0
 91
        1
 62
     0
 92
       -2
340
14
 93
        0
 40
0.045
309
GRIDFORMAT_END
309
TABLEFORMAT_END
  1
CELLSTYLE_BEGIN
 90
        1
 91
        1
300
_TITLE
309
CELLSTYLE_END
300
CELLSTYLE
  1
TABLEFORMAT_BEGIN
 90
        5
170
     1
 91
        0
 92
        0
 62
   257
 93
        1
300
CONTENTFORMAT
  1
CONTENTFORMAT_BEGIN
 90
        0
 91
        0
 92
        4
 93
        0
300

 40
0.0
140
1.0
 94
        5
 62
     0
340
11
144
0.18
309
CONTENTFORMAT_END
171
     1
301
MARGIN
  1
CELLMARGIN_BEGIN
 40
0.06
 40
0.06
 40
0.06
 40
0.06
 40
0.06
 40
0.06
309
CELLMARGIN_END
 94
        6
 95
        1
302
GRIDFORMAT
  1
GRIDFORMAT_BEGIN
 90
        0
 91
        1
 62
     0
 92
       -2
340
14
 93
        0
 40
0.045
309
GRIDFORMAT_END
 95
        2
302
GRIDFORMAT
  1
GRIDFORMAT_BEGIN
 90
        0
 91
        1
 62
     0
 92
       -2
340
14
 93
        0
 40
0.045
309
GRIDFORMAT_END
 95
        4
302
GRIDFORMAT
  1
GRIDFORMAT_BEGIN
 90
        0
 91
        1
 62
     0
 92
       -2
340
14
 93
        0
 40
0.045
309
GRIDFORMAT_END
 95
        8
302
GRIDFORMAT
  1
GRIDFORMAT_BEGIN
 90
        0
 91
        1
 62
     0
 92
       -2
340
14
 93
        0
 40
0.045
309
GRIDFORMAT_END
 95
       16
302
GRIDFORMAT
  1
GRIDFORMAT_BEGIN
 90
        0
 91
        1
 62
     0
 92
       -2
340
14
 93
        0
 40
0.045
309
GRIDFORMAT_END
 95
       32
302
GRIDFORMAT
  1
GRIDFORMAT_BEGIN
 90
        0
 91
        1
 62
     0
 92
       -2
340
14
 93
        0
 40
0.045
309
GRIDFORMAT_END
309
TABLEFORMAT_END
  1
CELLSTYLE_BEGIN
 90
        2
 91
        1
300
_HEADER
309
CELLSTYLE_END
300
CELLSTYLE
  1
TABLEFORMAT_BEGIN
 90
        5
170
     1
 91
        0
 92
        0
 62
   257
 93
        1
300
CONTENTFORMAT
  1
CONTENTFORMAT_BEGIN
 90
        0
 91
        0
 92
        4
 93
        0
300

 40
0.0
140
1.0
 94
        2
 62
     0
340
11
144
0.18
309
CONTENTFORMAT_END
171
     1
301
MARGIN
  1
CELLMARGIN_BEGIN
 40
0.06
 40
0.06
 40
0.06
 40
0.06
 40
0.06
 40
0.06
309
CELLMARGIN_END
 94
        6
 95
        1
302
GRIDFORMAT
  1
GRIDFORMAT_BEGIN
 90
        0
 91
        1
 62
     0
 92
       -2
340
14
 93
        0
 40
0.045
309
GRIDFORMAT_END
 95
        2
302
GRIDFORMAT
  1
GRIDFORMAT_BEGIN
 90
        0
 91
        1
 62
     0
 92
       -2
340
14
 93
        0
 40
0.045
309
GRIDFORMAT_END
 95
        4
302
GRIDFORMAT
  1
GRIDFORMAT_BEGIN
 90
        0
 91
        1
 62
     0
 92
       -2
340
14
 93
        0
 40
0.045
309
GRIDFORMAT_END
 95
        8
302
GRIDFORMAT
  1
GRIDFORMAT_BEGIN
 90
        0
 91
        1
 62
     0
 92
       -2
340
14
 93
        0
 40
0.045
309
GRIDFORMAT_END
 95
       16
302
GRIDFORMAT
  1
GRIDFORMAT_BEGIN
 90
        0
 91
        1
 62
     0
 92
       -2
340
14
 93
        0
 40
0.045
309
GRIDFORMAT_END
 95
       32
302
GRIDFORMAT
  1
GRIDFORMAT_BEGIN
 90
        0
 91
        1
 62
     0
 92
       -2
340
14
 93
        0
 40
0.045
309
GRIDFORMAT_END
309
TABLEFORMAT_END
  1
CELLSTYLE_BEGIN
 90
        3
 91
        2
300
_DATA
309
CELLSTYLE_END
  0
XRECORD
  5
2D4
102
{ACAD_REACTORS
330
2D3
102
}
330
2D3
100
AcDbXrecord
280
     1
102
RTVSPropertyOp0
 70
     1
102
RTVSPropertyOp1
 70
     1
102
RTVSPropertyOp2
 70
     1
102
RTVSPropertyOp3
 70
     1
102
RTVSPropertyOp4
 70
     1
102
RTVSPropertyOp5
 70
     1
102
RTVSPropertyOp6
 70
     1
102
RTVSPropertyOp7
 70
     1
102
RTVSPropertyOp8
 70
     1
102
RTVSPropertyOp9
 70
     1
102
RTVSPropertyOp10
 70
     1
102
RTVSPropertyOp11
 70
     1
102
RTVSPropertyOp12
 70
     1
102
RTVSPropertyOp13
 70
     1
102
RTVSPropertyOp14
 70
     1
102
RTVSPropertyOp15
 70
     1
102
RTVSPropertyOp16
 70
     1
102
RTVSPropertyOp17
 70
     1
102
RTVSPropertyOp18
 70
     1
102
RTVSPropertyOp19
 70
     1
102
RTVSPropertyOp20
 70
     1
102
RTVSPropertyOp21
 70
     1
102
RTVSPropertyOp22
 70
     1
102
RTVSPropertyOp23
 70
     1
102
RTVSPropertyOp24
 70
     1
102
RTVSPropertyOp25
 70
     1
102
RTVSPropertyOp26
 70
     1
102
RTVSPropertyOp27
 70
     1
102
RTVSPropertyOp28
 70
     1
102
RTVSPropertyOp29
 70
     1
102
RTVSPropertyOp30
 70
     1
102
RTVSPropertyOp31
 70
     1
102
RTVSPropertyOp32
 70
     1
102
RTVSPropertyOp33
 70
     1
102
RTVSPropertyOp34
 70
     1
102
RTVSPropertyOp35
 70
     1
102
RTVSPropertyOp36
 70
     1
102
RTVSPropertyOp37
 70
     1
102
RTVSPropertyOp38
 70
     1
102
RTVSPropertyOp39
 70
     1
102
RTVSPropertyOp40
 70
     1
102
RTVSPropertyOp41
 70
     1
102
RTVSPropertyOp42
 70
     1
102
RTVSPropertyOp43
 70
     1
102
RTVSPropertyOp44
 70
     1
102
RTVSPropertyOp45
 70
     1
102
RTVSPropertyOp46
 70
     1
102
RTVSPropertyOp47
 70
     1
102
RTVSPropertyOp48
 70
     1
102
RTVSPropertyOp49
 70
     1
102
RTVSPropertyOp50
 70
     1
102
RTVSPropertyOp51
 70
     0
102
RTVSPropertyOp52
 70
     0
102
RTVSPropertyOp53
 70
     1
102
RTVSPropertyOp54
 70
     1
102
RTVSPropertyOp55
 70
     1
102
RTVSPropertyOp56
 70
     1
102
RTVSPropertyOp57
 70
     1
102
RTVSPost2010Prop28
280
     1
102
RTVSPost2010PropOp28
 70
     1
102
RTVSPost2010Prop29
280
     1
102
RTVSPost2010PropOp29
 70
     1
102
RTVSPost2010Prop30
280
     0
102
RTVSPost2010PropOp30
 70
     1
102
RTVSPost2010Prop31
280
     0
102
RTVSPost2010PropOp31
 70
     1
102
RTVSPost2010Prop32
280
     0
102
RTVSPost2010PropOp32
 70
     1
102
RTVSPost2010Prop33
280
     0
102
RTVSPost2010PropOp33
 70
     1
102
RTVSPost2010Prop34
280
     0
102
RTVSPost2010PropOp34
 70
     1
102
RTVSPost2010Prop35
280
     0
102
RTVSPost2010PropOp35
 70
     1
102
RTVSPost2010Prop36
280
     0
102
RTVSPost2010PropOp36
 70
     1
102
RTVSPost2010Prop37
 90
       50
102
RTVSPost2010PropOp37
 70
     1
102
RTVSPost2010Prop38
140
0.0
102
RTVSPost2010PropOp38
 70
     1
102
RTVSPost2010Prop39
140
1.0
102
RTVSPost2010PropOp39
 70
     1
102
RTVSPost2010Prop40
 90
        0
102
RTVSPost2010PropOp40
 70
     1
102
RTVSPost2010Prop41ColorIndex
 90
       18
102
RTVSPost2010Prop41ColorRGB
 90
        0
102
RTVSPost2010PropOp41
 70
     1
102
RTVSPost2010Prop42
 90
       50
102
RTVSPost2010PropOp42
 70
     1
102
RTVSPost2010Prop43
 90
        3
102
RTVSPost2010PropOp43
 70
     1
102
RTVSPost2010Prop44ColorIndex
 90
        5
102
RTVSPost2010Prop44ColorRGB
 90
      255
102
RTVSPost2010PropOp44
 70
     1
102
RTVSPost2010Prop45
280
     0
102
RTVSPost2010PropOp45
 70
     1
102
RTVSPost2010Prop46
 90
       50
102
RTVSPost2010PropOp46
 70
     1
102
RTVSPost2010Prop47
 90
       50
102
RTVSPost2010PropOp47
 70
     1
102
RTVSPost2010Prop48
 90
       50
102
RTVSPost2010PropOp48
 70
     1
102
RTVSPost2010Prop49
280
     0
102
RTVSPost2010PropOp49
 70
     1
102
RTVSPost2010Prop50
 90
       50
102
RTVSPost2010PropOp50
 70
     1
102
RTVSPost2010Prop51ColorIndex
 90
      256
102
RTVSPost2010Prop51ColorRGB
 90
-16777216
102
RTVSPost2010PropOp51
 70
     0
102
RTVSPost2010Prop52
140
1.0
102
RTVSPost2010PropOp52
 70
     0
102
RTVSPost2010Prop53
 90
        2
102
RTVSPost2010PropOp53
 70
     1
102
RTVSPost2010Prop54
  1
strokes_ogs.tif
102
RTVSPost2010PropOp54
 70
     1
102
RTVSPost2010Prop55
280
     0
102
RTVSPost2010PropOp55
 70
     1
102
RTVSPost2010Prop56
140
1.0
102
RTVSPost2010PropOp56
 70
     1
102
RTVSPost2010Prop57
140
1.0
102
RTVSPost2010PropOp57
 70
     1
  0
XRECORD
  5
2DA
102
{ACAD_REACTORS
330
2D9
102
}
330
2D9
100
AcDbXrecord
280
     1
102
RTVSPropertyOp0
 70
     1
102
RTVSPropertyOp1
 70
     1
102
RTVSPropertyOp2
 70
     1
102
RTVSPropertyOp3
 70
     1
102
RTVSPropertyOp4
 70
     1
102
RTVSPropertyOp5
 70
     1
102
RTVSPropertyOp6
 70
     1
102
RTVSPropertyOp7
 70
     1
102
RTVSPropertyOp8
 70
     1
102
RTVSPropertyOp9
 70
     1
102
RTVSPropertyOp10
 70
     1
102
RTVSPropertyOp11
 70
     1
102
RTVSPropertyOp12
 70
     1
102
RTVSPropertyOp13
 70
     1
102
RTVSPropertyOp14
 70
     1
102
RTVSPropertyOp15
 70
     1
102
RTVSPropertyOp16
 70
     1
102
RTVSPropertyOp17
 70
     1
102
RTVSPropertyOp18
 70
     1
102
RTVSPropertyOp19
 70
     1
102
RTVSPropertyOp20
 70
     1
102
RTVSPropertyOp21
 70
     1
102
RTVSPropertyOp22
 70
     1
102
RTVSPropertyOp23
 70
     1
102
RTVSPropertyOp24
 70
     1
102
RTVSPropertyOp25
 70
     1
102
RTVSPropertyOp26
 70
     1
102
RTVSPropertyOp27
 70
     1
102
RTVSPropertyOp28
 70
     1
102
RTVSPropertyOp29
 70
     1
102
RTVSPropertyOp30
 70
     1
102
RTVSPropertyOp31
 70
     1
102
RTVSPropertyOp32
 70
     1
102
RTVSPropertyOp33
 70
     1
102
RTVSPropertyOp34
 70
     1
102
RTVSPropertyOp35
 70
     1
102
RTVSPropertyOp36
 70
     1
102
RTVSPropertyOp37
 70
     1
102
RTVSPropertyOp38
 70
     1
102
RTVSPropertyOp39
 70
     1
102
RTVSPropertyOp40
 70
     1
102
RTVSPropertyOp41
 70
     1
102
RTVSPropertyOp42
 70
     1
102
RTVSPropertyOp43
 70
     1
102
RTVSPropertyOp44
 70
     1
102
RTVSPropertyOp45
 70
     1
102
RTVSPropertyOp46
 70
     1
102
RTVSPropertyOp47
 70
     1
102
RTVSPropertyOp48
 70
     1
102
RTVSPropertyOp49
 70
     1
102
RTVSPropertyOp50
 70
     1
102
RTVSPropertyOp51
 70
     0
102
RTVSPropertyOp52
 70
     0
102
RTVSPropertyOp53
 70
     1
102
RTVSPropertyOp54
 70
     1
102
RTVSPropertyOp55
 70
     1
102
RTVSPropertyOp56
 70
     1
102
RTVSPropertyOp57
 70
     1
102
RTVSPost2010Prop28
280
     0
102
RTVSPost2010PropOp28
 70
     1
102
RTVSPost2010Prop29
280
     1
102
RTVSPost2010PropOp29
 70
     1
102
RTVSPost2010Prop30
280
     1
102
RTVSPost2010PropOp30
 70
     1
102
RTVSPost2010Prop31
280
     0
102
RTVSPost2010PropOp31
 70
     1
102
RTVSPost2010Prop32
280
     0
102
RTVSPost2010PropOp32
 70
     1
102
RTVSPost2010Prop33
280
     0
102
RTVSPost2010PropOp33
 70
     1
102
RTVSPost2010Prop34
280
     0
102
RTVSPost2010PropOp34
 70
     1
102
RTVSPost2010Prop35
280
     0
102
RTVSPost2010PropOp35
 70
     1
102
RTVSPost2010Prop36
280
     0
102
RTVSPost2010PropOp36
 70
     1
102
RTVSPost2010Prop37
 90
       50
102
RTVSPost2010PropOp37
 70
     1
102
RTVSPost2010Prop38
140
0.0
102
RTVSPost2010PropOp38
 70
     1
102
RTVSPost2010Prop39
140
1.0
102
RTVSPost2010PropOp39
 70
     1
102
RTVSPost2010Prop40
 90
        0
102
RTVSPost2010PropOp40
 70
     1
102
RTVSPost2010Prop41ColorIndex
 90
       18
102
RTVSPost2010Prop41ColorRGB
 90
        0
102
RTVSPost2010PropOp41
 70
     1
102
RTVSPost2010Prop42
 90
       50
102
RTVSPost2010PropOp42
 70
     1
102
RTVSPost2010Prop43
 90
        3
102
RTVSPost2010PropOp43
 70
     1
102
RTVSPost2010Prop44ColorIndex
 90
        5
102
RTVSPost2010Prop44ColorRGB
 90
      255
102
RTVSPost2010PropOp44
 70
     1
102
RTVSPost2010Prop45
280
     0
102
RTVSPost2010PropOp45
 70
     1
102
RTVSPost2010Prop46
 90
       50
102
RTVSPost2010PropOp46
 70
     1
102
RTVSPost2010Prop47
 90
       50
102
RTVSPost2010PropOp47
 70
     1
102
RTVSPost2010Prop48
 90
       50
102
RTVSPost2010PropOp48
 70
     1
102
RTVSPost2010Prop49
280
     0
102
RTVSPost2010PropOp49
 70
     1
102
RTVSPost2010Prop50
 90
       50
102
RTVSPost2010PropOp50
 70
     1
102
RTVSPost2010Prop51ColorIndex
 90
      256
102
RTVSPost2010Prop51ColorRGB
 90
-16777216
102
RTVSPost2010PropOp51
 70
     0
102
RTVSPost2010Prop52
140
1.0
102
RTVSPost2010PropOp52
 70
     0
102
RTVSPost2010Prop53
 90
        2
102
RTVSPost2010PropOp53
 70
     1
102
RTVSPost2010Prop54
  1
strokes_ogs.tif
102
RTVSPost2010PropOp54
 70
     1
102
RTVSPost2010Prop55
280
     0
102
RTVSPost2010PropOp55
 70
     1
102
RTVSPost2010Prop56
140
1.0
102
RTVSPost2010PropOp56
 70
     1
102
RTVSPost2010Prop57
140
1.0
102
RTVSPost2010PropOp57
 70
     1
  0
XRECORD
  5
2E2
102
{ACAD_REACTORS
330
2E1
102
}
330
2E1
100
AcDbXrecord
280
     1
102
RTVSPropertyOp0
 70
     1
102
RTVSPropertyOp1
 70
     1
102
RTVSPropertyOp2
 70
     1
102
RTVSPropertyOp3
 70
     1
102
RTVSPropertyOp4
 70
     1
102
RTVSPropertyOp5
 70
     1
102
RTVSPropertyOp6
 70
     1
102
RTVSPropertyOp7
 70
     1
102
RTVSPropertyOp8
 70
     1
102
RTVSPropertyOp9
 70
     1
102
RTVSPropertyOp10
 70
     1
102
RTVSPropertyOp11
 70
     1
102
RTVSPropertyOp12
 70
     1
102
RTVSPropertyOp13
 70
     1
102
RTVSPropertyOp14
 70
     1
102
RTVSPropertyOp15
 70
     1
102
RTVSPropertyOp16
 70
     1
102
RTVSPropertyOp17
 70
     1
102
RTVSPropertyOp18
 70
     1
102
RTVSPropertyOp19
 70
     1
102
RTVSPropertyOp20
 70
     1
102
RTVSPropertyOp21
 70
     1
102
RTVSPropertyOp22
 70
     1
102
RTVSPropertyOp23
 70
     1
102
RTVSPropertyOp24
 70
     1
102
RTVSPropertyOp25
 70
     1
102
RTVSPropertyOp26
 70
     1
102
RTVSPropertyOp27
 70
     1
102
RTVSPropertyOp28
 70
     1
102
RTVSPropertyOp29
 70
     1
102
RTVSPropertyOp30
 70
     1
102
RTVSPropertyOp31
 70
     1
102
RTVSPropertyOp32
 70
     1
102
RTVSPropertyOp33
 70
     1
102
RTVSPropertyOp34
 70
     1
102
RTVSPropertyOp35
 70
     1
102
RTVSPropertyOp36
 70
     1
102
RTVSPropertyOp37
 70
     1
102
RTVSPropertyOp38
 70
     1
102
RTVSPropertyOp39
 70
     1
102
RTVSPropertyOp40
 70
     1
102
RTVSPropertyOp41
 70
     1
102
RTVSPropertyOp42
 70
     1
102
RTVSPropertyOp43
 70
     1
102
RTVSPropertyOp44
 70
     1
102
RTVSPropertyOp45
 70
     1
102
RTVSPropertyOp46
 70
     1
102
RTVSPropertyOp47
 70
     1
102
RTVSPropertyOp48
 70
     1
102
RTVSPropertyOp49
 70
     1
102
RTVSPropertyOp50
 70
     1
102
RTVSPropertyOp51
 70
     0
102
RTVSPropertyOp52
 70
     0
102
RTVSPropertyOp53
 70
     1
102
RTVSPropertyOp54
 70
     1
102
RTVSPropertyOp55
 70
     1
102
RTVSPropertyOp56
 70
     1
102
RTVSPropertyOp57
 70
     1
102
RTVSPost2010Prop28
280
     0
102
RTVSPost2010PropOp28
 70
     1
102
RTVSPost2010Prop29
280
     1
102
RTVSPost2010PropOp29
 70
     1
102
RTVSPost2010Prop30
280
     1
102
RTVSPost2010PropOp30
 70
     1
102
RTVSPost2010Prop31
280
     0
102
RTVSPost2010PropOp31
 70
     1
102
RTVSPost2010Prop32
280
     0
102
RTVSPost2010PropOp32
 70
     1
102
RTVSPost2010Prop33
280
     0
102
RTVSPost2010PropOp33
 70
     1
102
RTVSPost2010Prop34
280
     0
102
RTVSPost2010PropOp34
 70
     1
102
RTVSPost2010Prop35
280
     0
102
RTVSPost2010PropOp35
 70
     1
102
RTVSPost2010Prop36
280
     0
102
RTVSPost2010PropOp36
 70
     1
102
RTVSPost2010Prop37
 90
       50
102
RTVSPost2010PropOp37
 70
     1
102
RTVSPost2010Prop38
140
0.0
102
RTVSPost2010PropOp38
 70
     1
102
RTVSPost2010Prop39
140
1.0
102
RTVSPost2010PropOp39
 70
     1
102
RTVSPost2010Prop40
 90
        0
102
RTVSPost2010PropOp40
 70
     1
102
RTVSPost2010Prop41ColorIndex
 90
       18
102
RTVSPost2010Prop41ColorRGB
 90
        0
102
RTVSPost2010PropOp41
 70
     1
102
RTVSPost2010Prop42
 90
       50
102
RTVSPost2010PropOp42
 70
     1
102
RTVSPost2010Prop43
 90
        3
102
RTVSPost2010PropOp43
 70
     1
102
RTVSPost2010Prop44ColorIndex
 90
        5
102
RTVSPost2010Prop44ColorRGB
 90
      255
102
RTVSPost2010PropOp44
 70
     1
102
RTVSPost2010Prop45
280
     0
102
RTVSPost2010PropOp45
 70
     1
102
RTVSPost2010Prop46
 90
       50
102
RTVSPost2010PropOp46
 70
     1
102
RTVSPost2010Prop47
 90
       50
102
RTVSPost2010PropOp47
 70
     1
102
RTVSPost2010Prop48
 90
       50
102
RTVSPost2010PropOp48
 70
     1
102
RTVSPost2010Prop49
280
     0
102
RTVSPost2010PropOp49
 70
     1
102
RTVSPost2010Prop50
 90
       50
102
RTVSPost2010PropOp50
 70
     1
102
RTVSPost2010Prop51ColorIndex
 90
      256
102
RTVSPost2010Prop51ColorRGB
 90
-16777216
102
RTVSPost2010PropOp51
 70
     0
102
RTVSPost2010Prop52
140
1.0
102
RTVSPost2010PropOp52
 70
     0
102
RTVSPost2010Prop53
 90
        2
102
RTVSPost2010PropOp53
 70
     1
102
RTVSPost2010Prop54
  1
strokes_ogs.tif
102
RTVSPost2010PropOp54
 70
     1
102
RTVSPost2010Prop55
280
     0
102
RTVSPost2010PropOp55
 70
     1
102
RTVSPost2010Prop56
140
1.0
102
RTVSPost2010PropOp56
 70
     1
102
RTVSPost2010Prop57
140
1.0
102
RTVSPost2010PropOp57
 70
     1
  0
XRECORD
  5
2EA
102
{ACAD_REACTORS
330
2E9
102
}
330
2E9
100
AcDbXrecord
280
     1
102
RTVSPropertyOp0
 70
     1
102
RTVSPropertyOp1
 70
     1
102
RTVSPropertyOp2
 70
     1
102
RTVSPropertyOp3
 70
     1
102
RTVSPropertyOp4
 70
     1
102
RTVSPropertyOp5
 70
     1
102
RTVSPropertyOp6
 70
     1
102
RTVSPropertyOp7
 70
     1
102
RTVSPropertyOp8
 70
     1
102
RTVSPropertyOp9
 70
     1
102
RTVSPropertyOp10
 70
     1
102
RTVSPropertyOp11
 70
     1
102
RTVSPropertyOp12
 70
     1
102
RTVSPropertyOp13
 70
     1
102
RTVSPropertyOp14
 70
     1
102
RTVSPropertyOp15
 70
     1
102
RTVSPropertyOp16
 70
     1
102
RTVSPropertyOp17
 70
     1
102
RTVSPropertyOp18
 70
     1
102
RTVSPropertyOp19
 70
     1
102
RTVSPropertyOp20
 70
     1
102
RTVSPropertyOp21
 70
     1
102
RTVSPropertyOp22
 70
     1
102
RTVSPropertyOp23
 70
     1
102
RTVSPropertyOp24
 70
     1
102
RTVSPropertyOp25
 70
     1
102
RTVSPropertyOp26
 70
     1
102
RTVSPropertyOp27
 70
     1
102
RTVSPropertyOp28
 70
     1
102
RTVSPropertyOp29
 70
     1
102
RTVSPropertyOp30
 70
     1
102
RTVSPropertyOp31
 70
     1
102
RTVSPropertyOp32
 70
     1
102
RTVSPropertyOp33
 70
     1
102
RTVSPropertyOp34
 70
     1
102
RTVSPropertyOp35
 70
     1
102
RTVSPropertyOp36
 70
     1
102
RTVSPropertyOp37
 70
     1
102
RTVSPropertyOp38
 70
     1
102
RTVSPropertyOp39
 70
     1
102
RTVSPropertyOp40
 70
     1
102
RTVSPropertyOp41
 70
     1
102
RTVSPropertyOp42
 70
     1
102
RTVSPropertyOp43
 70
     1
102
RTVSPropertyOp44
 70
     1
102
RTVSPropertyOp45
 70
     1
102
RTVSPropertyOp46
 70
     1
102
RTVSPropertyOp47
 70
     1
102
RTVSPropertyOp48
 70
     1
102
RTVSPropertyOp49
 70
     1
102
RTVSPropertyOp50
 70
     1
102
RTVSPropertyOp51
 70
     0
102
RTVSPropertyOp52
 70
     0
102
RTVSPropertyOp53
 70
     1
102
RTVSPropertyOp54
 70
     1
102
RTVSPropertyOp55
 70
     1
102
RTVSPropertyOp56
 70
     1
102
RTVSPropertyOp57
 70
     1
102
RTVSPost2010Prop28
280
     0
102
RTVSPost2010PropOp28
 70
     1
102
RTVSPost2010Prop29
280
     1
102
RTVSPost2010PropOp29
 70
     1
102
RTVSPost2010Prop30
280
     1
102
RTVSPost2010PropOp30
 70
     1
102
RTVSPost2010Prop31
280
     0
102
RTVSPost2010PropOp31
 70
     1
102
RTVSPost2010Prop32
280
     0
102
RTVSPost2010PropOp32
 70
     1
102
RTVSPost2010Prop33
280
     0
102
RTVSPost2010PropOp33
 70
     1
102
RTVSPost2010Prop34
280
     0
102
RTVSPost2010PropOp34
 70
     1
102
RTVSPost2010Prop35
280
     0
102
RTVSPost2010PropOp35
 70
     1
102
RTVSPost2010Prop36
280
     0
102
RTVSPost2010PropOp36
 70
     1
102
RTVSPost2010Prop37
 90
       50
102
RTVSPost2010PropOp37
 70
     1
102
RTVSPost2010Prop38
140
0.0
102
RTVSPost2010PropOp38
 70
     1
102
RTVSPost2010Prop39
140
1.0
102
RTVSPost2010PropOp39
 70
     1
102
RTVSPost2010Prop40
 90
        0
102
RTVSPost2010PropOp40
 70
     1
102
RTVSPost2010Prop41ColorIndex
 90
       18
102
RTVSPost2010Prop41ColorRGB
 90
        0
102
RTVSPost2010PropOp41
 70
     1
102
RTVSPost2010Prop42
 90
       50
102
RTVSPost2010PropOp42
 70
     1
102
RTVSPost2010Prop43
 90
        3
102
RTVSPost2010PropOp43
 70
     1
102
RTVSPost2010Prop44ColorIndex
 90
        5
102
RTVSPost2010Prop44ColorRGB
 90
      255
102
RTVSPost2010PropOp44
 70
     1
102
RTVSPost2010Prop45
280
     0
102
RTVSPost2010PropOp45
 70
     1
102
RTVSPost2010Prop46
 90
       50
102
RTVSPost2010PropOp46
 70
     1
102
RTVSPost2010Prop47
 90
       50
102
RTVSPost2010PropOp47
 70
     1
102
RTVSPost2010Prop48
 90
       50
102
RTVSPost2010PropOp48
 70
     1
102
RTVSPost2010Prop49
280
     0
102
RTVSPost2010PropOp49
 70
     1
102
RTVSPost2010Prop50
 90
       50
102
RTVSPost2010PropOp50
 70
     1
102
RTVSPost2010Prop51ColorIndex
 90
      256
102
RTVSPost2010Prop51ColorRGB
 90
-16777216
102
RTVSPost2010PropOp51
 70
     0
102
RTVSPost2010Prop52
140
1.0
102
RTVSPost2010PropOp52
 70
     0
102
RTVSPost2010Prop53
 90
        2
102
RTVSPost2010PropOp53
 70
     1
102
RTVSPost2010Prop54
  1
strokes_ogs.tif
102
RTVSPost2010PropOp54
 70
     1
102
RTVSPost2010Prop55
280
     0
102
RTVSPost2010PropOp55
 70
     1
102
RTVSPost2010Prop56
140
1.0
102
RTVSPost2010PropOp56
 70
     1
102
RTVSPost2010Prop57
140
1.0
102
RTVSPost2010PropOp57
 70
     1
  0
XRECORD
  5
2DE
102
{ACAD_REACTORS
330
2DD
102
}
330
2DD
100
AcDbXrecord
280
     1
102
RTVSPropertyOp0
 70
     1
102
RTVSPropertyOp1
 70
     1
102
RTVSPropertyOp2
 70
     1
102
RTVSPropertyOp3
 70
     1
102
RTVSPropertyOp4
 70
     1
102
RTVSPropertyOp5
 70
     1
102
RTVSPropertyOp6
 70
     1
102
RTVSPropertyOp7
 70
     1
102
RTVSPropertyOp8
 70
     1
102
RTVSPropertyOp9
 70
     1
102
RTVSPropertyOp10
 70
     1
102
RTVSPropertyOp11
 70
     1
102
RTVSPropertyOp12
 70
     1
102
RTVSPropertyOp13
 70
     1
102
RTVSPropertyOp14
 70
     1
102
RTVSPropertyOp15
 70
     1
102
RTVSPropertyOp16
 70
     1
102
RTVSPropertyOp17
 70
     1
102
RTVSPropertyOp18
 70
     1
102
RTVSPropertyOp19
 70
     1
102
RTVSPropertyOp20
 70
     1
102
RTVSPropertyOp21
 70
     1
102
RTVSPropertyOp22
 70
     1
102
RTVSPropertyOp23
 70
     1
102
RTVSPropertyOp24
 70
     1
102
RTVSPropertyOp25
 70
     1
102
RTVSPropertyOp26
 70
     1
102
RTVSPropertyOp27
 70
     1
102
RTVSPropertyOp28
 70
     1
102
RTVSPropertyOp29
 70
     1
102
RTVSPropertyOp30
 70
     1
102
RTVSPropertyOp31
 70
     1
102
RTVSPropertyOp32
 70
     1
102
RTVSPropertyOp33
 70
     1
102
RTVSPropertyOp34
 70
     1
102
RTVSPropertyOp35
 70
     1
102
RTVSPropertyOp36
 70
     1
102
RTVSPropertyOp37
 70
     1
102
RTVSPropertyOp38
 70
     1
102
RTVSPropertyOp39
 70
     1
102
RTVSPropertyOp40
 70
     1
102
RTVSPropertyOp41
 70
     1
102
RTVSPropertyOp42
 70
     1
102
RTVSPropertyOp43
 70
     1
102
RTVSPropertyOp44
 70
     1
102
RTVSPropertyOp45
 70
     1
102
RTVSPropertyOp46
 70
     1
102
RTVSPropertyOp47
 70
     1
102
RTVSPropertyOp48
 70
     1
102
RTVSPropertyOp49
 70
     1
102
RTVSPropertyOp50
 70
     1
102
RTVSPropertyOp51
 70
     0
102
RTVSPropertyOp52
 70
     0
102
RTVSPropertyOp53
 70
     1
102
RTVSPropertyOp54
 70
     1
102
RTVSPropertyOp55
 70
     1
102
RTVSPropertyOp56
 70
     1
102
RTVSPropertyOp57
 70
     1
102
RTVSPost2010Prop28
280
     0
102
RTVSPost2010PropOp28
 70
     1
102
RTVSPost2010Prop29
280
     1
102
RTVSPost2010PropOp29
 70
     1
102
RTVSPost2010Prop30
280
     1
102
RTVSPost2010PropOp30
 70
     1
102
RTVSPost2010Prop31
280
     0
102
RTVSPost2010PropOp31
 70
     1
102
RTVSPost2010Prop32
280
     0
102
RTVSPost2010PropOp32
 70
     1
102
RTVSPost2010Prop33
280
     0
102
RTVSPost2010PropOp33
 70
     1
102
RTVSPost2010Prop34
280
     0
102
RTVSPost2010PropOp34
 70
     1
102
RTVSPost2010Prop35
280
     0
102
RTVSPost2010PropOp35
 70
     1
102
RTVSPost2010Prop36
280
     0
102
RTVSPost2010PropOp36
 70
     1
102
RTVSPost2010Prop37
 90
       50
102
RTVSPost2010PropOp37
 70
     1
102
RTVSPost2010Prop38
140
0.0
102
RTVSPost2010PropOp38
 70
     1
102
RTVSPost2010Prop39
140
1.0
102
RTVSPost2010PropOp39
 70
     1
102
RTVSPost2010Prop40
 90
        0
102
RTVSPost2010PropOp40
 70
     1
102
RTVSPost2010Prop41ColorIndex
 90
       18
102
RTVSPost2010Prop41ColorRGB
 90
        0
102
RTVSPost2010PropOp41
 70
     1
102
RTVSPost2010Prop42
 90
       50
102
RTVSPost2010PropOp42
 70
     1
102
RTVSPost2010Prop43
 90
        3
102
RTVSPost2010PropOp43
 70
     1
102
RTVSPost2010Prop44ColorIndex
 90
        5
102
RTVSPost2010Prop44ColorRGB
 90
      255
102
RTVSPost2010PropOp44
 70
     1
102
RTVSPost2010Prop45
280
     0
102
RTVSPost2010PropOp45
 70
     1
102
RTVSPost2010Prop46
 90
       50
102
RTVSPost2010PropOp46
 70
     1
102
RTVSPost2010Prop47
 90
       50
102
RTVSPost2010PropOp47
 70
     1
102
RTVSPost2010Prop48
 90
       50
102
RTVSPost2010PropOp48
 70
     1
102
RTVSPost2010Prop49
280
     0
102
RTVSPost2010PropOp49
 70
     1
102
RTVSPost2010Prop50
 90
       50
102
RTVSPost2010PropOp50
 70
     1
102
RTVSPost2010Prop51ColorIndex
 90
      256
102
RTVSPost2010Prop51ColorRGB
 90
-16777216
102
RTVSPost2010PropOp51
 70
     0
102
RTVSPost2010Prop52
140
1.0
102
RTVSPost2010PropOp52
 70
     0
102
RTVSPost2010Prop53
 90
        2
102
RTVSPost2010PropOp53
 70
     1
102
RTVSPost2010Prop54
  1
strokes_ogs.tif
102
RTVSPost2010PropOp54
 70
     1
102
RTVSPost2010Prop55
280
     0
102
RTVSPost2010PropOp55
 70
     1
102
RTVSPost2010Prop56
140
1.0
102
RTVSPost2010PropOp56
 70
     1
102
RTVSPost2010Prop57
140
1.0
102
RTVSPost2010PropOp57
 70
     1
  0
XRECORD
  5
2E0
102
{ACAD_REACTORS
330
2DF
102
}
330
2DF
100
AcDbXrecord
280
     1
102
RTVSPropertyOp0
 70
     1
102
RTVSPropertyOp1
 70
     1
102
RTVSPropertyOp2
 70
     1
102
RTVSPropertyOp3
 70
     1
102
RTVSPropertyOp4
 70
     1
102
RTVSPropertyOp5
 70
     1
102
RTVSPropertyOp6
 70
     1
102
RTVSPropertyOp7
 70
     1
102
RTVSPropertyOp8
 70
     1
102
RTVSPropertyOp9
 70
     1
102
RTVSPropertyOp10
 70
     1
102
RTVSPropertyOp11
 70
     1
102
RTVSPropertyOp12
 70
     1
102
RTVSPropertyOp13
 70
     1
102
RTVSPropertyOp14
 70
     1
102
RTVSPropertyOp15
 70
     1
102
RTVSPropertyOp16
 70
     1
102
RTVSPropertyOp17
 70
     1
102
RTVSPropertyOp18
 70
     1
102
RTVSPropertyOp19
 70
     1
102
RTVSPropertyOp20
 70
     1
102
RTVSPropertyOp21
 70
     1
102
RTVSPropertyOp22
 70
     1
102
RTVSPropertyOp23
 70
     1
102
RTVSPropertyOp24
 70
     1
102
RTVSPropertyOp25
 70
     1
102
RTVSPropertyOp26
 70
     1
102
RTVSPropertyOp27
 70
     1
102
RTVSPropertyOp28
 70
     1
102
RTVSPropertyOp29
 70
     1
102
RTVSPropertyOp30
 70
     1
102
RTVSPropertyOp31
 70
     1
102
RTVSPropertyOp32
 70
     1
102
RTVSPropertyOp33
 70
     1
102
RTVSPropertyOp34
 70
     1
102
RTVSPropertyOp35
 70
     1
102
RTVSPropertyOp36
 70
     1
102
RTVSPropertyOp37
 70
     1
102
RTVSPropertyOp38
 70
     1
102
RTVSPropertyOp39
 70
     1
102
RTVSPropertyOp40
 70
     1
102
RTVSPropertyOp41
 70
     1
102
RTVSPropertyOp42
 70
     1
102
RTVSPropertyOp43
 70
     1
102
RTVSPropertyOp44
 70
     1
102
RTVSPropertyOp45
 70
     1
102
RTVSPropertyOp46
 70
     1
102
RTVSPropertyOp47
 70
     1
102
RTVSPropertyOp48
 70
     1
102
RTVSPropertyOp49
 70
     1
102
RTVSPropertyOp50
 70
     1
102
RTVSPropertyOp51
 70
     0
102
RTVSPropertyOp52
 70
     0
102
RTVSPropertyOp53
 70
     1
102
RTVSPropertyOp54
 70
     1
102
RTVSPropertyOp55
 70
     1
102
RTVSPropertyOp56
 70
     1
102
RTVSPropertyOp57
 70
     1
102
RTVSPost2010Prop28
280
     0
102
RTVSPost2010PropOp28
 70
     1
102
RTVSPost2010Prop29
280
     1
102
RTVSPost2010PropOp29
 70
     1
102
RTVSPost2010Prop30
280
     1
102
RTVSPost2010PropOp30
 70
     1
102
RTVSPost2010Prop31
280
     0
102
RTVSPost2010PropOp31
 70
     1
102
RTVSPost2010Prop32
280
     0
102
RTVSPost2010PropOp32
 70
     1
102
RTVSPost2010Prop33
280
     0
102
RTVSPost2010PropOp33
 70
     1
102
RTVSPost2010Prop34
280
     0
102
RTVSPost2010PropOp34
 70
     1
102
RTVSPost2010Prop35
280
     0
102
RTVSPost2010PropOp35
 70
     1
102
RTVSPost2010Prop36
280
     0
102
RTVSPost2010PropOp36
 70
     1
102
RTVSPost2010Prop37
 90
       50
102
RTVSPost2010PropOp37
 70
     1
102
RTVSPost2010Prop38
140
0.0
102
RTVSPost2010PropOp38
 70
     1
102
RTVSPost2010Prop39
140
1.0
102
RTVSPost2010PropOp39
 70
     1
102
RTVSPost2010Prop40
 90
        0
102
RTVSPost2010PropOp40
 70
     1
102
RTVSPost2010Prop41ColorIndex
 90
       18
102
RTVSPost2010Prop41ColorRGB
 90
        0
102
RTVSPost2010PropOp41
 70
     1
102
RTVSPost2010Prop42
 90
       50
102
RTVSPost2010PropOp42
 70
     1
102
RTVSPost2010Prop43
 90
        3
102
RTVSPost2010PropOp43
 70
     1
102
RTVSPost2010Prop44ColorIndex
 90
        5
102
RTVSPost2010Prop44ColorRGB
 90
      255
102
RTVSPost2010PropOp44
 70
     1
102
RTVSPost2010Prop45
280
     0
102
RTVSPost2010PropOp45
 70
     1
102
RTVSPost2010Prop46
 90
       50
102
RTVSPost2010PropOp46
 70
     1
102
RTVSPost2010Prop47
 90
       50
102
RTVSPost2010PropOp47
 70
     1
102
RTVSPost2010Prop48
 90
       50
102
RTVSPost2010PropOp48
 70
     1
102
RTVSPost2010Prop49
280
     0
102
RTVSPost2010PropOp49
 70
     1
102
RTVSPost2010Prop50
 90
       50
102
RTVSPost2010PropOp50
 70
     1
102
RTVSPost2010Prop51ColorIndex
 90
      256
102
RTVSPost2010Prop51ColorRGB
 90
-16777216
102
RTVSPost2010PropOp51
 70
     0
102
RTVSPost2010Prop52
140
1.0
102
RTVSPost2010PropOp52
 70
     0
102
RTVSPost2010Prop53
 90
        2
102
RTVSPost2010PropOp53
 70
     1
102
RTVSPost2010Prop54
  1
strokes_ogs.tif
102
RTVSPost2010PropOp54
 70
     1
102
RTVSPost2010Prop55
280
     0
102
RTVSPost2010PropOp55
 70
     1
102
RTVSPost2010Prop56
140
1.0
102
RTVSPost2010PropOp56
 70
     1
102
RTVSPost2010Prop57
140
1.0
102
RTVSPost2010PropOp57
 70
     1
  0
XRECORD
  5
2F0
102
{ACAD_REACTORS
330
2EF
102
}
330
2EF
100
AcDbXrecord
280
     1
102
RTVSPropertyOp0
 70
     0
102
RTVSPropertyOp1
 70
     0
102
RTVSPropertyOp2
 70
     0
102
RTVSPropertyOp3
 70
     0
102
RTVSPropertyOp4
 70
     0
102
RTVSPropertyOp5
 70
     0
102
RTVSPropertyOp6
 70
     0
102
RTVSPropertyOp7
 70
     0
102
RTVSPropertyOp8
 70
     0
102
RTVSPropertyOp9
 70
     0
102
RTVSPropertyOp10
 70
     0
102
RTVSPropertyOp11
 70
     0
102
RTVSPropertyOp12
 70
     0
102
RTVSPropertyOp13
 70
     0
102
RTVSPropertyOp14
 70
     2
102
RTVSPropertyOp15
 70
     0
102
RTVSPropertyOp16
 70
     0
102
RTVSPropertyOp17
 70
     0
102
RTVSPropertyOp18
 70
     0
102
RTVSPropertyOp19
 70
     0
102
RTVSPropertyOp20
 70
     0
102
RTVSPropertyOp21
 70
     0
102
RTVSPropertyOp22
 70
     0
102
RTVSPropertyOp23
 70
     0
102
RTVSPropertyOp24
 70
     0
102
RTVSPropertyOp25
 70
     0
102
RTVSPropertyOp26
 70
     0
102
RTVSPropertyOp27
 70
     0
102
RTVSPropertyOp28
 70
     0
102
RTVSPropertyOp29
 70
     0
102
RTVSPropertyOp30
 70
     0
102
RTVSPropertyOp31
 70
     0
102
RTVSPropertyOp32
 70
     0
102
RTVSPropertyOp33
 70
     0
102
RTVSPropertyOp34
 70
     0
102
RTVSPropertyOp35
 70
     0
102
RTVSPropertyOp36
 70
     0
102
RTVSPropertyOp37
 70
     0
102
RTVSPropertyOp38
 70
     0
102
RTVSPropertyOp39
 70
     0
102
RTVSPropertyOp40
 70
     0
102
RTVSPropertyOp41
 70
     0
102
RTVSPropertyOp42
 70
     0
102
RTVSPropertyOp43
 70
     0
102
RTVSPropertyOp44
 70
     0
102
RTVSPropertyOp45
 70
     0
102
RTVSPropertyOp46
 70
     0
102
RTVSPropertyOp47
 70
     0
102
RTVSPropertyOp48
 70
     0
102
RTVSPropertyOp49
 70
     0
102
RTVSPropertyOp50
 70
     0
102
RTVSPropertyOp51
 70
     0
102
RTVSPropertyOp52
 70
     0
102
RTVSPropertyOp53
 70
     0
102
RTVSPropertyOp54
 70
     0
102
RTVSPropertyOp55
 70
     0
102
RTVSPropertyOp56
 70
     0
102
RTVSPropertyOp57
 70
     0
102
RTVSPost2010Prop28
280
     0
102
RTVSPost2010PropOp28
 70
     0
102
RTVSPost2010Prop29
280
     1
102
RTVSPost2010PropOp29
 70
     0
102
RTVSPost2010Prop30
280
     1
102
RTVSPost2010PropOp30
 70
     0
102
RTVSPost2010Prop31
280
     0
102
RTVSPost2010PropOp31
 70
     0
102
RTVSPost2010Prop32
280
     0
102
RTVSPost2010PropOp32
 70
     0
102
RTVSPost2010Prop33
280
     0
102
RTVSPost2010PropOp33
 70
     0
102
RTVSPost2010Prop34
280
     0
102
RTVSPost2010PropOp34
 70
     0
102
RTVSPost2010Prop35
280
     0
102
RTVSPost2010PropOp35
 70
     0
102
RTVSPost2010Prop36
280
     0
102
RTVSPost2010PropOp36
 70
     0
102
RTVSPost2010Prop37
 90
       50
102
RTVSPost2010PropOp37
 70
     0
102
RTVSPost2010Prop38
140
0.0
102
RTVSPost2010PropOp38
 70
     0
102
RTVSPost2010Prop39
140
1.0
102
RTVSPost2010PropOp39
 70
     0
102
RTVSPost2010Prop40
 90
        0
102
RTVSPost2010PropOp40
 70
     0
102
RTVSPost2010Prop41ColorIndex
 90
       18
102
RTVSPost2010Prop41ColorRGB
 90
        0
102
RTVSPost2010PropOp41
 70
     0
102
RTVSPost2010Prop42
 90
       50
102
RTVSPost2010PropOp42
 70
     0
102
RTVSPost2010Prop43
 90
        3
102
RTVSPost2010PropOp43
 70
     0
102
RTVSPost2010Prop44ColorIndex
 90
        5
102
RTVSPost2010Prop44ColorRGB
 90
      255
102
RTVSPost2010PropOp44
 70
     0
102
RTVSPost2010Prop45
280
     0
102
RTVSPost2010PropOp45
 70
     0
102
RTVSPost2010Prop46
 90
       50
102
RTVSPost2010PropOp46
 70
     0
102
RTVSPost2010Prop47
 90
       50
102
RTVSPost2010PropOp47
 70
     0
102
RTVSPost2010Prop48
 90
       50
102
RTVSPost2010PropOp48
 70
     0
102
RTVSPost2010Prop49
280
     0
102
RTVSPost2010PropOp49
 70
     0
102
RTVSPost2010Prop50
 90
       50
102
RTVSPost2010PropOp50
 70
     0
102
RTVSPost2010Prop51ColorIndex
 90
      256
102
RTVSPost2010Prop51ColorRGB
 90
-16777216
102
RTVSPost2010PropOp51
 70
     0
102
RTVSPost2010Prop52
140
1.0
102
RTVSPost2010PropOp52
 70
     0
102
RTVSPost2010Prop53
 90
        2
102
RTVSPost2010PropOp53
 70
     0
102
RTVSPost2010Prop54
  1
strokes_ogs.tif
102
RTVSPost2010PropOp54
 70
     0
102
RTVSPost2010Prop55
280
     0
102
RTVSPost2010PropOp55
 70
     0
102
RTVSPost2010Prop56
140
1.0
102
RTVSPost2010PropOp56
 70
     0
102
RTVSPost2010Prop57
140
1.0
102
RTVSPost2010PropOp57
 70
     0
  0
XRECORD
  5
2E8
102
{ACAD_REACTORS
330
2E7
102
}
330
2E7
100
AcDbXrecord
280
     1
102
RTVSPropertyOp0
 70
     1
102
RTVSPropertyOp1
 70
     1
102
RTVSPropertyOp2
 70
     1
102
RTVSPropertyOp3
 70
     1
102
RTVSPropertyOp4
 70
     1
102
RTVSPropertyOp5
 70
     1
102
RTVSPropertyOp6
 70
     1
102
RTVSPropertyOp7
 70
     1
102
RTVSPropertyOp8
 70
     1
102
RTVSPropertyOp9
 70
     1
102
RTVSPropertyOp10
 70
     1
102
RTVSPropertyOp11
 70
     1
102
RTVSPropertyOp12
 70
     1
102
RTVSPropertyOp13
 70
     1
102
RTVSPropertyOp14
 70
     1
102
RTVSPropertyOp15
 70
     1
102
RTVSPropertyOp16
 70
     1
102
RTVSPropertyOp17
 70
     1
102
RTVSPropertyOp18
 70
     1
102
RTVSPropertyOp19
 70
     1
102
RTVSPropertyOp20
 70
     1
102
RTVSPropertyOp21
 70
     1
102
RTVSPropertyOp22
 70
     1
102
RTVSPropertyOp23
 70
     1
102
RTVSPropertyOp24
 70
     1
102
RTVSPropertyOp25
 70
     1
102
RTVSPropertyOp26
 70
     1
102
RTVSPropertyOp27
 70
     1
102
RTVSPropertyOp28
 70
     1
102
RTVSPropertyOp29
 70
     1
102
RTVSPropertyOp30
 70
     1
102
RTVSPropertyOp31
 70
     1
102
RTVSPropertyOp32
 70
     1
102
RTVSPropertyOp33
 70
     1
102
RTVSPropertyOp34
 70
     1
102
RTVSPropertyOp35
 70
     1
102
RTVSPropertyOp36
 70
     1
102
RTVSPropertyOp37
 70
     1
102
RTVSPropertyOp38
 70
     1
102
RTVSPropertyOp39
 70
     1
102
RTVSPropertyOp40
 70
     1
102
RTVSPropertyOp41
 70
     1
102
RTVSPropertyOp42
 70
     1
102
RTVSPropertyOp43
 70
     1
102
RTVSPropertyOp44
 70
     1
102
RTVSPropertyOp45
 70
     1
102
RTVSPropertyOp46
 70
     1
102
RTVSPropertyOp47
 70
     1
102
RTVSPropertyOp48
 70
     1
102
RTVSPropertyOp49
 70
     1
102
RTVSPropertyOp50
 70
     1
102
RTVSPropertyOp51
 70
     0
102
RTVSPropertyOp52
 70
     0
102
RTVSPropertyOp53
 70
     1
102
RTVSPropertyOp54
 70
     1
102
RTVSPropertyOp55
 70
     1
102
RTVSPropertyOp56
 70
     1
102
RTVSPropertyOp57
 70
     1
102
RTVSPost2010Prop28
280
     0
102
RTVSPost2010PropOp28
 70
     1
102
RTVSPost2010Prop29
280
     1
102
RTVSPost2010PropOp29
 70
     1
102
RTVSPost2010Prop30
280
     1
102
RTVSPost2010PropOp30
 70
     1
102
RTVSPost2010Prop31
280
     0
102
RTVSPost2010PropOp31
 70
     1
102
RTVSPost2010Prop32
280
     0
102
RTVSPost2010PropOp32
 70
     1
102
RTVSPost2010Prop33
280
     0
102
RTVSPost2010PropOp33
 70
     1
102
RTVSPost2010Prop34
280
     0
102
RTVSPost2010PropOp34
 70
     1
102
RTVSPost2010Prop35
280
     0
102
RTVSPost2010PropOp35
 70
     1
102
RTVSPost2010Prop36
280
     0
102
RTVSPost2010PropOp36
 70
     1
102
RTVSPost2010Prop37
 90
       50
102
RTVSPost2010PropOp37
 70
     1
102
RTVSPost2010Prop38
140
0.0
102
RTVSPost2010PropOp38
 70
     1
102
RTVSPost2010Prop39
140
1.0
102
RTVSPost2010PropOp39
 70
     1
102
RTVSPost2010Prop40
 90
        0
102
RTVSPost2010PropOp40
 70
     1
102
RTVSPost2010Prop41ColorIndex
 90
       18
102
RTVSPost2010Prop41ColorRGB
 90
        0
102
RTVSPost2010PropOp41
 70
     1
102
RTVSPost2010Prop42
 90
       50
102
RTVSPost2010PropOp42
 70
     1
102
RTVSPost2010Prop43
 90
        3
102
RTVSPost2010PropOp43
 70
     1
102
RTVSPost2010Prop44ColorIndex
 90
        5
102
RTVSPost2010Prop44ColorRGB
 90
      255
102
RTVSPost2010PropOp44
 70
     1
102
RTVSPost2010Prop45
280
     0
102
RTVSPost2010PropOp45
 70
     1
102
RTVSPost2010Prop46
 90
       50
102
RTVSPost2010PropOp46
 70
     1
102
RTVSPost2010Prop47
 90
       50
102
RTVSPost2010PropOp47
 70
     1
102
RTVSPost2010Prop48
 90
       50
102
RTVSPost2010PropOp48
 70
     1
102
RTVSPost2010Prop49
280
     0
102
RTVSPost2010PropOp49
 70
     1
102
RTVSPost2010Prop50
 90
       50
102
RTVSPost2010PropOp50
 70
     1
102
RTVSPost2010Prop51ColorIndex
 90
      256
102
RTVSPost2010Prop51ColorRGB
 90
-16777216
102
RTVSPost2010PropOp51
 70
     0
102
RTVSPost2010Prop52
140
1.0
102
RTVSPost2010PropOp52
 70
     0
102
RTVSPost2010Prop53
 90
        2
102
RTVSPost2010PropOp53
 70
     1
102
RTVSPost2010Prop54
  1
strokes_ogs.tif
102
RTVSPost2010PropOp54
 70
     1
102
RTVSPost2010Prop55
280
     0
102
RTVSPost2010PropOp55
 70
     1
102
RTVSPost2010Prop56
140
1.0
102
RTVSPost2010PropOp56
 70
     1
102
RTVSPost2010Prop57
140
1.0
102
RTVSPost2010PropOp57
 70
     1
  0
XRECORD
  5
2CC
102
{ACAD_REACTORS
330
2CB
102
}
330
2CB
100
AcDbXrecord
280
     1
102
RTVSPropertyOp0
 70
     1
102
RTVSPropertyOp1
 70
     1
102
RTVSPropertyOp2
 70
     1
102
RTVSPropertyOp3
 70
     1
102
RTVSPropertyOp4
 70
     1
102
RTVSPropertyOp5
 70
     1
102
RTVSPropertyOp6
 70
     1
102
RTVSPropertyOp7
 70
     1
102
RTVSPropertyOp8
 70
     1
102
RTVSPropertyOp9
 70
     1
102
RTVSPropertyOp10
 70
     1
102
RTVSPropertyOp11
 70
     1
102
RTVSPropertyOp12
 70
     1
102
RTVSPropertyOp13
 70
     1
102
RTVSPropertyOp14
 70
     1
102
RTVSPropertyOp15
 70
     1
102
RTVSPropertyOp16
 70
     1
102
RTVSPropertyOp17
 70
     1
102
RTVSPropertyOp18
 70
     1
102
RTVSPropertyOp19
 70
     1
102
RTVSPropertyOp20
 70
     1
102
RTVSPropertyOp21
 70
     1
102
RTVSPropertyOp22
 70
     1
102
RTVSPropertyOp23
 70
     1
102
RTVSPropertyOp24
 70
     1
102
RTVSPropertyOp25
 70
     1
102
RTVSPropertyOp26
 70
     1
102
RTVSPropertyOp27
 70
     1
102
RTVSPropertyOp28
 70
     1
102
RTVSPropertyOp29
 70
     1
102
RTVSPropertyOp30
 70
     1
102
RTVSPropertyOp31
 70
     1
102
RTVSPropertyOp32
 70
     1
102
RTVSPropertyOp33
 70
     1
102
RTVSPropertyOp34
 70
     1
102
RTVSPropertyOp35
 70
     1
102
RTVSPropertyOp36
 70
     1
102
RTVSPropertyOp37
 70
     1
102
RTVSPropertyOp38
 70
     1
102
RTVSPropertyOp39
 70
     1
102
RTVSPropertyOp40
 70
     1
102
RTVSPropertyOp41
 70
     1
102
RTVSPropertyOp42
 70
     1
102
RTVSPropertyOp43
 70
     1
102
RTVSPropertyOp44
 70
     1
102
RTVSPropertyOp45
 70
     1
102
RTVSPropertyOp46
 70
     1
102
RTVSPropertyOp47
 70
     1
102
RTVSPropertyOp48
 70
     1
102
RTVSPropertyOp49
 70
     1
102
RTVSPropertyOp50
 70
     1
102
RTVSPropertyOp51
 70
     0
102
RTVSPropertyOp52
 70
     0
102
RTVSPropertyOp53
 70
     1
102
RTVSPropertyOp54
 70
     1
102
RTVSPropertyOp55
 70
     1
102
RTVSPropertyOp56
 70
     1
102
RTVSPropertyOp57
 70
     1
102
RTVSPost2010Prop28
280
     0
102
RTVSPost2010PropOp28
 70
     1
102
RTVSPost2010Prop29
280
     1
102
RTVSPost2010PropOp29
 70
     1
102
RTVSPost2010Prop30
280
     1
102
RTVSPost2010PropOp30
 70
     1
102
RTVSPost2010Prop31
280
     0
102
RTVSPost2010PropOp31
 70
     1
102
RTVSPost2010Prop32
280
     0
102
RTVSPost2010PropOp32
 70
     1
102
RTVSPost2010Prop33
280
     0
102
RTVSPost2010PropOp33
 70
     1
102
RTVSPost2010Prop34
280
     0
102
RTVSPost2010PropOp34
 70
     1
102
RTVSPost2010Prop35
280
     0
102
RTVSPost2010PropOp35
 70
     1
102
RTVSPost2010Prop36
280
     0
102
RTVSPost2010PropOp36
 70
     1
102
RTVSPost2010Prop37
 90
       50
102
RTVSPost2010PropOp37
 70
     1
102
RTVSPost2010Prop38
140
0.0
102
RTVSPost2010PropOp38
 70
     1
102
RTVSPost2010Prop39
140
1.0
102
RTVSPost2010PropOp39
 70
     1
102
RTVSPost2010Prop40
 90
        0
102
RTVSPost2010PropOp40
 70
     1
102
RTVSPost2010Prop41ColorIndex
 90
       18
102
RTVSPost2010Prop41ColorRGB
 90
        0
102
RTVSPost2010PropOp41
 70
     1
102
RTVSPost2010Prop42
 90
       50
102
RTVSPost2010PropOp42
 70
     1
102
RTVSPost2010Prop43
 90
        3
102
RTVSPost2010PropOp43
 70
     1
102
RTVSPost2010Prop44ColorIndex
 90
        5
102
RTVSPost2010Prop44ColorRGB
 90
      255
102
RTVSPost2010PropOp44
 70
     1
102
RTVSPost2010Prop45
280
     0
102
RTVSPost2010PropOp45
 70
     1
102
RTVSPost2010Prop46
 90
       50
102
RTVSPost2010PropOp46
 70
     1
102
RTVSPost2010Prop47
 90
       50
102
RTVSPost2010PropOp47
 70
     1
102
RTVSPost2010Prop48
 90
       50
102
RTVSPost2010PropOp48
 70
     1
102
RTVSPost2010Prop49
280
     0
102
RTVSPost2010PropOp49
 70
     1
102
RTVSPost2010Prop50
 90
       50
102
RTVSPost2010PropOp50
 70
     1
102
RTVSPost2010Prop51ColorIndex
 90
      256
102
RTVSPost2010Prop51ColorRGB
 90
-16777216
102
RTVSPost2010PropOp51
 70
     0
102
RTVSPost2010Prop52
140
1.0
102
RTVSPost2010PropOp52
 70
     0
102
RTVSPost2010Prop53
 90
        2
102
RTVSPost2010PropOp53
 70
     1
102
RTVSPost2010Prop54
  1
strokes_ogs.tif
102
RTVSPost2010PropOp54
 70
     1
102
RTVSPost2010Prop55
280
     0
102
RTVSPost2010PropOp55
 70
     1
102
RTVSPost2010Prop56
140
1.0
102
RTVSPost2010PropOp56
 70
     1
102
RTVSPost2010Prop57
140
1.0
102
RTVSPost2010PropOp57
 70
     1
  0
XRECORD
  5
2CE
102
{ACAD_REACTORS
330
2CD
102
}
330
2CD
100
AcDbXrecord
280
     1
102
RTVSPropertyOp0
 70
     1
102
RTVSPropertyOp1
 70
     1
102
RTVSPropertyOp2
 70
     1
102
RTVSPropertyOp3
 70
     1
102
RTVSPropertyOp4
 70
     1
102
RTVSPropertyOp5
 70
     1
102
RTVSPropertyOp6
 70
     1
102
RTVSPropertyOp7
 70
     1
102
RTVSPropertyOp8
 70
     1
102
RTVSPropertyOp9
 70
     1
102
RTVSPropertyOp10
 70
     1
102
RTVSPropertyOp11
 70
     1
102
RTVSPropertyOp12
 70
     1
102
RTVSPropertyOp13
 70
     1
102
RTVSPropertyOp14
 70
     1
102
RTVSPropertyOp15
 70
     1
102
RTVSPropertyOp16
 70
     1
102
RTVSPropertyOp17
 70
     1
102
RTVSPropertyOp18
 70
     1
102
RTVSPropertyOp19
 70
     1
102
RTVSPropertyOp20
 70
     1
102
RTVSPropertyOp21
 70
     1
102
RTVSPropertyOp22
 70
     1
102
RTVSPropertyOp23
 70
     1
102
RTVSPropertyOp24
 70
     1
102
RTVSPropertyOp25
 70
     1
102
RTVSPropertyOp26
 70
     1
102
RTVSPropertyOp27
 70
     1
102
RTVSPropertyOp28
 70
     1
102
RTVSPropertyOp29
 70
     1
102
RTVSPropertyOp30
 70
     1
102
RTVSPropertyOp31
 70
     1
102
RTVSPropertyOp32
 70
     1
102
RTVSPropertyOp33
 70
     1
102
RTVSPropertyOp34
 70
     1
102
RTVSPropertyOp35
 70
     1
102
RTVSPropertyOp36
 70
     1
102
RTVSPropertyOp37
 70
     1
102
RTVSPropertyOp38
 70
     1
102
RTVSPropertyOp39
 70
     1
102
RTVSPropertyOp40
 70
     1
102
RTVSPropertyOp41
 70
     1
102
RTVSPropertyOp42
 70
     1
102
RTVSPropertyOp43
 70
     1
102
RTVSPropertyOp44
 70
     1
102
RTVSPropertyOp45
 70
     1
102
RTVSPropertyOp46
 70
     1
102
RTVSPropertyOp47
 70
     1
102
RTVSPropertyOp48
 70
     1
102
RTVSPropertyOp49
 70
     1
102
RTVSPropertyOp50
 70
     1
102
RTVSPropertyOp51
 70
     0
102
RTVSPropertyOp52
 70
     0
102
RTVSPropertyOp53
 70
     1
102
RTVSPropertyOp54
 70
     1
102
RTVSPropertyOp55
 70
     1
102
RTVSPropertyOp56
 70
     1
102
RTVSPropertyOp57
 70
     1
102
RTVSPost2010Prop28
280
     0
102
RTVSPost2010PropOp28
 70
     1
102
RTVSPost2010Prop29
280
     1
102
RTVSPost2010PropOp29
 70
     1
102
RTVSPost2010Prop30
280
     1
102
RTVSPost2010PropOp30
 70
     1
102
RTVSPost2010Prop31
280
     0
102
RTVSPost2010PropOp31
 70
     1
102
RTVSPost2010Prop32
280
     0
102
RTVSPost2010PropOp32
 70
     1
102
RTVSPost2010Prop33
280
     0
102
RTVSPost2010PropOp33
 70
     1
102
RTVSPost2010Prop34
280
     0
102
RTVSPost2010PropOp34
 70
     1
102
RTVSPost2010Prop35
280
     0
102
RTVSPost2010PropOp35
 70
     1
102
RTVSPost2010Prop36
280
     0
102
RTVSPost2010PropOp36
 70
     1
102
RTVSPost2010Prop37
 90
       50
102
RTVSPost2010PropOp37
 70
     1
102
RTVSPost2010Prop38
140
0.0
102
RTVSPost2010PropOp38
 70
     1
102
RTVSPost2010Prop39
140
1.0
102
RTVSPost2010PropOp39
 70
     1
102
RTVSPost2010Prop40
 90
        0
102
RTVSPost2010PropOp40
 70
     1
102
RTVSPost2010Prop41ColorIndex
 90
       18
102
RTVSPost2010Prop41ColorRGB
 90
        0
102
RTVSPost2010PropOp41
 70
     1
102
RTVSPost2010Prop42
 90
       50
102
RTVSPost2010PropOp42
 70
     1
102
RTVSPost2010Prop43
 90
        3
102
RTVSPost2010PropOp43
 70
     1
102
RTVSPost2010Prop44ColorIndex
 90
        5
102
RTVSPost2010Prop44ColorRGB
 90
      255
102
RTVSPost2010PropOp44
 70
     1
102
RTVSPost2010Prop45
280
     0
102
RTVSPost2010PropOp45
 70
     1
102
RTVSPost2010Prop46
 90
       50
102
RTVSPost2010PropOp46
 70
     1
102
RTVSPost2010Prop47
 90
       50
102
RTVSPost2010PropOp47
 70
     1
102
RTVSPost2010Prop48
 90
       50
102
RTVSPost2010PropOp48
 70
     1
102
RTVSPost2010Prop49
280
     0
102
RTVSPost2010PropOp49
 70
     1
102
RTVSPost2010Prop50
 90
       50
102
RTVSPost2010PropOp50
 70
     1
102
RTVSPost2010Prop51ColorIndex
 90
      256
102
RTVSPost2010Prop51ColorRGB
 90
-16777216
102
RTVSPost2010PropOp51
 70
     0
102
RTVSPost2010Prop52
140
1.0
102
RTVSPost2010PropOp52
 70
     0
102
RTVSPost2010Prop53
 90
        2
102
RTVSPost2010PropOp53
 70
     1
102
RTVSPost2010Prop54
  1
strokes_ogs.tif
102
RTVSPost2010PropOp54
 70
     1
102
RTVSPost2010Prop55
280
     0
102
RTVSPost2010PropOp55
 70
     1
102
RTVSPost2010Prop56
140
1.0
102
RTVSPost2010PropOp56
 70
     1
102
RTVSPost2010Prop57
140
1.0
102
RTVSPost2010PropOp57
 70
     1
  0
XRECORD
  5
2D0
102
{ACAD_REACTORS
330
2CF
102
}
330
2CF
100
AcDbXrecord
280
     1
102
RTVSPropertyOp0
 70
     1
102
RTVSPropertyOp1
 70
     1
102
RTVSPropertyOp2
 70
     1
102
RTVSPropertyOp3
 70
     1
102
RTVSPropertyOp4
 70
     1
102
RTVSPropertyOp5
 70
     1
102
RTVSPropertyOp6
 70
     1
102
RTVSPropertyOp7
 70
     1
102
RTVSPropertyOp8
 70
     1
102
RTVSPropertyOp9
 70
     1
102
RTVSPropertyOp10
 70
     1
102
RTVSPropertyOp11
 70
     1
102
RTVSPropertyOp12
 70
     1
102
RTVSPropertyOp13
 70
     1
102
RTVSPropertyOp14
 70
     1
102
RTVSPropertyOp15
 70
     1
102
RTVSPropertyOp16
 70
     1
102
RTVSPropertyOp17
 70
     1
102
RTVSPropertyOp18
 70
     1
102
RTVSPropertyOp19
 70
     1
102
RTVSPropertyOp20
 70
     1
102
RTVSPropertyOp21
 70
     1
102
RTVSPropertyOp22
 70
     1
102
RTVSPropertyOp23
 70
     1
102
RTVSPropertyOp24
 70
     1
102
RTVSPropertyOp25
 70
     1
102
RTVSPropertyOp26
 70
     1
102
RTVSPropertyOp27
 70
     1
102
RTVSPropertyOp28
 70
     1
102
RTVSPropertyOp29
 70
     1
102
RTVSPropertyOp30
 70
     1
102
RTVSPropertyOp31
 70
     1
102
RTVSPropertyOp32
 70
     1
102
RTVSPropertyOp33
 70
     1
102
RTVSPropertyOp34
 70
     1
102
RTVSPropertyOp35
 70
     1
102
RTVSPropertyOp36
 70
     1
102
RTVSPropertyOp37
 70
     1
102
RTVSPropertyOp38
 70
     1
102
RTVSPropertyOp39
 70
     1
102
RTVSPropertyOp40
 70
     1
102
RTVSPropertyOp41
 70
     1
102
RTVSPropertyOp42
 70
     1
102
RTVSPropertyOp43
 70
     1
102
RTVSPropertyOp44
 70
     1
102
RTVSPropertyOp45
 70
     1
102
RTVSPropertyOp46
 70
     1
102
RTVSPropertyOp47
 70
     1
102
RTVSPropertyOp48
 70
     1
102
RTVSPropertyOp49
 70
     1
102
RTVSPropertyOp50
 70
     1
102
RTVSPropertyOp51
 70
     0
102
RTVSPropertyOp52
 70
     0
102
RTVSPropertyOp53
 70
     1
102
RTVSPropertyOp54
 70
     1
102
RTVSPropertyOp55
 70
     1
102
RTVSPropertyOp56
 70
     1
102
RTVSPropertyOp57
 70
     1
102
RTVSPost2010Prop28
280
     0
102
RTVSPost2010PropOp28
 70
     1
102
RTVSPost2010Prop29
280
     1
102
RTVSPost2010PropOp29
 70
     1
102
RTVSPost2010Prop30
280
     1
102
RTVSPost2010PropOp30
 70
     1
102
RTVSPost2010Prop31
280
     0
102
RTVSPost2010PropOp31
 70
     1
102
RTVSPost2010Prop32
280
     0
102
RTVSPost2010PropOp32
 70
     1
102
RTVSPost2010Prop33
280
     0
102
RTVSPost2010PropOp33
 70
     1
102
RTVSPost2010Prop34
280
     0
102
RTVSPost2010PropOp34
 70
     1
102
RTVSPost2010Prop35
280
     0
102
RTVSPost2010PropOp35
 70
     1
102
RTVSPost2010Prop36
280
     0
102
RTVSPost2010PropOp36
 70
     1
102
RTVSPost2010Prop37
 90
       50
102
RTVSPost2010PropOp37
 70
     1
102
RTVSPost2010Prop38
140
0.0
102
RTVSPost2010PropOp38
 70
     1
102
RTVSPost2010Prop39
140
1.0
102
RTVSPost2010PropOp39
 70
     1
102
RTVSPost2010Prop40
 90
        0
102
RTVSPost2010PropOp40
 70
     1
102
RTVSPost2010Prop41ColorIndex
 90
       18
102
RTVSPost2010Prop41ColorRGB
 90
        0
102
RTVSPost2010PropOp41
 70
     1
102
RTVSPost2010Prop42
 90
       50
102
RTVSPost2010PropOp42
 70
     1
102
RTVSPost2010Prop43
 90
        3
102
RTVSPost2010PropOp43
 70
     1
102
RTVSPost2010Prop44ColorIndex
 90
        5
102
RTVSPost2010Prop44ColorRGB
 90
      255
102
RTVSPost2010PropOp44
 70
     1
102
RTVSPost2010Prop45
280
     0
102
RTVSPost2010PropOp45
 70
     1
102
RTVSPost2010Prop46
 90
       50
102
RTVSPost2010PropOp46
 70
     1
102
RTVSPost2010Prop47
 90
       50
102
RTVSPost2010PropOp47
 70
     1
102
RTVSPost2010Prop48
 90
       50
102
RTVSPost2010PropOp48
 70
     1
102
RTVSPost2010Prop49
280
     0
102
RTVSPost2010PropOp49
 70
     1
102
RTVSPost2010Prop50
 90
       50
102
RTVSPost2010PropOp50
 70
     1
102
RTVSPost2010Prop51ColorIndex
 90
      256
102
RTVSPost2010Prop51ColorRGB
 90
-16777216
102
RTVSPost2010PropOp51
 70
     0
102
RTVSPost2010Prop52
140
1.0
102
RTVSPost2010PropOp52
 70
     0
102
RTVSPost2010Prop53
 90
        2
102
RTVSPost2010PropOp53
 70
     1
102
RTVSPost2010Prop54
  1
strokes_ogs.tif
102
RTVSPost2010PropOp54
 70
     1
102
RTVSPost2010Prop55
280
     0
102
RTVSPost2010PropOp55
 70
     1
102
RTVSPost2010Prop56
140
1.0
102
RTVSPost2010PropOp56
 70
     1
102
RTVSPost2010Prop57
140
1.0
102
RTVSPost2010PropOp57
 70
     1
  0
XRECORD
  5
2D2
102
{ACAD_REACTORS
330
2D1
102
}
330
2D1
100
AcDbXrecord
280
     1
102
RTVSPropertyOp0
 70
     1
102
RTVSPropertyOp1
 70
     1
102
RTVSPropertyOp2
 70
     1
102
RTVSPropertyOp3
 70
     1
102
RTVSPropertyOp4
 70
     1
102
RTVSPropertyOp5
 70
     1
102
RTVSPropertyOp6
 70
     1
102
RTVSPropertyOp7
 70
     1
102
RTVSPropertyOp8
 70
     1
102
RTVSPropertyOp9
 70
     1
102
RTVSPropertyOp10
 70
     1
102
RTVSPropertyOp11
 70
     1
102
RTVSPropertyOp12
 70
     1
102
RTVSPropertyOp13
 70
     1
102
RTVSPropertyOp14
 70
     1
102
RTVSPropertyOp15
 70
     1
102
RTVSPropertyOp16
 70
     1
102
RTVSPropertyOp17
 70
     1
102
RTVSPropertyOp18
 70
     1
102
RTVSPropertyOp19
 70
     1
102
RTVSPropertyOp20
 70
     1
102
RTVSPropertyOp21
 70
     1
102
RTVSPropertyOp22
 70
     1
102
RTVSPropertyOp23
 70
     1
102
RTVSPropertyOp24
 70
     1
102
RTVSPropertyOp25
 70
     1
102
RTVSPropertyOp26
 70
     1
102
RTVSPropertyOp27
 70
     1
102
RTVSPropertyOp28
 70
     1
102
RTVSPropertyOp29
 70
     1
102
RTVSPropertyOp30
 70
     1
102
RTVSPropertyOp31
 70
     1
102
RTVSPropertyOp32
 70
     1
102
RTVSPropertyOp33
 70
     1
102
RTVSPropertyOp34
 70
     1
102
RTVSPropertyOp35
 70
     1
102
RTVSPropertyOp36
 70
     1
102
RTVSPropertyOp37
 70
     1
102
RTVSPropertyOp38
 70
     1
102
RTVSPropertyOp39
 70
     1
102
RTVSPropertyOp40
 70
     1
102
RTVSPropertyOp41
 70
     1
102
RTVSPropertyOp42
 70
     1
102
RTVSPropertyOp43
 70
     1
102
RTVSPropertyOp44
 70
     1
102
RTVSPropertyOp45
 70
     1
102
RTVSPropertyOp46
 70
     1
102
RTVSPropertyOp47
 70
     1
102
RTVSPropertyOp48
 70
     1
102
RTVSPropertyOp49
 70
     1
102
RTVSPropertyOp50
 70
     1
102
RTVSPropertyOp51
 70
     0
102
RTVSPropertyOp52
 70
     0
102
RTVSPropertyOp53
 70
     1
102
RTVSPropertyOp54
 70
     1
102
RTVSPropertyOp55
 70
     1
102
RTVSPropertyOp56
 70
     1
102
RTVSPropertyOp57
 70
     1
102
RTVSPost2010Prop28
280
     0
102
RTVSPost2010PropOp28
 70
     1
102
RTVSPost2010Prop29
280
     1
102
RTVSPost2010PropOp29
 70
     1
102
RTVSPost2010Prop30
280
     1
102
RTVSPost2010PropOp30
 70
     1
102
RTVSPost2010Prop31
280
     0
102
RTVSPost2010PropOp31
 70
     1
102
RTVSPost2010Prop32
280
     0
102
RTVSPost2010PropOp32
 70
     1
102
RTVSPost2010Prop33
280
     0
102
RTVSPost2010PropOp33
 70
     1
102
RTVSPost2010Prop34
280
     0
102
RTVSPost2010PropOp34
 70
     1
102
RTVSPost2010Prop35
280
     0
102
RTVSPost2010PropOp35
 70
     1
102
RTVSPost2010Prop36
280
     0
102
RTVSPost2010PropOp36
 70
     1
102
RTVSPost2010Prop37
 90
       50
102
RTVSPost2010PropOp37
 70
     1
102
RTVSPost2010Prop38
140
0.0
102
RTVSPost2010PropOp38
 70
     1
102
RTVSPost2010Prop39
140
1.0
102
RTVSPost2010PropOp39
 70
     1
102
RTVSPost2010Prop40
 90
        0
102
RTVSPost2010PropOp40
 70
     1
102
RTVSPost2010Prop41ColorIndex
 90
       18
102
RTVSPost2010Prop41ColorRGB
 90
        0
102
RTVSPost2010PropOp41
 70
     1
102
RTVSPost2010Prop42
 90
       50
102
RTVSPost2010PropOp42
 70
     1
102
RTVSPost2010Prop43
 90
        3
102
RTVSPost2010PropOp43
 70
     1
102
RTVSPost2010Prop44ColorIndex
 90
        5
102
RTVSPost2010Prop44ColorRGB
 90
      255
102
RTVSPost2010PropOp44
 70
     1
102
RTVSPost2010Prop45
280
     0
102
RTVSPost2010PropOp45
 70
     1
102
RTVSPost2010Prop46
 90
       50
102
RTVSPost2010PropOp46
 70
     1
102
RTVSPost2010Prop47
 90
       50
102
RTVSPost2010PropOp47
 70
     1
102
RTVSPost2010Prop48
 90
       50
102
RTVSPost2010PropOp48
 70
     1
102
RTVSPost2010Prop49
280
     0
102
RTVSPost2010PropOp49
 70
     1
102
RTVSPost2010Prop50
 90
       50
102
RTVSPost2010PropOp50
 70
     1
102
RTVSPost2010Prop51ColorIndex
 90
      256
102
RTVSPost2010Prop51ColorRGB
 90
-16777216
102
RTVSPost2010PropOp51
 70
     0
102
RTVSPost2010Prop52
140
1.0
102
RTVSPost2010PropOp52
 70
     0
102
RTVSPost2010Prop53
 90
        2
102
RTVSPost2010PropOp53
 70
     1
102
RTVSPost2010Prop54
  1
strokes_ogs.tif
102
RTVSPost2010PropOp54
 70
     1
102
RTVSPost2010Prop55
280
     0
102
RTVSPost2010PropOp55
 70
     1
102
RTVSPost2010Prop56
140
1.0
102
RTVSPost2010PropOp56
 70
     1
102
RTVSPost2010Prop57
140
1.0
102
RTVSPost2010PropOp57
 70
     1
  0
XRECORD
  5
2D8
102
{ACAD_REACTORS
330
2D7
102
}
330
2D7
100
AcDbXrecord
280
     1
102
RTVSPropertyOp0
 70
     1
102
RTVSPropertyOp1
 70
     1
102
RTVSPropertyOp2
 70
     1
102
RTVSPropertyOp3
 70
     1
102
RTVSPropertyOp4
 70
     1
102
RTVSPropertyOp5
 70
     1
102
RTVSPropertyOp6
 70
     1
102
RTVSPropertyOp7
 70
     1
102
RTVSPropertyOp8
 70
     1
102
RTVSPropertyOp9
 70
     1
102
RTVSPropertyOp10
 70
     1
102
RTVSPropertyOp11
 70
     1
102
RTVSPropertyOp12
 70
     1
102
RTVSPropertyOp13
 70
     1
102
RTVSPropertyOp14
 70
     1
102
RTVSPropertyOp15
 70
     1
102
RTVSPropertyOp16
 70
     1
102
RTVSPropertyOp17
 70
     1
102
RTVSPropertyOp18
 70
     1
102
RTVSPropertyOp19
 70
     1
102
RTVSPropertyOp20
 70
     1
102
RTVSPropertyOp21
 70
     1
102
RTVSPropertyOp22
 70
     1
102
RTVSPropertyOp23
 70
     1
102
RTVSPropertyOp24
 70
     1
102
RTVSPropertyOp25
 70
     1
102
RTVSPropertyOp26
 70
     1
102
RTVSPropertyOp27
 70
     1
102
RTVSPropertyOp28
 70
     1
102
RTVSPropertyOp29
 70
     1
102
RTVSPropertyOp30
 70
     1
102
RTVSPropertyOp31
 70
     1
102
RTVSPropertyOp32
 70
     1
102
RTVSPropertyOp33
 70
     1
102
RTVSPropertyOp34
 70
     1
102
RTVSPropertyOp35
 70
     1
102
RTVSPropertyOp36
 70
     1
102
RTVSPropertyOp37
 70
     1
102
RTVSPropertyOp38
 70
     1
102
RTVSPropertyOp39
 70
     1
102
RTVSPropertyOp40
 70
     1
102
RTVSPropertyOp41
 70
     1
102
RTVSPropertyOp42
 70
     1
102
RTVSPropertyOp43
 70
     1
102
RTVSPropertyOp44
 70
     1
102
RTVSPropertyOp45
 70
     1
102
RTVSPropertyOp46
 70
     1
102
RTVSPropertyOp47
 70
     1
102
RTVSPropertyOp48
 70
     1
102
RTVSPropertyOp49
 70
     1
102
RTVSPropertyOp50
 70
     1
102
RTVSPropertyOp51
 70
     0
102
RTVSPropertyOp52
 70
     0
102
RTVSPropertyOp53
 70
     1
102
RTVSPropertyOp54
 70
     1
102
RTVSPropertyOp55
 70
     1
102
RTVSPropertyOp56
 70
     1
102
RTVSPropertyOp57
 70
     1
102
RTVSPost2010Prop28
280
     0
102
RTVSPost2010PropOp28
 70
     1
102
RTVSPost2010Prop29
280
     1
102
RTVSPost2010PropOp29
 70
     1
102
RTVSPost2010Prop30
280
     1
102
RTVSPost2010PropOp30
 70
     1
102
RTVSPost2010Prop31
280
     0
102
RTVSPost2010PropOp31
 70
     1
102
RTVSPost2010Prop32
280
     0
102
RTVSPost2010PropOp32
 70
     1
102
RTVSPost2010Prop33
280
     0
102
RTVSPost2010PropOp33
 70
     1
102
RTVSPost2010Prop34
280
     0
102
RTVSPost2010PropOp34
 70
     1
102
RTVSPost2010Prop35
280
     0
102
RTVSPost2010PropOp35
 70
     1
102
RTVSPost2010Prop36
280
     0
102
RTVSPost2010PropOp36
 70
     1
102
RTVSPost2010Prop37
 90
       50
102
RTVSPost2010PropOp37
 70
     1
102
RTVSPost2010Prop38
140
0.0
102
RTVSPost2010PropOp38
 70
     1
102
RTVSPost2010Prop39
140
1.0
102
RTVSPost2010PropOp39
 70
     1
102
RTVSPost2010Prop40
 90
        0
102
RTVSPost2010PropOp40
 70
     1
102
RTVSPost2010Prop41ColorIndex
 90
       18
102
RTVSPost2010Prop41ColorRGB
 90
        0
102
RTVSPost2010PropOp41
 70
     1
102
RTVSPost2010Prop42
 90
       50
102
RTVSPost2010PropOp42
 70
     1
102
RTVSPost2010Prop43
 90
        3
102
RTVSPost2010PropOp43
 70
     1
102
RTVSPost2010Prop44ColorIndex
 90
        5
102
RTVSPost2010Prop44ColorRGB
 90
      255
102
RTVSPost2010PropOp44
 70
     1
102
RTVSPost2010Prop45
280
     0
102
RTVSPost2010PropOp45
 70
     1
102
RTVSPost2010Prop46
 90
       50
102
RTVSPost2010PropOp46
 70
     1
102
RTVSPost2010Prop47
 90
       50
102
RTVSPost2010PropOp47
 70
     1
102
RTVSPost2010Prop48
 90
       50
102
RTVSPost2010PropOp48
 70
     1
102
RTVSPost2010Prop49
280
     0
102
RTVSPost2010PropOp49
 70
     1
102
RTVSPost2010Prop50
 90
       50
102
RTVSPost2010PropOp50
 70
     1
102
RTVSPost2010Prop51ColorIndex
 90
      256
102
RTVSPost2010Prop51ColorRGB
 90
-16777216
102
RTVSPost2010PropOp51
 70
     0
102
RTVSPost2010Prop52
140
1.0
102
RTVSPost2010PropOp52
 70
     0
102
RTVSPost2010Prop53
 90
        2
102
RTVSPost2010PropOp53
 70
     1
102
RTVSPost2010Prop54
  1
strokes_ogs.tif
102
RTVSPost2010PropOp54
 70
     1
102
RTVSPost2010Prop55
280
     0
102
RTVSPost2010PropOp55
 70
     1
102
RTVSPost2010Prop56
140
1.0
102
RTVSPost2010PropOp56
 70
     1
102
RTVSPost2010Prop57
140
1.0
102
RTVSPost2010PropOp57
 70
     1
  0
XRECORD
  5
2EC
102
{ACAD_REACTORS
330
2EB
102
}
330
2EB
100
AcDbXrecord
280
     1
102
RTVSPropertyOp0
 70
     0
102
RTVSPropertyOp1
 70
     0
102
RTVSPropertyOp2
 70
     0
102
RTVSPropertyOp3
 70
     0
102
RTVSPropertyOp4
 70
     0
102
RTVSPropertyOp5
 70
     0
102
RTVSPropertyOp6
 70
     0
102
RTVSPropertyOp7
 70
     0
102
RTVSPropertyOp8
 70
     0
102
RTVSPropertyOp9
 70
     0
102
RTVSPropertyOp10
 70
     0
102
RTVSPropertyOp11
 70
     0
102
RTVSPropertyOp12
 70
     0
102
RTVSPropertyOp13
 70
     0
102
RTVSPropertyOp14
 70
     2
102
RTVSPropertyOp15
 70
     0
102
RTVSPropertyOp16
 70
     0
102
RTVSPropertyOp17
 70
     0
102
RTVSPropertyOp18
 70
     0
102
RTVSPropertyOp19
 70
     0
102
RTVSPropertyOp20
 70
     0
102
RTVSPropertyOp21
 70
     0
102
RTVSPropertyOp22
 70
     0
102
RTVSPropertyOp23
 70
     0
102
RTVSPropertyOp24
 70
     0
102
RTVSPropertyOp25
 70
     0
102
RTVSPropertyOp26
 70
     0
102
RTVSPropertyOp27
 70
     0
102
RTVSPropertyOp28
 70
     0
102
RTVSPropertyOp29
 70
     0
102
RTVSPropertyOp30
 70
     0
102
RTVSPropertyOp31
 70
     0
102
RTVSPropertyOp32
 70
     0
102
RTVSPropertyOp33
 70
     0
102
RTVSPropertyOp34
 70
     0
102
RTVSPropertyOp35
 70
     0
102
RTVSPropertyOp36
 70
     0
102
RTVSPropertyOp37
 70
     0
102
RTVSPropertyOp38
 70
     0
102
RTVSPropertyOp39
 70
     0
102
RTVSPropertyOp40
 70
     0
102
RTVSPropertyOp41
 70
     0
102
RTVSPropertyOp42
 70
     0
102
RTVSPropertyOp43
 70
     0
102
RTVSPropertyOp44
 70
     0
102
RTVSPropertyOp45
 70
     0
102
RTVSPropertyOp46
 70
     0
102
RTVSPropertyOp47
 70
     0
102
RTVSPropertyOp48
 70
     0
102
RTVSPropertyOp49
 70
     0
102
RTVSPropertyOp50
 70
     0
102
RTVSPropertyOp51
 70
     0
102
RTVSPropertyOp52
 70
     0
102
RTVSPropertyOp53
 70
     0
102
RTVSPropertyOp54
 70
     0
102
RTVSPropertyOp55
 70
     0
102
RTVSPropertyOp56
 70
     0
102
RTVSPropertyOp57
 70
     0
102
RTVSPost2010Prop28
280
     0
102
RTVSPost2010PropOp28
 70
     0
102
RTVSPost2010Prop29
280
     1
102
RTVSPost2010PropOp29
 70
     0
102
RTVSPost2010Prop30
280
     1
102
RTVSPost2010PropOp30
 70
     0
102
RTVSPost2010Prop31
280
     0
102
RTVSPost2010PropOp31
 70
     0
102
RTVSPost2010Prop32
280
     0
102
RTVSPost2010PropOp32
 70
     0
102
RTVSPost2010Prop33
280
     0
102
RTVSPost2010PropOp33
 70
     0
102
RTVSPost2010Prop34
280
     0
102
RTVSPost2010PropOp34
 70
     0
102
RTVSPost2010Prop35
280
     0
102
RTVSPost2010PropOp35
 70
     0
102
RTVSPost2010Prop36
280
     0
102
RTVSPost2010PropOp36
 70
     0
102
RTVSPost2010Prop37
 90
       50
102
RTVSPost2010PropOp37
 70
     0
102
RTVSPost2010Prop38
140
0.0
102
RTVSPost2010PropOp38
 70
     0
102
RTVSPost2010Prop39
140
1.0
102
RTVSPost2010PropOp39
 70
     0
102
RTVSPost2010Prop40
 90
        0
102
RTVSPost2010PropOp40
 70
     0
102
RTVSPost2010Prop41ColorIndex
 90
       18
102
RTVSPost2010Prop41ColorRGB
 90
        0
102
RTVSPost2010PropOp41
 70
     0
102
RTVSPost2010Prop42
 90
       50
102
RTVSPost2010PropOp42
 70
     0
102
RTVSPost2010Prop43
 90
        3
102
RTVSPost2010PropOp43
 70
     0
102
RTVSPost2010Prop44ColorIndex
 90
        5
102
RTVSPost2010Prop44ColorRGB
 90
      255
102
RTVSPost2010PropOp44
 70
     0
102
RTVSPost2010Prop45
280
     0
102
RTVSPost2010PropOp45
 70
     0
102
RTVSPost2010Prop46
 90
       50
102
RTVSPost2010PropOp46
 70
     0
102
RTVSPost2010Prop47
 90
       50
102
RTVSPost2010PropOp47
 70
     0
102
RTVSPost2010Prop48
 90
       50
102
RTVSPost2010PropOp48
 70
     0
102
RTVSPost2010Prop49
280
     0
102
RTVSPost2010PropOp49
 70
     0
102
RTVSPost2010Prop50
 90
       50
102
RTVSPost2010PropOp50
 70
     0
102
RTVSPost2010Prop51ColorIndex
 90
      256
102
RTVSPost2010Prop51ColorRGB
 90
-16777216
102
RTVSPost2010PropOp51
 70
     0
102
RTVSPost2010Prop52
140
1.0
102
RTVSPost2010PropOp52
 70
     0
102
RTVSPost2010Prop53
 90
        2
102
RTVSPost2010PropOp53
 70
     0
102
RTVSPost2010Prop54
  1
strokes_ogs.tif
102
RTVSPost2010PropOp54
 70
     0
102
RTVSPost2010Prop55
280
     0
102
RTVSPost2010PropOp55
 70
     0
102
RTVSPost2010Prop56
140
1.0
102
RTVSPost2010PropOp56
 70
     0
102
RTVSPost2010Prop57
140
1.0
102
RTVSPost2010PropOp57
 70
     0
  0
XRECORD
  5
2E6
102
{ACAD_REACTORS
330
2E5
102
}
330
2E5
100
AcDbXrecord
280
     1
102
RTVSPropertyOp0
 70
     1
102
RTVSPropertyOp1
 70
     1
102
RTVSPropertyOp2
 70
     1
102
RTVSPropertyOp3
 70
     1
102
RTVSPropertyOp4
 70
     1
102
RTVSPropertyOp5
 70
     1
102
RTVSPropertyOp6
 70
     1
102
RTVSPropertyOp7
 70
     1
102
RTVSPropertyOp8
 70
     1
102
RTVSPropertyOp9
 70
     1
102
RTVSPropertyOp10
 70
     1
102
RTVSPropertyOp11
 70
     1
102
RTVSPropertyOp12
 70
     1
102
RTVSPropertyOp13
 70
     1
102
RTVSPropertyOp14
 70
     1
102
RTVSPropertyOp15
 70
     1
102
RTVSPropertyOp16
 70
     1
102
RTVSPropertyOp17
 70
     1
102
RTVSPropertyOp18
 70
     1
102
RTVSPropertyOp19
 70
     1
102
RTVSPropertyOp20
 70
     1
102
RTVSPropertyOp21
 70
     1
102
RTVSPropertyOp22
 70
     1
102
RTVSPropertyOp23
 70
     1
102
RTVSPropertyOp24
 70
     1
102
RTVSPropertyOp25
 70
     1
102
RTVSPropertyOp26
 70
     1
102
RTVSPropertyOp27
 70
     1
102
RTVSPropertyOp28
 70
     1
102
RTVSPropertyOp29
 70
     1
102
RTVSPropertyOp30
 70
     1
102
RTVSPropertyOp31
 70
     1
102
RTVSPropertyOp32
 70
     1
102
RTVSPropertyOp33
 70
     1
102
RTVSPropertyOp34
 70
     1
102
RTVSPropertyOp35
 70
     1
102
RTVSPropertyOp36
 70
     1
102
RTVSPropertyOp37
 70
     1
102
RTVSPropertyOp38
 70
     1
102
RTVSPropertyOp39
 70
     1
102
RTVSPropertyOp40
 70
     1
102
RTVSPropertyOp41
 70
     1
102
RTVSPropertyOp42
 70
     1
102
RTVSPropertyOp43
 70
     1
102
RTVSPropertyOp44
 70
     1
102
RTVSPropertyOp45
 70
     1
102
RTVSPropertyOp46
 70
     1
102
RTVSPropertyOp47
 70
     1
102
RTVSPropertyOp48
 70
     1
102
RTVSPropertyOp49
 70
     1
102
RTVSPropertyOp50
 70
     1
102
RTVSPropertyOp51
 70
     0
102
RTVSPropertyOp52
 70
     0
102
RTVSPropertyOp53
 70
     1
102
RTVSPropertyOp54
 70
     1
102
RTVSPropertyOp55
 70
     1
102
RTVSPropertyOp56
 70
     1
102
RTVSPropertyOp57
 70
     1
102
RTVSPost2010Prop28
280
     0
102
RTVSPost2010PropOp28
 70
     1
102
RTVSPost2010Prop29
280
     1
102
RTVSPost2010PropOp29
 70
     1
102
RTVSPost2010Prop30
280
     1
102
RTVSPost2010PropOp30
 70
     1
102
RTVSPost2010Prop31
280
     0
102
RTVSPost2010PropOp31
 70
     1
102
RTVSPost2010Prop32
280
     0
102
RTVSPost2010PropOp32
 70
     1
102
RTVSPost2010Prop33
280
     0
102
RTVSPost2010PropOp33
 70
     1
102
RTVSPost2010Prop34
280
     0
102
RTVSPost2010PropOp34
 70
     1
102
RTVSPost2010Prop35
280
     0
102
RTVSPost2010PropOp35
 70
     1
102
RTVSPost2010Prop36
280
     0
102
RTVSPost2010PropOp36
 70
     1
102
RTVSPost2010Prop37
 90
       50
102
RTVSPost2010PropOp37
 70
     1
102
RTVSPost2010Prop38
140
0.0
102
RTVSPost2010PropOp38
 70
     1
102
RTVSPost2010Prop39
140
1.0
102
RTVSPost2010PropOp39
 70
     1
102
RTVSPost2010Prop40
 90
        0
102
RTVSPost2010PropOp40
 70
     1
102
RTVSPost2010Prop41ColorIndex
 90
       18
102
RTVSPost2010Prop41ColorRGB
 90
        0
102
RTVSPost2010PropOp41
 70
     1
102
RTVSPost2010Prop42
 90
       50
102
RTVSPost2010PropOp42
 70
     1
102
RTVSPost2010Prop43
 90
        3
102
RTVSPost2010PropOp43
 70
     1
102
RTVSPost2010Prop44ColorIndex
 90
        5
102
RTVSPost2010Prop44ColorRGB
 90
      255
102
RTVSPost2010PropOp44
 70
     1
102
RTVSPost2010Prop45
280
     0
102
RTVSPost2010PropOp45
 70
     1
102
RTVSPost2010Prop46
 90
       50
102
RTVSPost2010PropOp46
 70
     1
102
RTVSPost2010Prop47
 90
       50
102
RTVSPost2010PropOp47
 70
     1
102
RTVSPost2010Prop48
 90
       50
102
RTVSPost2010PropOp48
 70
     1
102
RTVSPost2010Prop49
280
     0
102
RTVSPost2010PropOp49
 70
     1
102
RTVSPost2010Prop50
 90
       50
102
RTVSPost2010PropOp50
 70
     1
102
RTVSPost2010Prop51ColorIndex
 90
      256
102
RTVSPost2010Prop51ColorRGB
 90
-16777216
102
RTVSPost2010PropOp51
 70
     0
102
RTVSPost2010Prop52
140
1.0
102
RTVSPost2010PropOp52
 70
     0
102
RTVSPost2010Prop53
 90
        2
102
RTVSPost2010PropOp53
 70
     1
102
RTVSPost2010Prop54
  1
strokes_ogs.tif
102
RTVSPost2010PropOp54
 70
     1
102
RTVSPost2010Prop55
280
     0
102
RTVSPost2010PropOp55
 70
     1
102
RTVSPost2010Prop56
140
1.0
102
RTVSPost2010PropOp56
 70
     1
102
RTVSPost2010Prop57
140
1.0
102
RTVSPost2010PropOp57
 70
     1
  0
XRECORD
  5
2EE
102
{ACAD_REACTORS
330
2ED
102
}
330
2ED
100
AcDbXrecord
280
     1
102
RTVSPropertyOp0
 70
     0
102
RTVSPropertyOp1
 70
     0
102
RTVSPropertyOp2
 70
     0
102
RTVSPropertyOp3
 70
     0
102
RTVSPropertyOp4
 70
     0
102
RTVSPropertyOp5
 70
     0
102
RTVSPropertyOp6
 70
     0
102
RTVSPropertyOp7
 70
     0
102
RTVSPropertyOp8
 70
     0
102
RTVSPropertyOp9
 70
     0
102
RTVSPropertyOp10
 70
     0
102
RTVSPropertyOp11
 70
     0
102
RTVSPropertyOp12
 70
     0
102
RTVSPropertyOp13
 70
     0
102
RTVSPropertyOp14
 70
     2
102
RTVSPropertyOp15
 70
     0
102
RTVSPropertyOp16
 70
     0
102
RTVSPropertyOp17
 70
     0
102
RTVSPropertyOp18
 70
     0
102
RTVSPropertyOp19
 70
     0
102
RTVSPropertyOp20
 70
     0
102
RTVSPropertyOp21
 70
     0
102
RTVSPropertyOp22
 70
     0
102
RTVSPropertyOp23
 70
     0
102
RTVSPropertyOp24
 70
     0
102
RTVSPropertyOp25
 70
     0
102
RTVSPropertyOp26
 70
     0
102
RTVSPropertyOp27
 70
     0
102
RTVSPropertyOp28
 70
     0
102
RTVSPropertyOp29
 70
     0
102
RTVSPropertyOp30
 70
     0
102
RTVSPropertyOp31
 70
     0
102
RTVSPropertyOp32
 70
     0
102
RTVSPropertyOp33
 70
     0
102
RTVSPropertyOp34
 70
     0
102
RTVSPropertyOp35
 70
     0
102
RTVSPropertyOp36
 70
     0
102
RTVSPropertyOp37
 70
     0
102
RTVSPropertyOp38
 70
     0
102
RTVSPropertyOp39
 70
     0
102
RTVSPropertyOp40
 70
     0
102
RTVSPropertyOp41
 70
     0
102
RTVSPropertyOp42
 70
     0
102
RTVSPropertyOp43
 70
     0
102
RTVSPropertyOp44
 70
     0
102
RTVSPropertyOp45
 70
     0
102
RTVSPropertyOp46
 70
     0
102
RTVSPropertyOp47
 70
     0
102
RTVSPropertyOp48
 70
     0
102
RTVSPropertyOp49
 70
     0
102
RTVSPropertyOp50
 70
     0
102
RTVSPropertyOp51
 70
     0
102
RTVSPropertyOp52
 70
     0
102
RTVSPropertyOp53
 70
     0
102
RTVSPropertyOp54
 70
     0
102
RTVSPropertyOp55
 70
     0
102
RTVSPropertyOp56
 70
     0
102
RTVSPropertyOp57
 70
     0
102
RTVSPost2010Prop28
280
     0
102
RTVSPost2010PropOp28
 70
     0
102
RTVSPost2010Prop29
280
     1
102
RTVSPost2010PropOp29
 70
     0
102
RTVSPost2010Prop30
280
     1
102
RTVSPost2010PropOp30
 70
     0
102
RTVSPost2010Prop31
280
     0
102
RTVSPost2010PropOp31
 70
     0
102
RTVSPost2010Prop32
280
     0
102
RTVSPost2010PropOp32
 70
     0
102
RTVSPost2010Prop33
280
     0
102
RTVSPost2010PropOp33
 70
     0
102
RTVSPost2010Prop34
280
     0
102
RTVSPost2010PropOp34
 70
     0
102
RTVSPost2010Prop35
280
     0
102
RTVSPost2010PropOp35
 70
     0
102
RTVSPost2010Prop36
280
     0
102
RTVSPost2010PropOp36
 70
     0
102
RTVSPost2010Prop37
 90
       50
102
RTVSPost2010PropOp37
 70
     0
102
RTVSPost2010Prop38
140
0.0
102
RTVSPost2010PropOp38
 70
     0
102
RTVSPost2010Prop39
140
1.0
102
RTVSPost2010PropOp39
 70
     0
102
RTVSPost2010Prop40
 90
        0
102
RTVSPost2010PropOp40
 70
     0
102
RTVSPost2010Prop41ColorIndex
 90
       18
102
RTVSPost2010Prop41ColorRGB
 90
        0
102
RTVSPost2010PropOp41
 70
     0
102
RTVSPost2010Prop42
 90
       50
102
RTVSPost2010PropOp42
 70
     0
102
RTVSPost2010Prop43
 90
        3
102
RTVSPost2010PropOp43
 70
     0
102
RTVSPost2010Prop44ColorIndex
 90
        5
102
RTVSPost2010Prop44ColorRGB
 90
      255
102
RTVSPost2010PropOp44
 70
     0
102
RTVSPost2010Prop45
280
     0
102
RTVSPost2010PropOp45
 70
     0
102
RTVSPost2010Prop46
 90
       50
102
RTVSPost2010PropOp46
 70
     0
102
RTVSPost2010Prop47
 90
       50
102
RTVSPost2010PropOp47
 70
     0
102
RTVSPost2010Prop48
 90
       50
102
RTVSPost2010PropOp48
 70
     0
102
RTVSPost2010Prop49
280
     0
102
RTVSPost2010PropOp49
 70
     0
102
RTVSPost2010Prop50
 90
       50
102
RTVSPost2010PropOp50
 70
     0
102
RTVSPost2010Prop51ColorIndex
 90
      256
102
RTVSPost2010Prop51ColorRGB
 90
-16777216
102
RTVSPost2010PropOp51
 70
     0
102
RTVSPost2010Prop52
140
1.0
102
RTVSPost2010PropOp52
 70
     0
102
RTVSPost2010Prop53
 90
        2
102
RTVSPost2010PropOp53
 70
     0
102
RTVSPost2010Prop54
  1
strokes_ogs.tif
102
RTVSPost2010PropOp54
 70
     0
102
RTVSPost2010Prop55
280
     0
102
RTVSPost2010PropOp55
 70
     0
102
RTVSPost2010Prop56
140
1.0
102
RTVSPost2010PropOp56
 70
     0
102
RTVSPost2010Prop57
140
1.0
102
RTVSPost2010PropOp57
 70
     0
  0
XRECORD
  5
2DC
102
{ACAD_REACTORS
330
2DB
102
}
330
2DB
100
AcDbXrecord
280
     1
102
RTVSPropertyOp0
 70
     1
102
RTVSPropertyOp1
 70
     1
102
RTVSPropertyOp2
 70
     1
102
RTVSPropertyOp3
 70
     1
102
RTVSPropertyOp4
 70
     1
102
RTVSPropertyOp5
 70
     1
102
RTVSPropertyOp6
 70
     1
102
RTVSPropertyOp7
 70
     1
102
RTVSPropertyOp8
 70
     1
102
RTVSPropertyOp9
 70
     1
102
RTVSPropertyOp10
 70
     1
102
RTVSPropertyOp11
 70
     1
102
RTVSPropertyOp12
 70
     1
102
RTVSPropertyOp13
 70
     1
102
RTVSPropertyOp14
 70
     1
102
RTVSPropertyOp15
 70
     1
102
RTVSPropertyOp16
 70
     1
102
RTVSPropertyOp17
 70
     1
102
RTVSPropertyOp18
 70
     1
102
RTVSPropertyOp19
 70
     1
102
RTVSPropertyOp20
 70
     1
102
RTVSPropertyOp21
 70
     1
102
RTVSPropertyOp22
 70
     1
102
RTVSPropertyOp23
 70
     1
102
RTVSPropertyOp24
 70
     1
102
RTVSPropertyOp25
 70
     1
102
RTVSPropertyOp26
 70
     1
102
RTVSPropertyOp27
 70
     1
102
RTVSPropertyOp28
 70
     1
102
RTVSPropertyOp29
 70
     1
102
RTVSPropertyOp30
 70
     1
102
RTVSPropertyOp31
 70
     1
102
RTVSPropertyOp32
 70
     1
102
RTVSPropertyOp33
 70
     1
102
RTVSPropertyOp34
 70
     1
102
RTVSPropertyOp35
 70
     1
102
RTVSPropertyOp36
 70
     1
102
RTVSPropertyOp37
 70
     1
102
RTVSPropertyOp38
 70
     1
102
RTVSPropertyOp39
 70
     1
102
RTVSPropertyOp40
 70
     1
102
RTVSPropertyOp41
 70
     1
102
RTVSPropertyOp42
 70
     1
102
RTVSPropertyOp43
 70
     1
102
RTVSPropertyOp44
 70
     1
102
RTVSPropertyOp45
 70
     1
102
RTVSPropertyOp46
 70
     1
102
RTVSPropertyOp47
 70
     1
102
RTVSPropertyOp48
 70
     1
102
RTVSPropertyOp49
 70
     1
102
RTVSPropertyOp50
 70
     1
102
RTVSPropertyOp51
 70
     0
102
RTVSPropertyOp52
 70
     0
102
RTVSPropertyOp53
 70
     1
102
RTVSPropertyOp54
 70
     1
102
RTVSPropertyOp55
 70
     1
102
RTVSPropertyOp56
 70
     1
102
RTVSPropertyOp57
 70
     1
102
RTVSPost2010Prop28
280
     0
102
RTVSPost2010PropOp28
 70
     1
102
RTVSPost2010Prop29
280
     1
102
RTVSPost2010PropOp29
 70
     1
102
RTVSPost2010Prop30
280
     1
102
RTVSPost2010PropOp30
 70
     1
102
RTVSPost2010Prop31
280
     0
102
RTVSPost2010PropOp31
 70
     1
102
RTVSPost2010Prop32
280
     0
102
RTVSPost2010PropOp32
 70
     1
102
RTVSPost2010Prop33
280
     0
102
RTVSPost2010PropOp33
 70
     1
102
RTVSPost2010Prop34
280
     0
102
RTVSPost2010PropOp34
 70
     1
102
RTVSPost2010Prop35
280
     0
102
RTVSPost2010PropOp35
 70
     1
102
RTVSPost2010Prop36
280
     0
102
RTVSPost2010PropOp36
 70
     1
102
RTVSPost2010Prop37
 90
       50
102
RTVSPost2010PropOp37
 70
     1
102
RTVSPost2010Prop38
140
0.0
102
RTVSPost2010PropOp38
 70
     1
102
RTVSPost2010Prop39
140
1.0
102
RTVSPost2010PropOp39
 70
     1
102
RTVSPost2010Prop40
 90
        0
102
RTVSPost2010PropOp40
 70
     1
102
RTVSPost2010Prop41ColorIndex
 90
       18
102
RTVSPost2010Prop41ColorRGB
 90
        0
102
RTVSPost2010PropOp41
 70
     1
102
RTVSPost2010Prop42
 90
       50
102
RTVSPost2010PropOp42
 70
     1
102
RTVSPost2010Prop43
 90
        3
102
RTVSPost2010PropOp43
 70
     1
102
RTVSPost2010Prop44ColorIndex
 90
        5
102
RTVSPost2010Prop44ColorRGB
 90
      255
102
RTVSPost2010PropOp44
 70
     1
102
RTVSPost2010Prop45
280
     0
102
RTVSPost2010PropOp45
 70
     1
102
RTVSPost2010Prop46
 90
       50
102
RTVSPost2010PropOp46
 70
     1
102
RTVSPost2010Prop47
 90
       50
102
RTVSPost2010PropOp47
 70
     1
102
RTVSPost2010Prop48
 90
       50
102
RTVSPost2010PropOp48
 70
     1
102
RTVSPost2010Prop49
280
     0
102
RTVSPost2010PropOp49
 70
     1
102
RTVSPost2010Prop50
 90
       50
102
RTVSPost2010PropOp50
 70
     1
102
RTVSPost2010Prop51ColorIndex
 90
      256
102
RTVSPost2010Prop51ColorRGB
 90
-16777216
102
RTVSPost2010PropOp51
 70
     0
102
RTVSPost2010Prop52
140
1.0
102
RTVSPost2010PropOp52
 70
     0
102
RTVSPost2010Prop53
 90
        2
102
RTVSPost2010PropOp53
 70
     1
102
RTVSPost2010Prop54
  1
strokes_ogs.tif
102
RTVSPost2010PropOp54
 70
     1
102
RTVSPost2010Prop55
280
     0
102
RTVSPost2010PropOp55
 70
     1
102
RTVSPost2010Prop56
140
1.0
102
RTVSPost2010PropOp56
 70
     1
102
RTVSPost2010Prop57
140
1.0
102
RTVSPost2010PropOp57
 70
     1
  0
XRECORD
  5
2FA
102
{ACAD_REACTORS
330
2F9
102
}
330
2F9
100
AcDbXrecord
280
     1
102
RTVSPropertyOp0
 70
     1
102
RTVSPropertyOp1
 70
     1
102
RTVSPropertyOp2
 70
     1
102
RTVSPropertyOp3
 70
     1
102
RTVSPropertyOp4
 70
     1
102
RTVSPropertyOp5
 70
     1
102
RTVSPropertyOp6
 70
     1
102
RTVSPropertyOp7
 70
     1
102
RTVSPropertyOp8
 70
     1
102
RTVSPropertyOp9
 70
     1
102
RTVSPropertyOp10
 70
     1
102
RTVSPropertyOp11
 70
     1
102
RTVSPropertyOp12
 70
     1
102
RTVSPropertyOp13
 70
     1
102
RTVSPropertyOp14
 70
     1
102
RTVSPropertyOp15
 70
     1
102
RTVSPropertyOp16
 70
     1
102
RTVSPropertyOp17
 70
     1
102
RTVSPropertyOp18
 70
     1
102
RTVSPropertyOp19
 70
     1
102
RTVSPropertyOp20
 70
     1
102
RTVSPropertyOp21
 70
     1
102
RTVSPropertyOp22
 70
     1
102
RTVSPropertyOp23
 70
     1
102
RTVSPropertyOp24
 70
     1
102
RTVSPropertyOp25
 70
     1
102
RTVSPropertyOp26
 70
     1
102
RTVSPropertyOp27
 70
     1
102
RTVSPropertyOp28
 70
     1
102
RTVSPropertyOp29
 70
     1
102
RTVSPropertyOp30
 70
     1
102
RTVSPropertyOp31
 70
     1
102
RTVSPropertyOp32
 70
     1
102
RTVSPropertyOp33
 70
     1
102
RTVSPropertyOp34
 70
     1
102
RTVSPropertyOp35
 70
     1
102
RTVSPropertyOp36
 70
     1
102
RTVSPropertyOp37
 70
     1
102
RTVSPropertyOp38
 70
     1
102
RTVSPropertyOp39
 70
     1
102
RTVSPropertyOp40
 70
     1
102
RTVSPropertyOp41
 70
     1
102
RTVSPropertyOp42
 70
     1
102
RTVSPropertyOp43
 70
     1
102
RTVSPropertyOp44
 70
     1
102
RTVSPropertyOp45
 70
     1
102
RTVSPropertyOp46
 70
     1
102
RTVSPropertyOp47
 70
     1
102
RTVSPropertyOp48
 70
     1
102
RTVSPropertyOp49
 70
     1
102
RTVSPropertyOp50
 70
     1
102
RTVSPropertyOp51
 70
     0
102
RTVSPropertyOp52
 70
     0
102
RTVSPropertyOp53
 70
     1
102
RTVSPropertyOp54
 70
     1
102
RTVSPropertyOp55
 70
     1
102
RTVSPropertyOp56
 70
     1
102
RTVSPropertyOp57
 70
     1
102
RTVSPost2010Prop28
280
     0
102
RTVSPost2010PropOp28
 70
     1
102
RTVSPost2010Prop29
280
     1
102
RTVSPost2010PropOp29
 70
     1
102
RTVSPost2010Prop30
280
     1
102
RTVSPost2010PropOp30
 70
     1
102
RTVSPost2010Prop31
280
     0
102
RTVSPost2010PropOp31
 70
     1
102
RTVSPost2010Prop32
280
     0
102
RTVSPost2010PropOp32
 70
     1
102
RTVSPost2010Prop33
280
     0
102
RTVSPost2010PropOp33
 70
     1
102
RTVSPost2010Prop34
280
     0
102
RTVSPost2010PropOp34
 70
     1
102
RTVSPost2010Prop35
280
     0
102
RTVSPost2010PropOp35
 70
     1
102
RTVSPost2010Prop36
280
     0
102
RTVSPost2010PropOp36
 70
     1
102
RTVSPost2010Prop37
 90
       50
102
RTVSPost2010PropOp37
 70
     1
102
RTVSPost2010Prop38
140
0.0
102
RTVSPost2010PropOp38
 70
     1
102
RTVSPost2010Prop39
140
1.0
102
RTVSPost2010PropOp39
 70
     1
102
RTVSPost2010Prop40
 90
        0
102
RTVSPost2010PropOp40
 70
     1
102
RTVSPost2010Prop41ColorIndex
 90
       18
102
RTVSPost2010Prop41ColorRGB
 90
        0
102
RTVSPost2010PropOp41
 70
     1
102
RTVSPost2010Prop42
 90
       50
102
RTVSPost2010PropOp42
 70
     1
102
RTVSPost2010Prop43
 90
        3
102
RTVSPost2010PropOp43
 70
     1
102
RTVSPost2010Prop44ColorIndex
 90
        5
102
RTVSPost2010Prop44ColorRGB
 90
      255
102
RTVSPost2010PropOp44
 70
     1
102
RTVSPost2010Prop45
280
     0
102
RTVSPost2010PropOp45
 70
     1
102
RTVSPost2010Prop46
 90
       50
102
RTVSPost2010PropOp46
 70
     1
102
RTVSPost2010Prop47
 90
       50
102
RTVSPost2010PropOp47
 70
     1
102
RTVSPost2010Prop48
 90
       50
102
RTVSPost2010PropOp48
 70
     1
102
RTVSPost2010Prop49
280
     0
102
RTVSPost2010PropOp49
 70
     1
102
RTVSPost2010Prop50
 90
       50
102
RTVSPost2010PropOp50
 70
     1
102
RTVSPost2010Prop51ColorIndex
 90
      256
102
RTVSPost2010Prop51ColorRGB
 90
-16777216
102
RTVSPost2010PropOp51
 70
     0
102
RTVSPost2010Prop52
140
1.0
102
RTVSPost2010PropOp52
 70
     0
102
RTVSPost2010Prop53
 90
        2
102
RTVSPost2010PropOp53
 70
     1
102
RTVSPost2010Prop54
  1
strokes_ogs.tif
102
RTVSPost2010PropOp54
 70
     1
102
RTVSPost2010Prop55
280
     0
102
RTVSPost2010PropOp55
 70
     1
102
RTVSPost2010Prop56
140
1.0
102
RTVSPost2010PropOp56
 70
     1
102
RTVSPost2010Prop57
140
1.0
102
RTVSPost2010PropOp57
 70
     1
  0
XRECORD
  5
2F8
102
{ACAD_REACTORS
330
2F7
102
}
330
2F7
100
AcDbXrecord
280
     1
102
RTVSPropertyOp0
 70
     1
102
RTVSPropertyOp1
 70
     1
102
RTVSPropertyOp2
 70
     1
102
RTVSPropertyOp3
 70
     1
102
RTVSPropertyOp4
 70
     1
102
RTVSPropertyOp5
 70
     1
102
RTVSPropertyOp6
 70
     1
102
RTVSPropertyOp7
 70
     1
102
RTVSPropertyOp8
 70
     1
102
RTVSPropertyOp9
 70
     1
102
RTVSPropertyOp10
 70
     1
102
RTVSPropertyOp11
 70
     1
102
RTVSPropertyOp12
 70
     1
102
RTVSPropertyOp13
 70
     1
102
RTVSPropertyOp14
 70
     1
102
RTVSPropertyOp15
 70
     1
102
RTVSPropertyOp16
 70
     1
102
RTVSPropertyOp17
 70
     1
102
RTVSPropertyOp18
 70
     1
102
RTVSPropertyOp19
 70
     1
102
RTVSPropertyOp20
 70
     1
102
RTVSPropertyOp21
 70
     1
102
RTVSPropertyOp22
 70
     1
102
RTVSPropertyOp23
 70
     1
102
RTVSPropertyOp24
 70
     1
102
RTVSPropertyOp25
 70
     1
102
RTVSPropertyOp26
 70
     1
102
RTVSPropertyOp27
 70
     1
102
RTVSPropertyOp28
 70
     1
102
RTVSPropertyOp29
 70
     1
102
RTVSPropertyOp30
 70
     1
102
RTVSPropertyOp31
 70
     1
102
RTVSPropertyOp32
 70
     1
102
RTVSPropertyOp33
 70
     1
102
RTVSPropertyOp34
 70
     1
102
RTVSPropertyOp35
 70
     1
102
RTVSPropertyOp36
 70
     1
102
RTVSPropertyOp37
 70
     1
102
RTVSPropertyOp38
 70
     1
102
RTVSPropertyOp39
 70
     1
102
RTVSPropertyOp40
 70
     1
102
RTVSPropertyOp41
 70
     1
102
RTVSPropertyOp42
 70
     1
102
RTVSPropertyOp43
 70
     1
102
RTVSPropertyOp44
 70
     1
102
RTVSPropertyOp45
 70
     1
102
RTVSPropertyOp46
 70
     1
102
RTVSPropertyOp47
 70
     1
102
RTVSPropertyOp48
 70
     1
102
RTVSPropertyOp49
 70
     1
102
RTVSPropertyOp50
 70
     1
102
RTVSPropertyOp51
 70
     0
102
RTVSPropertyOp52
 70
     0
102
RTVSPropertyOp53
 70
     1
102
RTVSPropertyOp54
 70
     1
102
RTVSPropertyOp55
 70
     1
102
RTVSPropertyOp56
 70
     1
102
RTVSPropertyOp57
 70
     1
102
RTVSPost2010Prop28
280
     0
102
RTVSPost2010PropOp28
 70
     1
102
RTVSPost2010Prop29
280
     1
102
RTVSPost2010PropOp29
 70
     1
102
RTVSPost2010Prop30
280
     1
102
RTVSPost2010PropOp30
 70
     1
102
RTVSPost2010Prop31
280
     0
102
RTVSPost2010PropOp31
 70
     1
102
RTVSPost2010Prop32
280
     0
102
RTVSPost2010PropOp32
 70
     1
102
RTVSPost2010Prop33
280
     0
102
RTVSPost2010PropOp33
 70
     1
102
RTVSPost2010Prop34
280
     0
102
RTVSPost2010PropOp34
 70
     1
102
RTVSPost2010Prop35
280
     0
102
RTVSPost2010PropOp35
 70
     1
102
RTVSPost2010Prop36
280
     0
102
RTVSPost2010PropOp36
 70
     1
102
RTVSPost2010Prop37
 90
       50
102
RTVSPost2010PropOp37
 70
     1
102
RTVSPost2010Prop38
140
0.0
102
RTVSPost2010PropOp38
 70
     1
102
RTVSPost2010Prop39
140
1.0
102
RTVSPost2010PropOp39
 70
     1
102
RTVSPost2010Prop40
 90
        0
102
RTVSPost2010PropOp40
 70
     1
102
RTVSPost2010Prop41ColorIndex
 90
       18
102
RTVSPost2010Prop41ColorRGB
 90
        0
102
RTVSPost2010PropOp41
 70
     1
102
RTVSPost2010Prop42
 90
       50
102
RTVSPost2010PropOp42
 70
     1
102
RTVSPost2010Prop43
 90
        3
102
RTVSPost2010PropOp43
 70
     1
102
RTVSPost2010Prop44ColorIndex
 90
        5
102
RTVSPost2010Prop44ColorRGB
 90
      255
102
RTVSPost2010PropOp44
 70
     1
102
RTVSPost2010Prop45
280
     0
102
RTVSPost2010PropOp45
 70
     1
102
RTVSPost2010Prop46
 90
       50
102
RTVSPost2010PropOp46
 70
     1
102
RTVSPost2010Prop47
 90
       50
102
RTVSPost2010PropOp47
 70
     1
102
RTVSPost2010Prop48
 90
       50
102
RTVSPost2010PropOp48
 70
     1
102
RTVSPost2010Prop49
280
     0
102
RTVSPost2010PropOp49
 70
     1
102
RTVSPost2010Prop50
 90
       50
102
RTVSPost2010PropOp50
 70
     1
102
RTVSPost2010Prop51ColorIndex
 90
      256
102
RTVSPost2010Prop51ColorRGB
 90
-16777216
102
RTVSPost2010PropOp51
 70
     0
102
RTVSPost2010Prop52
140
1.0
102
RTVSPost2010PropOp52
 70
     0
102
RTVSPost2010Prop53
 90
        2
102
RTVSPost2010PropOp53
 70
     1
102
RTVSPost2010Prop54
  1
strokes_ogs.tif
102
RTVSPost2010PropOp54
 70
     1
102
RTVSPost2010Prop55
280
     0
102
RTVSPost2010PropOp55
 70
     1
102
RTVSPost2010Prop56
140
1.0
102
RTVSPost2010PropOp56
 70
     1
102
RTVSPost2010Prop57
140
1.0
102
RTVSPost2010PropOp57
 70
     1
  0
XRECORD
  5
2F2
102
{ACAD_REACTORS
330
2F1
102
}
330
2F1
100
AcDbXrecord
280
     1
102
RTVSPropertyOp0
 70
     1
102
RTVSPropertyOp1
 70
     1
102
RTVSPropertyOp2
 70
     1
102
RTVSPropertyOp3
 70
     1
102
RTVSPropertyOp4
 70
     1
102
RTVSPropertyOp5
 70
     1
102
RTVSPropertyOp6
 70
     1
102
RTVSPropertyOp7
 70
     1
102
RTVSPropertyOp8
 70
     1
102
RTVSPropertyOp9
 70
     1
102
RTVSPropertyOp10
 70
     1
102
RTVSPropertyOp11
 70
     1
102
RTVSPropertyOp12
 70
     1
102
RTVSPropertyOp13
 70
     1
102
RTVSPropertyOp14
 70
     1
102
RTVSPropertyOp15
 70
     1
102
RTVSPropertyOp16
 70
     1
102
RTVSPropertyOp17
 70
     1
102
RTVSPropertyOp18
 70
     1
102
RTVSPropertyOp19
 70
     1
102
RTVSPropertyOp20
 70
     1
102
RTVSPropertyOp21
 70
     1
102
RTVSPropertyOp22
 70
     1
102
RTVSPropertyOp23
 70
     1
102
RTVSPropertyOp24
 70
     1
102
RTVSPropertyOp25
 70
     1
102
RTVSPropertyOp26
 70
     1
102
RTVSPropertyOp27
 70
     1
102
RTVSPropertyOp28
 70
     1
102
RTVSPropertyOp29
 70
     1
102
RTVSPropertyOp30
 70
     1
102
RTVSPropertyOp31
 70
     1
102
RTVSPropertyOp32
 70
     1
102
RTVSPropertyOp33
 70
     1
102
RTVSPropertyOp34
 70
     1
102
RTVSPropertyOp35
 70
     1
102
RTVSPropertyOp36
 70
     1
102
RTVSPropertyOp37
 70
     1
102
RTVSPropertyOp38
 70
     1
102
RTVSPropertyOp39
 70
     1
102
RTVSPropertyOp40
 70
     1
102
RTVSPropertyOp41
 70
     1
102
RTVSPropertyOp42
 70
     1
102
RTVSPropertyOp43
 70
     1
102
RTVSPropertyOp44
 70
     1
102
RTVSPropertyOp45
 70
     1
102
RTVSPropertyOp46
 70
     1
102
RTVSPropertyOp47
 70
     1
102
RTVSPropertyOp48
 70
     1
102
RTVSPropertyOp49
 70
     1
102
RTVSPropertyOp50
 70
     1
102
RTVSPropertyOp51
 70
     0
102
RTVSPropertyOp52
 70
     0
102
RTVSPropertyOp53
 70
     1
102
RTVSPropertyOp54
 70
     1
102
RTVSPropertyOp55
 70
     1
102
RTVSPropertyOp56
 70
     1
102
RTVSPropertyOp57
 70
     1
102
RTVSPost2010Prop28
280
     0
102
RTVSPost2010PropOp28
 70
     1
102
RTVSPost2010Prop29
280
     1
102
RTVSPost2010PropOp29
 70
     1
102
RTVSPost2010Prop30
280
     1
102
RTVSPost2010PropOp30
 70
     1
102
RTVSPost2010Prop31
280
     0
102
RTVSPost2010PropOp31
 70
     1
102
RTVSPost2010Prop32
280
     0
102
RTVSPost2010PropOp32
 70
     1
102
RTVSPost2010Prop33
280
     0
102
RTVSPost2010PropOp33
 70
     1
102
RTVSPost2010Prop34
280
     0
102
RTVSPost2010PropOp34
 70
     1
102
RTVSPost2010Prop35
280
     0
102
RTVSPost2010PropOp35
 70
     1
102
RTVSPost2010Prop36
280
     0
102
RTVSPost2010PropOp36
 70
     1
102
RTVSPost2010Prop37
 90
       50
102
RTVSPost2010PropOp37
 70
     1
102
RTVSPost2010Prop38
140
0.0
102
RTVSPost2010PropOp38
 70
     1
102
RTVSPost2010Prop39
140
1.0
102
RTVSPost2010PropOp39
 70
     1
102
RTVSPost2010Prop40
 90
        0
102
RTVSPost2010PropOp40
 70
     1
102
RTVSPost2010Prop41ColorIndex
 90
       18
102
RTVSPost2010Prop41ColorRGB
 90
        0
102
RTVSPost2010PropOp41
 70
     1
102
RTVSPost2010Prop42
 90
       50
102
RTVSPost2010PropOp42
 70
     1
102
RTVSPost2010Prop43
 90
        3
102
RTVSPost2010PropOp43
 70
     1
102
RTVSPost2010Prop44ColorIndex
 90
        5
102
RTVSPost2010Prop44ColorRGB
 90
      255
102
RTVSPost2010PropOp44
 70
     1
102
RTVSPost2010Prop45
280
     0
102
RTVSPost2010PropOp45
 70
     1
102
RTVSPost2010Prop46
 90
       50
102
RTVSPost2010PropOp46
 70
     1
102
RTVSPost2010Prop47
 90
       50
102
RTVSPost2010PropOp47
 70
     1
102
RTVSPost2010Prop48
 90
       50
102
RTVSPost2010PropOp48
 70
     1
102
RTVSPost2010Prop49
280
     0
102
RTVSPost2010PropOp49
 70
     1
102
RTVSPost2010Prop50
 90
       50
102
RTVSPost2010PropOp50
 70
     1
102
RTVSPost2010Prop51ColorIndex
 90
      256
102
RTVSPost2010Prop51ColorRGB
 90
-16777216
102
RTVSPost2010PropOp51
 70
     0
102
RTVSPost2010Prop52
140
1.0
102
RTVSPost2010PropOp52
 70
     0
102
RTVSPost2010Prop53
 90
        2
102
RTVSPost2010PropOp53
 70
     1
102
RTVSPost2010Prop54
  1
strokes_ogs.tif
102
RTVSPost2010PropOp54
 70
     1
102
RTVSPost2010Prop55
280
     0
102
RTVSPost2010PropOp55
 70
     1
102
RTVSPost2010Prop56
140
1.0
102
RTVSPost2010PropOp56
 70
     1
102
RTVSPost2010Prop57
140
1.0
102
RTVSPost2010PropOp57
 70
     1
  0
XRECORD
  5
2F4
102
{ACAD_REACTORS
330
2F3
102
}
330
2F3
100
AcDbXrecord
280
     1
102
RTVSPropertyOp0
 70
     1
102
RTVSPropertyOp1
 70
     1
102
RTVSPropertyOp2
 70
     1
102
RTVSPropertyOp3
 70
     1
102
RTVSPropertyOp4
 70
     1
102
RTVSPropertyOp5
 70
     1
102
RTVSPropertyOp6
 70
     1
102
RTVSPropertyOp7
 70
     1
102
RTVSPropertyOp8
 70
     1
102
RTVSPropertyOp9
 70
     1
102
RTVSPropertyOp10
 70
     1
102
RTVSPropertyOp11
 70
     1
102
RTVSPropertyOp12
 70
     1
102
RTVSPropertyOp13
 70
     1
102
RTVSPropertyOp14
 70
     1
102
RTVSPropertyOp15
 70
     1
102
RTVSPropertyOp16
 70
     1
102
RTVSPropertyOp17
 70
     1
102
RTVSPropertyOp18
 70
     1
102
RTVSPropertyOp19
 70
     1
102
RTVSPropertyOp20
 70
     1
102
RTVSPropertyOp21
 70
     1
102
RTVSPropertyOp22
 70
     1
102
RTVSPropertyOp23
 70
     1
102
RTVSPropertyOp24
 70
     1
102
RTVSPropertyOp25
 70
     1
102
RTVSPropertyOp26
 70
     1
102
RTVSPropertyOp27
 70
     1
102
RTVSPropertyOp28
 70
     1
102
RTVSPropertyOp29
 70
     1
102
RTVSPropertyOp30
 70
     1
102
RTVSPropertyOp31
 70
     1
102
RTVSPropertyOp32
 70
     1
102
RTVSPropertyOp33
 70
     1
102
RTVSPropertyOp34
 70
     1
102
RTVSPropertyOp35
 70
     1
102
RTVSPropertyOp36
 70
     1
102
RTVSPropertyOp37
 70
     1
102
RTVSPropertyOp38
 70
     1
102
RTVSPropertyOp39
 70
     1
102
RTVSPropertyOp40
 70
     1
102
RTVSPropertyOp41
 70
     1
102
RTVSPropertyOp42
 70
     1
102
RTVSPropertyOp43
 70
     1
102
RTVSPropertyOp44
 70
     1
102
RTVSPropertyOp45
 70
     1
102
RTVSPropertyOp46
 70
     1
102
RTVSPropertyOp47
 70
     1
102
RTVSPropertyOp48
 70
     1
102
RTVSPropertyOp49
 70
     1
102
RTVSPropertyOp50
 70
     1
102
RTVSPropertyOp51
 70
     0
102
RTVSPropertyOp52
 70
     0
102
RTVSPropertyOp53
 70
     1
102
RTVSPropertyOp54
 70
     1
102
RTVSPropertyOp55
 70
     1
102
RTVSPropertyOp56
 70
     1
102
RTVSPropertyOp57
 70
     1
102
RTVSPost2010Prop28
280
     0
102
RTVSPost2010PropOp28
 70
     1
102
RTVSPost2010Prop29
280
     1
102
RTVSPost2010PropOp29
 70
     1
102
RTVSPost2010Prop30
280
     1
102
RTVSPost2010PropOp30
 70
     1
102
RTVSPost2010Prop31
280
     0
102
RTVSPost2010PropOp31
 70
     1
102
RTVSPost2010Prop32
280
     0
102
RTVSPost2010PropOp32
 70
     1
102
RTVSPost2010Prop33
280
     0
102
RTVSPost2010PropOp33
 70
     1
102
RTVSPost2010Prop34
280
     0
102
RTVSPost2010PropOp34
 70
     1
102
RTVSPost2010Prop35
280
     0
102
RTVSPost2010PropOp35
 70
     1
102
RTVSPost2010Prop36
280
     0
102
RTVSPost2010PropOp36
 70
     1
102
RTVSPost2010Prop37
 90
       50
102
RTVSPost2010PropOp37
 70
     1
102
RTVSPost2010Prop38
140
0.0
102
RTVSPost2010PropOp38
 70
     1
102
RTVSPost2010Prop39
140
1.0
102
RTVSPost2010PropOp39
 70
     1
102
RTVSPost2010Prop40
 90
        0
102
RTVSPost2010PropOp40
 70
     1
102
RTVSPost2010Prop41ColorIndex
 90
       18
102
RTVSPost2010Prop41ColorRGB
 90
        0
102
RTVSPost2010PropOp41
 70
     1
102
RTVSPost2010Prop42
 90
       50
102
RTVSPost2010PropOp42
 70
     1
102
RTVSPost2010Prop43
 90
        3
102
RTVSPost2010PropOp43
 70
     1
102
RTVSPost2010Prop44ColorIndex
 90
        5
102
RTVSPost2010Prop44ColorRGB
 90
      255
102
RTVSPost2010PropOp44
 70
     1
102
RTVSPost2010Prop45
280
     0
102
RTVSPost2010PropOp45
 70
     1
102
RTVSPost2010Prop46
 90
       50
102
RTVSPost2010PropOp46
 70
     1
102
RTVSPost2010Prop47
 90
       50
102
RTVSPost2010PropOp47
 70
     1
102
RTVSPost2010Prop48
 90
       50
102
RTVSPost2010PropOp48
 70
     1
102
RTVSPost2010Prop49
280
     0
102
RTVSPost2010PropOp49
 70
     1
102
RTVSPost2010Prop50
 90
       50
102
RTVSPost2010PropOp50
 70
     1
102
RTVSPost2010Prop51ColorIndex
 90
      256
102
RTVSPost2010Prop51ColorRGB
 90
-16777216
102
RTVSPost2010PropOp51
 70
     0
102
RTVSPost2010Prop52
140
1.0
102
RTVSPost2010PropOp52
 70
     0
102
RTVSPost2010Prop53
 90
        2
102
RTVSPost2010PropOp53
 70
     1
102
RTVSPost2010Prop54
  1
strokes_ogs.tif
102
RTVSPost2010PropOp54
 70
     1
102
RTVSPost2010Prop55
280
     0
102
RTVSPost2010PropOp55
 70
     1
102
RTVSPost2010Prop56
140
1.0
102
RTVSPost2010PropOp56
 70
     1
102
RTVSPost2010Prop57
140
1.0
102
RTVSPost2010PropOp57
 70
     1
  0
XRECORD
  5
2E4
102
{ACAD_REACTORS
330
2E3
102
}
330
2E3
100
AcDbXrecord
280
     1
102
RTVSPropertyOp0
 70
     1
102
RTVSPropertyOp1
 70
     1
102
RTVSPropertyOp2
 70
     1
102
RTVSPropertyOp3
 70
     1
102
RTVSPropertyOp4
 70
     1
102
RTVSPropertyOp5
 70
     1
102
RTVSPropertyOp6
 70
     1
102
RTVSPropertyOp7
 70
     1
102
RTVSPropertyOp8
 70
     1
102
RTVSPropertyOp9
 70
     1
102
RTVSPropertyOp10
 70
     1
102
RTVSPropertyOp11
 70
     1
102
RTVSPropertyOp12
 70
     1
102
RTVSPropertyOp13
 70
     1
102
RTVSPropertyOp14
 70
     1
102
RTVSPropertyOp15
 70
     1
102
RTVSPropertyOp16
 70
     1
102
RTVSPropertyOp17
 70
     1
102
RTVSPropertyOp18
 70
     1
102
RTVSPropertyOp19
 70
     1
102
RTVSPropertyOp20
 70
     1
102
RTVSPropertyOp21
 70
     1
102
RTVSPropertyOp22
 70
     1
102
RTVSPropertyOp23
 70
     1
102
RTVSPropertyOp24
 70
     1
102
RTVSPropertyOp25
 70
     1
102
RTVSPropertyOp26
 70
     1
102
RTVSPropertyOp27
 70
     1
102
RTVSPropertyOp28
 70
     1
102
RTVSPropertyOp29
 70
     1
102
RTVSPropertyOp30
 70
     1
102
RTVSPropertyOp31
 70
     1
102
RTVSPropertyOp32
 70
     1
102
RTVSPropertyOp33
 70
     1
102
RTVSPropertyOp34
 70
     1
102
RTVSPropertyOp35
 70
     1
102
RTVSPropertyOp36
 70
     1
102
RTVSPropertyOp37
 70
     1
102
RTVSPropertyOp38
 70
     1
102
RTVSPropertyOp39
 70
     1
102
RTVSPropertyOp40
 70
     1
102
RTVSPropertyOp41
 70
     1
102
RTVSPropertyOp42
 70
     1
102
RTVSPropertyOp43
 70
     1
102
RTVSPropertyOp44
 70
     1
102
RTVSPropertyOp45
 70
     1
102
RTVSPropertyOp46
 70
     1
102
RTVSPropertyOp47
 70
     1
102
RTVSPropertyOp48
 70
     1
102
RTVSPropertyOp49
 70
     1
102
RTVSPropertyOp50
 70
     1
102
RTVSPropertyOp51
 70
     0
102
RTVSPropertyOp52
 70
     0
102
RTVSPropertyOp53
 70
     1
102
RTVSPropertyOp54
 70
     1
102
RTVSPropertyOp55
 70
     1
102
RTVSPropertyOp56
 70
     1
102
RTVSPropertyOp57
 70
     1
102
RTVSPost2010Prop28
280
     0
102
RTVSPost2010PropOp28
 70
     1
102
RTVSPost2010Prop29
280
     1
102
RTVSPost2010PropOp29
 70
     1
102
RTVSPost2010Prop30
280
     1
102
RTVSPost2010PropOp30
 70
     1
102
RTVSPost2010Prop31
280
     0
102
RTVSPost2010PropOp31
 70
     1
102
RTVSPost2010Prop32
280
     0
102
RTVSPost2010PropOp32
 70
     1
102
RTVSPost2010Prop33
280
     0
102
RTVSPost2010PropOp33
 70
     1
102
RTVSPost2010Prop34
280
     0
102
RTVSPost2010PropOp34
 70
     1
102
RTVSPost2010Prop35
280
     0
102
RTVSPost2010PropOp35
 70
     1
102
RTVSPost2010Prop36
280
     0
102
RTVSPost2010PropOp36
 70
     1
102
RTVSPost2010Prop37
 90
       50
102
RTVSPost2010PropOp37
 70
     1
102
RTVSPost2010Prop38
140
0.0
102
RTVSPost2010PropOp38
 70
     1
102
RTVSPost2010Prop39
140
1.0
102
RTVSPost2010PropOp39
 70
     1
102
RTVSPost2010Prop40
 90
        0
102
RTVSPost2010PropOp40
 70
     1
102
RTVSPost2010Prop41ColorIndex
 90
       18
102
RTVSPost2010Prop41ColorRGB
 90
        0
102
RTVSPost2010PropOp41
 70
     1
102
RTVSPost2010Prop42
 90
       50
102
RTVSPost2010PropOp42
 70
     1
102
RTVSPost2010Prop43
 90
        3
102
RTVSPost2010PropOp43
 70
     1
102
RTVSPost2010Prop44ColorIndex
 90
        5
102
RTVSPost2010Prop44ColorRGB
 90
      255
102
RTVSPost2010PropOp44
 70
     1
102
RTVSPost2010Prop45
280
     0
102
RTVSPost2010PropOp45
 70
     1
102
RTVSPost2010Prop46
 90
       50
102
RTVSPost2010PropOp46
 70
     1
102
RTVSPost2010Prop47
 90
       50
102
RTVSPost2010PropOp47
 70
     1
102
RTVSPost2010Prop48
 90
       50
102
RTVSPost2010PropOp48
 70
     1
102
RTVSPost2010Prop49
280
     0
102
RTVSPost2010PropOp49
 70
     1
102
RTVSPost2010Prop50
 90
       50
102
RTVSPost2010PropOp50
 70
     1
102
RTVSPost2010Prop51ColorIndex
 90
      256
102
RTVSPost2010Prop51ColorRGB
 90
-16777216
102
RTVSPost2010PropOp51
 70
     0
102
RTVSPost2010Prop52
140
1.0
102
RTVSPost2010PropOp52
 70
     0
102
RTVSPost2010Prop53
 90
        2
102
RTVSPost2010PropOp53
 70
     1
102
RTVSPost2010Prop54
  1
strokes_ogs.tif
102
RTVSPost2010PropOp54
 70
     1
102
RTVSPost2010Prop55
280
     0
102
RTVSPost2010PropOp55
 70
     1
102
RTVSPost2010Prop56
140
1.0
102
RTVSPost2010PropOp56
 70
     1
102
RTVSPost2010Prop57
140
1.0
102
RTVSPost2010PropOp57
 70
     1
  0
XRECORD
  5
2D6
102
{ACAD_REACTORS
330
2D5
102
}
330
2D5
100
AcDbXrecord
280
     1
102
RTVSPropertyOp0
 70
     1
102
RTVSPropertyOp1
 70
     1
102
RTVSPropertyOp2
 70
     1
102
RTVSPropertyOp3
 70
     1
102
RTVSPropertyOp4
 70
     1
102
RTVSPropertyOp5
 70
     1
102
RTVSPropertyOp6
 70
     1
102
RTVSPropertyOp7
 70
     1
102
RTVSPropertyOp8
 70
     1
102
RTVSPropertyOp9
 70
     1
102
RTVSPropertyOp10
 70
     1
102
RTVSPropertyOp11
 70
     1
102
RTVSPropertyOp12
 70
     1
102
RTVSPropertyOp13
 70
     1
102
RTVSPropertyOp14
 70
     1
102
RTVSPropertyOp15
 70
     1
102
RTVSPropertyOp16
 70
     1
102
RTVSPropertyOp17
 70
     1
102
RTVSPropertyOp18
 70
     1
102
RTVSPropertyOp19
 70
     1
102
RTVSPropertyOp20
 70
     1
102
RTVSPropertyOp21
 70
     1
102
RTVSPropertyOp22
 70
     1
102
RTVSPropertyOp23
 70
     1
102
RTVSPropertyOp24
 70
     1
102
RTVSPropertyOp25
 70
     1
102
RTVSPropertyOp26
 70
     1
102
RTVSPropertyOp27
 70
     1
102
RTVSPropertyOp28
 70
     1
102
RTVSPropertyOp29
 70
     1
102
RTVSPropertyOp30
 70
     1
102
RTVSPropertyOp31
 70
     1
102
RTVSPropertyOp32
 70
     1
102
RTVSPropertyOp33
 70
     1
102
RTVSPropertyOp34
 70
     1
102
RTVSPropertyOp35
 70
     1
102
RTVSPropertyOp36
 70
     1
102
RTVSPropertyOp37
 70
     1
102
RTVSPropertyOp38
 70
     1
102
RTVSPropertyOp39
 70
     1
102
RTVSPropertyOp40
 70
     1
102
RTVSPropertyOp41
 70
     1
102
RTVSPropertyOp42
 70
     1
102
RTVSPropertyOp43
 70
     1
102
RTVSPropertyOp44
 70
     1
102
RTVSPropertyOp45
 70
     1
102
RTVSPropertyOp46
 70
     1
102
RTVSPropertyOp47
 70
     1
102
RTVSPropertyOp48
 70
     1
102
RTVSPropertyOp49
 70
     1
102
RTVSPropertyOp50
 70
     1
102
RTVSPropertyOp51
 70
     0
102
RTVSPropertyOp52
 70
     0
102
RTVSPropertyOp53
 70
     1
102
RTVSPropertyOp54
 70
     1
102
RTVSPropertyOp55
 70
     1
102
RTVSPropertyOp56
 70
     1
102
RTVSPropertyOp57
 70
     1
102
RTVSPost2010Prop28
280
     0
102
RTVSPost2010PropOp28
 70
     1
102
RTVSPost2010Prop29
280
     1
102
RTVSPost2010PropOp29
 70
     1
102
RTVSPost2010Prop30
280
     1
102
RTVSPost2010PropOp30
 70
     1
102
RTVSPost2010Prop31
280
     0
102
RTVSPost2010PropOp31
 70
     1
102
RTVSPost2010Prop32
280
     0
102
RTVSPost2010PropOp32
 70
     1
102
RTVSPost2010Prop33
280
     0
102
RTVSPost2010PropOp33
 70
     1
102
RTVSPost2010Prop34
280
     0
102
RTVSPost2010PropOp34
 70
     1
102
RTVSPost2010Prop35
280
     0
102
RTVSPost2010PropOp35
 70
     1
102
RTVSPost2010Prop36
280
     0
102
RTVSPost2010PropOp36
 70
     1
102
RTVSPost2010Prop37
 90
       50
102
RTVSPost2010PropOp37
 70
     1
102
RTVSPost2010Prop38
140
0.0
102
RTVSPost2010PropOp38
 70
     1
102
RTVSPost2010Prop39
140
1.0
102
RTVSPost2010PropOp39
 70
     1
102
RTVSPost2010Prop40
 90
        0
102
RTVSPost2010PropOp40
 70
     1
102
RTVSPost2010Prop41ColorIndex
 90
       18
102
RTVSPost2010Prop41ColorRGB
 90
        0
102
RTVSPost2010PropOp41
 70
     1
102
RTVSPost2010Prop42
 90
       50
102
RTVSPost2010PropOp42
 70
     1
102
RTVSPost2010Prop43
 90
        3
102
RTVSPost2010PropOp43
 70
     1
102
RTVSPost2010Prop44ColorIndex
 90
        5
102
RTVSPost2010Prop44ColorRGB
 90
      255
102
RTVSPost2010PropOp44
 70
     1
102
RTVSPost2010Prop45
280
     0
102
RTVSPost2010PropOp45
 70
     1
102
RTVSPost2010Prop46
 90
       50
102
RTVSPost2010PropOp46
 70
     1
102
RTVSPost2010Prop47
 90
       50
102
RTVSPost2010PropOp47
 70
     1
102
RTVSPost2010Prop48
 90
       50
102
RTVSPost2010PropOp48
 70
     1
102
RTVSPost2010Prop49
280
     0
102
RTVSPost2010PropOp49
 70
     1
102
RTVSPost2010Prop50
 90
       50
102
RTVSPost2010PropOp50
 70
     1
102
RTVSPost2010Prop51ColorIndex
 90
      256
102
RTVSPost2010Prop51ColorRGB
 90
-16777216
102
RTVSPost2010PropOp51
 70
     0
102
RTVSPost2010Prop52
140
1.0
102
RTVSPost2010PropOp52
 70
     0
102
RTVSPost2010Prop53
 90
        2
102
RTVSPost2010PropOp53
 70
     1
102
RTVSPost2010Prop54
  1
strokes_ogs.tif
102
RTVSPost2010PropOp54
 70
     1
102
RTVSPost2010Prop55
280
     0
102
RTVSPost2010PropOp55
 70
     1
102
RTVSPost2010Prop56
140
1.0
102
RTVSPost2010PropOp56
 70
     1
102
RTVSPost2010Prop57
140
1.0
102
RTVSPost2010PropOp57
 70
     1
  0
XRECORD
  5
2F6
102
{ACAD_REACTORS
330
2F5
102
}
330
2F5
100
AcDbXrecord
280
     1
102
RTVSPropertyOp0
 70
     1
102
RTVSPropertyOp1
 70
     1
102
RTVSPropertyOp2
 70
     1
102
RTVSPropertyOp3
 70
     1
102
RTVSPropertyOp4
 70
     1
102
RTVSPropertyOp5
 70
     1
102
RTVSPropertyOp6
 70
     1
102
RTVSPropertyOp7
 70
     1
102
RTVSPropertyOp8
 70
     1
102
RTVSPropertyOp9
 70
     1
102
RTVSPropertyOp10
 70
     1
102
RTVSPropertyOp11
 70
     1
102
RTVSPropertyOp12
 70
     1
102
RTVSPropertyOp13
 70
     1
102
RTVSPropertyOp14
 70
     1
102
RTVSPropertyOp15
 70
     1
102
RTVSPropertyOp16
 70
     1
102
RTVSPropertyOp17
 70
     1
102
RTVSPropertyOp18
 70
     1
102
RTVSPropertyOp19
 70
     1
102
RTVSPropertyOp20
 70
     1
102
RTVSPropertyOp21
 70
     1
102
RTVSPropertyOp22
 70
     1
102
RTVSPropertyOp23
 70
     1
102
RTVSPropertyOp24
 70
     1
102
RTVSPropertyOp25
 70
     1
102
RTVSPropertyOp26
 70
     1
102
RTVSPropertyOp27
 70
     1
102
RTVSPropertyOp28
 70
     1
102
RTVSPropertyOp29
 70
     1
102
RTVSPropertyOp30
 70
     1
102
RTVSPropertyOp31
 70
     1
102
RTVSPropertyOp32
 70
     1
102
RTVSPropertyOp33
 70
     1
102
RTVSPropertyOp34
 70
     1
102
RTVSPropertyOp35
 70
     1
102
RTVSPropertyOp36
 70
     1
102
RTVSPropertyOp37
 70
     1
102
RTVSPropertyOp38
 70
     1
102
RTVSPropertyOp39
 70
     1
102
RTVSPropertyOp40
 70
     1
102
RTVSPropertyOp41
 70
     1
102
RTVSPropertyOp42
 70
     1
102
RTVSPropertyOp43
 70
     1
102
RTVSPropertyOp44
 70
     1
102
RTVSPropertyOp45
 70
     1
102
RTVSPropertyOp46
 70
     1
102
RTVSPropertyOp47
 70
     1
102
RTVSPropertyOp48
 70
     1
102
RTVSPropertyOp49
 70
     1
102
RTVSPropertyOp50
 70
     1
102
RTVSPropertyOp51
 70
     0
102
RTVSPropertyOp52
 70
     0
102
RTVSPropertyOp53
 70
     1
102
RTVSPropertyOp54
 70
     1
102
RTVSPropertyOp55
 70
     1
102
RTVSPropertyOp56
 70
     1
102
RTVSPropertyOp57
 70
     1
102
RTVSPost2010Prop28
280
     0
102
RTVSPost2010PropOp28
 70
     1
102
RTVSPost2010Prop29
280
     1
102
RTVSPost2010PropOp29
 70
     1
102
RTVSPost2010Prop30
280
     1
102
RTVSPost2010PropOp30
 70
     1
102
RTVSPost2010Prop31
280
     0
102
RTVSPost2010PropOp31
 70
     1
102
RTVSPost2010Prop32
280
     0
102
RTVSPost2010PropOp32
 70
     1
102
RTVSPost2010Prop33
280
     0
102
RTVSPost2010PropOp33
 70
     1
102
RTVSPost2010Prop34
280
     0
102
RTVSPost2010PropOp34
 70
     1
102
RTVSPost2010Prop35
280
     0
102
RTVSPost2010PropOp35
 70
     1
102
RTVSPost2010Prop36
280
     0
102
RTVSPost2010PropOp36
 70
     1
102
RTVSPost2010Prop37
 90
       50
102
RTVSPost2010PropOp37
 70
     1
102
RTVSPost2010Prop38
140
0.0
102
RTVSPost2010PropOp38
 70
     1
102
RTVSPost2010Prop39
140
1.0
102
RTVSPost2010PropOp39
 70
     1
102
RTVSPost2010Prop40
 90
        0
102
RTVSPost2010PropOp40
 70
     1
102
RTVSPost2010Prop41ColorIndex
 90
       18
102
RTVSPost2010Prop41ColorRGB
 90
        0
102
RTVSPost2010PropOp41
 70
     1
102
RTVSPost2010Prop42
 90
       50
102
RTVSPost2010PropOp42
 70
     1
102
RTVSPost2010Prop43
 90
        3
102
RTVSPost2010PropOp43
 70
     1
102
RTVSPost2010Prop44ColorIndex
 90
        5
102
RTVSPost2010Prop44ColorRGB
 90
      255
102
RTVSPost2010PropOp44
 70
     1
102
RTVSPost2010Prop45
280
     0
102
RTVSPost2010PropOp45
 70
     1
102
RTVSPost2010Prop46
 90
       50
102
RTVSPost2010PropOp46
 70
     1
102
RTVSPost2010Prop47
 90
       50
102
RTVSPost2010PropOp47
 70
     1
102
RTVSPost2010Prop48
 90
       50
102
RTVSPost2010PropOp48
 70
     1
102
RTVSPost2010Prop49
280
     0
102
RTVSPost2010PropOp49
 70
     1
102
RTVSPost2010Prop50
 90
       50
102
RTVSPost2010PropOp50
 70
     1
102
RTVSPost2010Prop51ColorIndex
 90
      256
102
RTVSPost2010Prop51ColorRGB
 90
-16777216
102
RTVSPost2010PropOp51
 70
     0
102
RTVSPost2010Prop52
140
1.0
102
RTVSPost2010PropOp52
 70
     0
102
RTVSPost2010Prop53
 90
        2
102
RTVSPost2010PropOp53
 70
     1
102
RTVSPost2010Prop54
  1
strokes_ogs.tif
102
RTVSPost2010PropOp54
 70
     1
102
RTVSPost2010Prop55
280
     0
102
RTVSPost2010PropOp55
 70
     1
102
RTVSPost2010Prop56
140
1.0
102
RTVSPost2010PropOp56
 70
     1
102
RTVSPost2010Prop57
140
1.0
102
RTVSPost2010PropOp57
 70
     1
  0
ENDSEC
  0
EOF
