  0
SECTION
  2
HEADER
  9
$ACADVER
  1
AC1021
  9
$ACADMAINTVER
 70
    25
  9
$DWGCODEPAGE
  3
ANSI_1252
  9
$INSBASE
 10
0.0
 20
0.0
 30
0.0
  9
$EXTMIN
 10
1.000000000000000E+20
 20
1.000000000000000E+20
 30
1.000000000000000E+20
  9
$EXTMAX
 10
-1.000000000000000E+20
 20
-1.000000000000000E+20
 30
-1.000000000000000E+20
  9
$LIMMIN
 10
0.0
 20
0.0
  9
$LIMMAX
 10
12.0
 20
9.0
  9
$ORTHOMODE
 70
     0
  9
$REGENMODE
 70
     1
  9
$FILLMODE
 70
     1
  9
$QTEXTMODE
 70
     0
  9
$MIRRTEXT
 70
     1
  9
$LTSCALE
 40
137.5
  9
$ATTMODE
 70
     1
  9
$TEXTSIZE
 40
0.2
  9
$TRACEWID
 40
0.05
  9
$TEXTSTYLE
  7
Standard
  9
$CLAYER
  8
FISHER & PAYKEL
  9
$CELTYPE
  6
ByLayer
  9
$CECOLOR
 62
   256
  9
$CELTSCALE
 40
1.0
  9
$DISPSILH
 70
     0
  9
$DIMSCALE
 40
1.0
  9
$DIMASZ
 40
0.18
  9
$DIMEXO
 40
0.0625
  9
$DIMDLI
 40
0.38
  9
$DIMRND
 40
0.0
  9
$DIMDLE
 40
0.0
  9
$DIMEXE
 40
0.18
  9
$DIMTP
 40
0.0
  9
$DIMTM
 40
0.0
  9
$DIMTXT
 40
0.18
  9
$DIMCEN
 40
0.09
  9
$DIMTSZ
 40
0.0
  9
$DIMTOL
 70
     0
  9
$DIMLIM
 70
     0
  9
$DIMTIH
 70
     1
  9
$DIMTOH
 70
     1
  9
$DIMSE1
 70
     0
  9
$DIMSE2
 70
     0
  9
$DIMTAD
 70
     0
  9
$DIMZIN
 70
     0
  9
$DIMBLK
  1

  9
$DIMASO
 70
     1
  9
$DIMSHO
 70
     1
  9
$DIMPOST
  1

  9
$DIMAPOST
  1

  9
$DIMALT
 70
     0
  9
$DIMALTD
 70
     2
  9
$DIMALTF
 40
25.4
  9
$DIMLFAC
 40
1.0
  9
$DIMTOFL
 70
     0
  9
$DIMTVP
 40
0.0
  9
$DIMTIX
 70
     0
  9
$DIMSOXD
 70
     0
  9
$DIMSAH
 70
     0
  9
$DIMBLK1
  1

  9
$DIMBLK2
  1

  9
$DIMSTYLE
  2
STANDARD_ACAD
  9
$DIMCLRD
 70
     0
  9
$DIMCLRE
 70
     0
  9
$DIMCLRT
 70
     0
  9
$DIMTFAC
 40
1.0
  9
$DIMGAP
 40
0.09
  9
$DIMJUST
 70
     0
  9
$DIMSD1
 70
     0
  9
$DIMSD2
 70
     0
  9
$DIMTOLJ
 70
     1
  9
$DIMTZIN
 70
     0
  9
$DIMALTZ
 70
     0
  9
$DIMALTTZ
 70
     0
  9
$DIMUPT
 70
     0
  9
$DIMDEC
 70
     4
  9
$DIMTDEC
 70
     4
  9
$DIMALTU
 70
     2
  9
$DIMALTTD
 70
     2
  9
$DIMTXSTY
  7
Standard
  9
$DIMAUNIT
 70
     0
  9
$DIMADEC
 70
     0
  9
$DIMALTRND
 40
0.0
  9
$DIMAZIN
 70
     0
  9
$DIMDSEP
 70
    46
  9
$DIMATFIT
 70
     3
  9
$DIMFRAC
 70
     0
  9
$DIMLDRBLK
  1

  9
$DIMLUNIT
 70
     2
  9
$DIMLWD
 70
    -2
  9
$DIMLWE
 70
    -2
  9
$DIMTMOVE
 70
     2
  9
$DIMFXL
 40
1.0
  9
$DIMFXLON
 70
     0
  9
$DIMJOGANG
 40
0.7853981633974483
  9
$DIMTFILL
 70
     0
  9
$DIMTFILLCLR
 70
     0
  9
$DIMARCSYM
 70
     0
  9
$DIMLTYPE
  6

  9
$DIMLTEX1
  6

  9
$DIMLTEX2
  6

  9
$LUNITS
 70
     2
  9
$LUPREC
 70
     3
  9
$SKETCHINC
 40
0.1
  9
$FILLETRAD
 40
0.5
  9
$AUNITS
 70
     0
  9
$AUPREC
 70
     0
  9
$MENU
  1
.
  9
$ELEVATION
 40
0.0
  9
$PELEVATION
 40
0.0
  9
$THICKNESS
 40
0.0
  9
$LIMCHECK
 70
     0
  9
$CHAMFERA
 40
0.0
  9
$CHAMFERB
 40
0.0
  9
$CHAMFERC
 40
0.0
  9
$CHAMFERD
 40
0.0
  9
$SKPOLY
 70
     0
  9
$TDCREATE
 40
2460194.459965706
  9
$TDUCREATE
 40
2460193.959965706
  9
$TDUPDATE
 40
2460194.459982547
  9
$TDUUPDATE
 40
2460193.959982547
  9
$TDINDWG
 40
0.0000000116
  9
$TDUSRTIMER
 40
0.0000000116
  9
$USRTIMER
 70
     1
  9
$ANGBASE
 50
0.0
  9
$ANGDIR
 70
     0
  9
$PDMODE
 70
     0
  9
$PDSIZE
 40
0.0
  9
$PLINEWID
 40
0.0
  9
$SPLFRAME
 70
     0
  9
$SPLINETYPE
 70
     6
  9
$SPLINESEGS
 70
     8
  9
$HANDSEED
  5
333
  9
$SURFTAB1
 70
     6
  9
$SURFTAB2
 70
     6
  9
$SURFTYPE
 70
     6
  9
$SURFU
 70
     6
  9
$SURFV
 70
     6
  9
$UCSBASE
  2

  9
$UCSNAME
  2

  9
$UCSORG
 10
0.0
 20
0.0
 30
0.0
  9
$UCSXDIR
 10
1.0
 20
0.0
 30
0.0
  9
$UCSYDIR
 10
0.0
 20
1.0
 30
0.0
  9
$UCSORTHOREF
  2

  9
$UCSORTHOVIEW
 70
     0
  9
$UCSORGTOP
 10
0.0
 20
0.0
 30
0.0
  9
$UCSORGBOTTOM
 10
0.0
 20
0.0
 30
0.0
  9
$UCSORGLEFT
 10
0.0
 20
0.0
 30
0.0
  9
$UCSORGRIGHT
 10
0.0
 20
0.0
 30
0.0
  9
$UCSORGFRONT
 10
0.0
 20
0.0
 30
0.0
  9
$UCSORGBACK
 10
0.0
 20
0.0
 30
0.0
  9
$PUCSBASE
  2

  9
$PUCSNAME
  2

  9
$PUCSORG
 10
0.0
 20
0.0
 30
0.0
  9
$PUCSXDIR
 10
1.0
 20
0.0
 30
0.0
  9
$PUCSYDIR
 10
0.0
 20
1.0
 30
0.0
  9
$PUCSORTHOREF
  2

  9
$PUCSORTHOVIEW
 70
     0
  9
$PUCSORGTOP
 10
0.0
 20
0.0
 30
0.0
  9
$PUCSORGBOTTOM
 10
0.0
 20
0.0
 30
0.0
  9
$PUCSORGLEFT
 10
0.0
 20
0.0
 30
0.0
  9
$PUCSORGRIGHT
 10
0.0
 20
0.0
 30
0.0
  9
$PUCSORGFRONT
 10
0.0
 20
0.0
 30
0.0
  9
$PUCSORGBACK
 10
0.0
 20
0.0
 30
0.0
  9
$USERI1
 70
     0
  9
$USERI2
 70
     0
  9
$USERI3
 70
     0
  9
$USERI4
 70
     0
  9
$USERI5
 70
     0
  9
$USERR1
 40
0.0
  9
$USERR2
 40
0.0
  9
$USERR3
 40
0.0
  9
$USERR4
 40
0.0
  9
$USERR5
 40
0.0
  9
$WORLDVIEW
 70
     1
  9
$SHADEDGE
 70
     3
  9
$SHADEDIF
 70
    70
  9
$TILEMODE
 70
     1
  9
$MAXACTVP
 70
    64
  9
$PINSBASE
 10
0.0
 20
0.0
 30
0.0
  9
$PLIMCHECK
 70
     0
  9
$PEXTMIN
 10
1.000000000000000E+20
 20
1.000000000000000E+20
 30
1.000000000000000E+20
  9
$PEXTMAX
 10
-1.000000000000000E+20
 20
-1.000000000000000E+20
 30
-1.000000000000000E+20
  9
$PLIMMIN
 10
0.0
 20
0.0
  9
$PLIMMAX
 10
12.0
 20
9.0
  9
$UNITMODE
 70
     0
  9
$VISRETAIN
 70
     1
  9
$PLINEGEN
 70
     0
  9
$PSLTSCALE
 70
     1
  9
$TREEDEPTH
 70
  3020
  9
$CMLSTYLE
  2
Standard
  9
$CMLJUST
 70
     0
  9
$CMLSCALE
 40
1.0
  9
$PROXYGRAPHICS
 70
     1
  9
$MEASUREMENT
 70
     1
  9
$CELWEIGHT
370
    -1
  9
$ENDCAPS
280
     0
  9
$JOINSTYLE
280
     0
  9
$LWDISPLAY
290
     0
  9
$INSUNITS
 70
     4
  9
$HYPERLINKBASE
  1

  9
$STYLESHEET
  1

  9
$XEDIT
290
     1
  9
$CEPSNTYPE
380
     0
  9
$PSTYLEMODE
290
     1
  9
$FINGERPRINTGUID
  2
{d1c4aa80-5724-4577-9440-3c0fb3a3e682}
  9
$VERSIONGUID
  2
{FAEB1C32-E019-11D5-929B-00C0DF256EC4}
  9
$EXTNAMES
290
     1
  9
$PSVPSCALE
 40
0.0
  9
$OLESTARTUP
290
     0
  9
$SORTENTS
280
   127
  9
$INDEXCTL
280
     0
  9
$HIDETEXT
280
     1
  9
$XCLIPFRAME
290
     0
  9
$HALOGAP
280
     0
  9
$OBSCOLOR
 70
   257
  9
$OBSLTYPE
280
     0
  9
$INTERSECTIONDISPLAY
280
     0
  9
$INTERSECTIONCOLOR
 70
   257
  9
$DIMASSOC
280
     2
  9
$PROJECTNAME
  1

  9
$CAMERADISPLAY
290
     0
  9
$LENSLENGTH
 40
50.0
  9
$CAMERAHEIGHT
 40
0.0
  9
$STEPSPERSEC
 40
2.0
  9
$STEPSIZE
 40
6.0
  9
$3DDWFPREC
 40
2.0
  9
$PSOLWIDTH
 40
0.25
  9
$PSOLHEIGHT
 40
4.0
  9
$LOFTANG1
 40
1.570796326794897
  9
$LOFTANG2
 40
1.570796326794897
  9
$LOFTMAG1
 40
0.0
  9
$LOFTMAG2
 40
0.0
  9
$LOFTPARAM
 70
     7
  9
$LOFTNORMALS
280
     1
  9
$LATITUDE
 40
37.795
  9
$LONGITUDE
 40
-122.394
  9
$NORTHDIRECTION
 40
0.0
  9
$TIMEZONE
 70
 -8000
  9
$LIGHTGLYPHDISPLAY
280
     1
  9
$TILEMODELIGHTSYNCH
280
     1
  9
$CMATERIAL
347
44
  9
$SOLIDHIST
280
     0
  9
$SHOWHIST
280
     1
  9
$DWFFRAME
280
     2
  9
$DGNFRAME
280
     2
  9
$REALWORLDSCALE
290
     1
  9
$INTERFERECOLOR
 62
   256
  9
$CSHADOW
280
     0
  9
$SHADOWPLANELOCATION
 40
0.0
  0
ENDSEC
  0
SECTION
  2
CLASSES
  0
CLASS
  1
ACDBDICTIONARYWDFLT
  2
AcDbDictionaryWithDefault
  3
ObjectDBX Classes
 90
        0
 91
        3
280
     0
281
     0
  0
CLASS
  1
VISUALSTYLE
  2
AcDbVisualStyle
  3
ObjectDBX Classes
 90
     4095
 91
        3
280
     0
281
     0
  0
CLASS
  1
MATERIAL
  2
AcDbMaterial
  3
ObjectDBX Classes
 90
     1153
 91
        3
280
     0
281
     0
  0
CLASS
  1
SCALE
  2
AcDbScale
  3
ObjectDBX Classes
 90
     1153
 91
        3
280
     0
281
     0
  0
CLASS
  1
TABLESTYLE
  2
AcDbTableStyle
  3
ObjectDBX Classes
 90
     4095
 91
        3
280
     0
281
     0
  0
CLASS
  1
MLEADERSTYLE
  2
AcDbMLeaderStyle
  3
ACDB_MLEADERSTYLE_CLASS
 90
     4095
 91
        3
280
     0
281
     0
  0
CLASS
  1
SUN
  2
AcDbSun
  3
SCENEOE
 90
     1153
 91
        3
280
     0
281
     0
  0
CLASS
  1
DICTIONARYVAR
  2
AcDbDictionaryVar
  3
ObjectDBX Classes
 90
        0
 91
        3
280
     0
281
     0
  0
CLASS
  1
CELLSTYLEMAP
  2
AcDbCellStyleMap
  3
ObjectDBX Classes
 90
     1152
 91
        3
280
     0
281
     0
  0
ENDSEC
  0
SECTION
  2
TABLES
  0
TABLE
  2
VPORT
  5
8
330
0
100
AcDbSymbolTable
 70
     1
  0
VPORT
  5
29
330
8
100
AcDbSymbolTableRecord
100
AcDbViewportTableRecord
  2
*Active
 70
     0
 10
0.0
 20
0.0
 11
1.0
 21
1.0
 12
10.42990654205607
 22
4.5
 13
0.0
 23
0.0
 14
0.5
 24
0.5
 15
0.5
 25
0.5
 16
0.0
 26
0.0
 36
1.0
 17
0.0
 27
0.0
 37
0.0
 40
9.0
 41
1.972972972850329
 42
50.0
 43
0.0
 44
0.0
 50
0.0
 51
0.0
 71
     0
 72
   100
 73
     1
 74
     3
 75
     0
 76
     0
 77
     0
 78
     0
281
     0
 65
     1
110
0.0
120
0.0
130
0.0
111
1.0
121
0.0
131
0.0
112
0.0
122
1.0
132
0.0
 79
     0
146
0.0
348
2F
 60
     3
 61
     5
292
     1
282
     1
141
0.0
142
0.0
 63
   250
361
6D
  0
ENDTAB
  0
TABLE
  2
LTYPE
  5
5
330
0
100
AcDbSymbolTable
 70
     2
  0
LTYPE
  5
14
330
5
100
AcDbSymbolTableRecord
100
AcDbLinetypeTableRecord
  2
ByBlock
 70
     0
  3

 72
    65
 73
     0
 40
0.0
  0
LTYPE
  5
15
330
5
100
AcDbSymbolTableRecord
100
AcDbLinetypeTableRecord
  2
ByLayer
 70
     0
  3

 72
    65
 73
     0
 40
0.0
  0
LTYPE
  5
16
330
5
100
AcDbSymbolTableRecord
100
AcDbLinetypeTableRecord
  2
Continuous
 70
     0
  3
Solid line
 72
    65
 73
     0
 40
0.0
  0
LTYPE
  5
2E7
330
5
100
AcDbSymbolTableRecord
100
AcDbLinetypeTableRecord
  2
DASHED
 70
     0
  3

 72
    65
 73
     2
 40
0.2
 49
0.1
 74
     0
 49
-0.1
 74
     0
  0
ENDTAB
  0
TABLE
  2
LAYER
  5
2
330
0
100
AcDbSymbolTable
 70
     2
  0
LAYER
  5
10
330
2
100
AcDbSymbolTableRecord
100
AcDbLayerTableRecord
  2
0
 70
     0
 62
    18
420
        0
  6
Continuous
370
    -3
390
F
347
46
  0
LAYER
  5
6E
330
2
100
AcDbSymbolTableRecord
100
AcDbLayerTableRecord
  2
FISHER & PAYKEL
 70
     0
 62
    18
420
        0
  6
Continuous
370
    -3
390
F
347
46
  0
ENDTAB
  0
TABLE
  2
STYLE
  5
3
330
0
100
AcDbSymbolTable
 70
     1
  0
STYLE
  5
11
330
3
100
AcDbSymbolTableRecord
100
AcDbTextStyleTableRecord
  2
Standard
 70
     0
 40
0.0
 41
1.0
 50
0.0
 71
     0
 42
0.2
  3
txt
  4

  0
ENDTAB
  0
TABLE
  2
VIEW
  5
6
330
0
100
AcDbSymbolTable
 70
     0
  0
ENDTAB
  0
TABLE
  2
UCS
  5
7
330
0
100
AcDbSymbolTable
 70
     0
  0
ENDTAB
  0
TABLE
  2
APPID
  5
9
330
0
100
AcDbSymbolTable
 70
     2
  0
APPID
  5
12
330
9
100
AcDbSymbolTableRecord
100
AcDbRegAppTableRecord
  2
ACAD
 70
     0
  0
APPID
  5
32B
330
9
100
AcDbSymbolTableRecord
100
AcDbRegAppTableRecord
  2
ACAD_MLEADERVER
 70
     0
  0
ENDTAB
  0
TABLE
  2
DIMSTYLE
  5
A
330
0
100
AcDbSymbolTable
 70
     1
100
AcDbDimStyleTable
  0
DIMSTYLE
105
27
330
A
100
AcDbSymbolTableRecord
100
AcDbDimStyleTableRecord
  2
STANDARD_ACAD
 70
     0
178
     0
340
11
  0
ENDTAB
  0
TABLE
  2
BLOCK_RECORD
  5
1
330
0
100
AcDbSymbolTable
 70
     2
  0
BLOCK_RECORD
  5
1F
330
1
100
AcDbSymbolTableRecord
100
AcDbBlockTableRecord
  2
*Model_Space
340
22
 70
     0
280
     1
281
     0
  0
BLOCK_RECORD
  5
1B
330
1
100
AcDbSymbolTableRecord
100
AcDbBlockTableRecord
  2
*Paper_Space
340
1E
 70
     0
280
     1
281
     0
  0
BLOCK_RECORD
  5
23
330
1
100
AcDbSymbolTableRecord
100
AcDbBlockTableRecord
  2
*Paper_Space0
340
26
 70
     0
280
     1
281
     0
  0
BLOCK_RECORD
  5
2EE
330
1
100
AcDbSymbolTableRecord
100
AcDbBlockTableRecord
  2
_FILLED
340
0
 70
     0
280
     1
281
     0
  0
ENDTAB
  0
ENDSEC
  0
SECTION
  2
BLOCKS
  0
BLOCK
  5
20
330
1F
100
AcDbEntity
  8
0
100
AcDbBlockBegin
  2
*Model_Space
 70
     0
 10
0.0
 20
0.0
 30
0.0
  3
*Model_Space
  1

  0
ENDBLK
  5
21
330
1F
100
AcDbEntity
  8
0
100
AcDbBlockEnd
  0
BLOCK
  5
1C
330
1B
100
AcDbEntity
 67
     1
  8
0
100
AcDbBlockBegin
  2
*Paper_Space
 70
     0
 10
0.0
 20
0.0
 30
0.0
  3
*Paper_Space
  1

  0
ENDBLK
  5
1D
330
1B
100
AcDbEntity
 67
     1
  8
0
100
AcDbBlockEnd
  0
BLOCK
  5
24
330
23
100
AcDbEntity
  8
0
100
AcDbBlockBegin
  2
*Paper_Space0
 70
     0
 10
0.0
 20
0.0
 30
0.0
  3
*Paper_Space0
  1

  0
ENDBLK
  5
25
330
23
100
AcDbEntity
  8
0
100
AcDbBlockEnd
  0
BLOCK
  5
2F4
330
2EE
100
AcDbEntity
  8
0
100
AcDbBlockBegin
  2
_FILLED
 70
     0
 10
0.0
 20
0.0
 30
0.0
  3
_FILLED
  1

  0
LINE
  5
2EF
330
2EE
100
AcDbEntity
  8
0
  6
ByBlock
 62
     0
370
    -2
100
AcDbLine
 10
0.0
 20
0.0
 30
0.0
 11
-1.0
 21
0.125
 31
0.0
  0
LINE
  5
2F0
330
2EE
100
AcDbEntity
  8
0
  6
ByBlock
 62
     0
370
    -2
100
AcDbLine
 10
-1.0
 20
0.125
 30
0.0
 11
-1.0
 21
-0.125
 31
0.0
  0
LINE
  5
2F1
330
2EE
100
AcDbEntity
  8
0
  6
ByBlock
 62
     0
370
    -2
100
AcDbLine
 10
-1.0
 20
-0.125
 30
0.0
 11
0.0
 21
0.0
 31
0.0
  0
LINE
  5
2F2
330
2EE
100
AcDbEntity
  8
0
  6
ByBlock
 62
     0
370
    -2
100
AcDbLine
 10
-0.5000000000000001
 20
-0.0625
 30
0.0
 11
-1.0
 21
0.0
 31
0.0
  0
LINE
  5
2F3
330
2EE
100
AcDbEntity
  8
0
  6
ByBlock
 62
     0
370
    -2
100
AcDbLine
 10
-0.5000000000000001
 20
0.0625
 30
0.0
 11
-0.515873015873016
 21
-0.064484126984127
 31
0.0
  0
ENDBLK
  5
2F5
330
2EE
100
AcDbEntity
  8
0
100
AcDbBlockEnd
  0
ENDSEC
  0
SECTION
  2
ENTITIES
  0
LINE
  5
6F
330
1F
100
AcDbEntity
  8
FISHER & PAYKEL
  6
Continuous
 62
    18
420
        0
100
AcDbLine
 10
337.0399925453
 20
243.2583943826
 30
0.0
 11
337.0399925453
 21
239.2583943826
 31
0.0
  0
LINE
  5
70
330
1F
100
AcDbEntity
  8
FISHER & PAYKEL
  6
Continuous
 62
    18
420
        0
100
AcDbLine
 10
350.0399925453
 20
239.2583943826
 30
0.0
 11
350.0399925453
 21
237.7583943826
 31
0.0
  0
LINE
  5
71
330
1F
100
AcDbEntity
  8
FISHER & PAYKEL
  6
Continuous
 62
    18
420
        0
100
AcDbLine
 10
360.0399925453
 20
237.7583943826
 30
0.0
 11
360.0399925453
 21
181.7583943826
 31
0.0
  0
LINE
  5
72
330
1F
100
AcDbEntity
  8
FISHER & PAYKEL
  6
Continuous
 62
    18
420
        0
100
AcDbLine
 10
388.5399925453
 20
201.7583943826
 30
0.0
 11
388.5399925453
 21
189.7583943826
 31
0.0
  0
LINE
  5
73
330
1F
100
AcDbEntity
  8
FISHER & PAYKEL
  6
Continuous
 62
    18
420
        0
100
AcDbLine
 10
402.5399925453
 20
189.7583943826
 30
0.0
 11
402.5399925453
 21
201.7583943826
 31
0.0
  0
LINE
  5
74
330
1F
100
AcDbEntity
  8
FISHER & PAYKEL
  6
Continuous
 62
     1
420
 16711680
100
AcDbLine
 10
1218.0399925453
 20
152.7583943826
 30
0.0
 11
356.0399925453
 21
152.7583943826
 31
0.0
  0
LINE
  5
75
330
1F
100
AcDbEntity
  8
FISHER & PAYKEL
  6
Continuous
 62
    18
420
        0
100
AcDbLine
 10
1185.0399925453
 20
154.2583943826
 30
0.0
 11
1145.0399925453
 21
154.2583943826
 31
0.0
  0
LINE
  5
76
330
1F
100
AcDbEntity
  8
FISHER & PAYKEL
  6
Continuous
 62
    18
420
        0
100
AcDbLine
 10
1145.0399925453
 20
155.2583943826
 30
0.0
 11
810.0399925453
 21
155.2583943826
 31
0.0
  0
LINE
  5
77
330
1F
100
AcDbEntity
  8
FISHER & PAYKEL
  6
Continuous
 62
    18
420
        0
100
AcDbLine
 10
1155.0814444297
 20
159.7583943826
 30
0.0
 11
1146.998540661
 21
159.7583943826
 31
0.0
  0
LINE
  5
78
330
1F
100
AcDbEntity
  8
FISHER & PAYKEL
  6
Continuous
 62
    18
420
        0
100
AcDbLine
 10
1157.0399925453
 20
162.7583943826
 30
0.0
 11
1145.0399925453
 21
162.7583943826
 31
0.0
  0
LINE
  5
79
330
1F
100
AcDbEntity
  8
FISHER & PAYKEL
  6
Continuous
 62
    18
420
        0
100
AcDbLine
 10
1157.0399925453
 20
172.7583943826
 30
0.0
 11
1145.0399925453
 21
172.7583943826
 31
0.0
  0
LINE
  5
7A
330
1F
100
AcDbEntity
  8
FISHER & PAYKEL
  6
Continuous
 62
    18
420
        0
100
AcDbLine
 10
1191.0899925453
 20
180.7583943826
 30
0.0
 11
1179.3899925453
 21
180.7583943826
 31
0.0
  0
LINE
  5
7B
330
1F
100
AcDbEntity
  8
FISHER & PAYKEL
  6
Continuous
 62
    18
420
        0
100
AcDbLine
 10
1147.73985626
 20
180.7583943826
 30
0.0
 11
1137.7401288307
 21
180.7583943826
 31
0.0
  0
LINE
  5
7C
330
1F
100
AcDbEntity
  8
FISHER & PAYKEL
  6
Continuous
 62
    18
420
        0
100
AcDbLine
 10
1137.7399925453
 20
181.2583943826
 30
0.0
 11
810.0399925453
 21
181.2583943826
 31
0.0
  0
LINE
  5
7D
330
1F
100
AcDbEntity
  8
FISHER & PAYKEL
  6
Continuous
 62
    18
420
        0
100
AcDbLine
 10
360.0399925453
 20
181.7583943826
 30
0.0
 11
1214.0399925453
 21
181.7583943826
 31
0.0
  0
LINE
  5
7E
330
1F
100
AcDbEntity
  8
FISHER & PAYKEL
  6
Continuous
 62
    18
420
        0
100
AcDbLine
 10
388.5399925453
 20
189.7583943826
 30
0.0
 11
402.5399925453
 21
189.7583943826
 31
0.0
  0
LINE
  5
7F
330
1F
100
AcDbEntity
  8
FISHER & PAYKEL
  6
Continuous
 62
    18
420
        0
100
AcDbLine
 10
1169.0399925453
 20
189.7583943826
 30
0.0
 11
1188.0399925453
 21
189.7583943826
 31
0.0
  0
LINE
  5
80
330
1F
100
AcDbEntity
  8
FISHER & PAYKEL
  6
Continuous
 62
    18
420
        0
100
AcDbLine
 10
360.0399925453
 20
201.7583943826
 30
0.0
 11
1214.0399925453
 21
201.7583943826
 31
0.0
  0
LINE
  5
81
330
1F
100
AcDbEntity
  8
FISHER & PAYKEL
  6
Continuous
 62
    18
420
        0
100
AcDbLine
 10
1224.0399925453
 20
237.7583943826
 30
0.0
 11
350.0399925453
 21
237.7583943826
 31
0.0
  0
LINE
  5
82
330
1F
100
AcDbEntity
  8
FISHER & PAYKEL
  6
Continuous
 62
    18
420
        0
100
AcDbLine
 10
337.0399925453
 20
239.2583943826
 30
0.0
 11
1237.0399925453
 21
239.2583943826
 31
0.0
  0
LINE
  5
83
330
1F
100
AcDbEntity
  8
FISHER & PAYKEL
  6
Continuous
 62
    18
420
        0
100
AcDbLine
 10
337.0399925453
 20
243.2583943826
 30
0.0
 11
1237.0399925453
 21
243.2583943826
 31
0.0
  0
LINE
  5
84
330
1F
100
AcDbEntity
  8
FISHER & PAYKEL
  6
Continuous
 62
    18
420
        0
100
AcDbLine
 10
1137.7399925453
 20
181.7583943826
 30
0.0
 11
1137.7399925453
 21
180.7583943826
 31
0.0
  0
LINE
  5
85
330
1F
100
AcDbEntity
  8
FISHER & PAYKEL
  6
Continuous
 62
    18
420
        0
100
AcDbLine
 10
1145.0399925453
 20
154.2583943826
 30
0.0
 11
1145.0399925453
 21
180.7583943826
 31
0.0
  0
LINE
  5
86
330
1F
100
AcDbEntity
  8
FISHER & PAYKEL
  6
Continuous
 62
    18
420
        0
100
AcDbLine
 10
1146.998540661
 20
162.7583943826
 30
0.0
 11
1146.998540661
 21
159.7583943826
 31
0.0
  0
LINE
  5
87
330
1F
100
AcDbEntity
  8
FISHER & PAYKEL
  6
Continuous
 62
    18
420
        0
100
AcDbLine
 10
1147.7399925453
 20
181.7583943826
 30
0.0
 11
1147.7399925453
 21
180.7583943826
 31
0.0
  0
LINE
  5
88
330
1F
100
AcDbEntity
  8
FISHER & PAYKEL
  6
Continuous
 62
    18
420
        0
100
AcDbLine
 10
1149.0192666032
 20
162.7583943826
 30
0.0
 11
1149.0192666032
 21
159.7583943826
 31
0.0
  0
LINE
  5
89
330
1F
100
AcDbEntity
  8
FISHER & PAYKEL
  6
Continuous
 62
    18
420
        0
100
AcDbLine
 10
1153.0607184875
 20
162.7583943826
 30
0.0
 11
1153.0607184875
 21
159.7583943826
 31
0.0
  0
LINE
  5
8A
330
1F
100
AcDbEntity
  8
FISHER & PAYKEL
  6
Continuous
 62
    18
420
        0
100
AcDbLine
 10
1155.0814444297
 20
162.7583943826
 30
0.0
 11
1155.0814444297
 21
159.7583943826
 31
0.0
  0
LINE
  5
8B
330
1F
100
AcDbEntity
  8
FISHER & PAYKEL
  6
Continuous
 62
    18
420
        0
100
AcDbLine
 10
1157.0399925453
 20
172.7583943826
 30
0.0
 11
1157.0399925453
 21
162.7583943826
 31
0.0
  0
LINE
  5
8C
330
1F
100
AcDbEntity
  8
FISHER & PAYKEL
  6
Continuous
 62
    18
420
        0
100
AcDbLine
 10
1169.0399925453
 20
201.7583943826
 30
0.0
 11
1169.0399925453
 21
189.7583943826
 31
0.0
  0
LINE
  5
8D
330
1F
100
AcDbEntity
  8
FISHER & PAYKEL
  6
Continuous
 62
    18
420
        0
100
AcDbLine
 10
1179.3899925453
 20
181.7583943826
 30
0.0
 11
1179.3899925453
 21
180.7583943826
 31
0.0
  0
LINE
  5
8E
330
1F
100
AcDbEntity
  8
FISHER & PAYKEL
  6
Continuous
 62
    18
420
        0
100
AcDbLine
 10
1188.0399925453
 20
189.7583943826
 30
0.0
 11
1188.0399925453
 21
201.7583943826
 31
0.0
  0
LINE
  5
8F
330
1F
100
AcDbEntity
  8
FISHER & PAYKEL
  6
Continuous
 62
    18
420
        0
100
AcDbLine
 10
1191.0899925453
 20
181.7583943826
 30
0.0
 11
1191.0899925453
 21
180.7583943826
 31
0.0
  0
LINE
  5
90
330
1F
100
AcDbEntity
  8
FISHER & PAYKEL
  6
Continuous
 62
    18
420
        0
100
AcDbLine
 10
1197.0399925453
 20
166.2583943826
 30
0.0
 11
1197.0399925453
 21
181.7583943826
 31
0.0
  0
LINE
  5
91
330
1F
100
AcDbEntity
  8
FISHER & PAYKEL
  6
Continuous
 62
    18
420
        0
100
AcDbLine
 10
1214.0399925453
 20
237.7583943826
 30
0.0
 11
1214.0399925453
 21
181.7583943826
 31
0.0
  0
LINE
  5
92
330
1F
100
AcDbEntity
  8
FISHER & PAYKEL
  6
Continuous
 62
    18
420
        0
100
AcDbLine
 10
1224.0399925453
 20
239.2583943826
 30
0.0
 11
1224.0399925453
 21
237.7583943826
 31
0.0
  0
LINE
  5
93
330
1F
100
AcDbEntity
  8
FISHER & PAYKEL
  6
Continuous
 62
     9
420
 12632256
100
AcDbLine
 10
1235.0399925453
 20
243.2583943826
 30
0.0
 11
1235.0399925453
 21
239.2583943826
 31
0.0
  0
LINE
  5
94
330
1F
100
AcDbEntity
  8
FISHER & PAYKEL
  6
Continuous
 62
    18
420
        0
100
AcDbLine
 10
1237.0399925453
 20
243.2583943826
 30
0.0
 11
1237.0399925453
 21
239.2583943826
 31
0.0
  0
LINE
  5
95
330
1F
100
AcDbEntity
  8
FISHER & PAYKEL
  6
Continuous
 62
     1
420
 16711680
100
AcDbLine
 10
1670.8485363575
 20
152.7583943826
 30
0.0
 11
2179.8485363575
 21
152.7583943826
 31
0.0
  0
LINE
  5
96
330
1F
100
AcDbEntity
  8
FISHER & PAYKEL
  6
Continuous
 62
    18
420
        0
100
AcDbLine
 10
1821.8485363575
 20
155.2583943826
 30
0.0
 11
2136.6560302543
 21
155.2583943826
 31
0.0
  0
LINE
  5
97
330
1F
100
AcDbEntity
  8
FISHER & PAYKEL
  6
Continuous
 62
    18
420
        0
100
AcDbLine
 10
2161.8485363575
 20
159.7583943826
 30
0.0
 11
2154.8485363575
 21
159.7583943826
 31
0.0
  0
LINE
  5
98
330
1F
100
AcDbEntity
  8
FISHER & PAYKEL
  6
Continuous
 62
    18
420
        0
100
AcDbLine
 10
2128.8485363575
 20
159.7583943826
 30
0.0
 11
2121.8485363575
 21
159.7583943826
 31
0.0
  0
LINE
  5
99
330
1F
100
AcDbEntity
  8
FISHER & PAYKEL
  6
Continuous
 62
    18
420
        0
100
AcDbLine
 10
2163.8485363575
 20
162.7583943826
 30
0.0
 11
2154.7229295471
 21
162.7583943826
 31
0.0
  0
LINE
  5
9A
330
1F
100
AcDbEntity
  8
FISHER & PAYKEL
  6
Continuous
 62
    18
420
        0
100
AcDbLine
 10
2128.9741431679
 20
162.7583943826
 30
0.0
 11
2119.8485363575
 21
162.7583943826
 31
0.0
  0
LINE
  5
9B
330
1F
100
AcDbEntity
  8
FISHER & PAYKEL
  6
Continuous
 62
    18
420
        0
100
AcDbLine
 10
2163.8485363575
 20
172.7583943826
 30
0.0
 11
2155.105609941
 21
172.7583943826
 31
0.0
  0
LINE
  5
9C
330
1F
100
AcDbEntity
  8
FISHER & PAYKEL
  6
Continuous
 62
    18
420
        0
100
AcDbLine
 10
2128.5914627739
 20
172.7583943826
 30
0.0
 11
2119.8485363575
 21
172.7583943826
 31
0.0
  0
LINE
  5
9D
330
1F
100
AcDbEntity
  8
FISHER & PAYKEL
  6
Continuous
 62
    18
420
        0
100
AcDbLine
 10
2094.5485363575
 20
180.7583943826
 30
0.0
 11
2084.5485363575
 21
180.7583943826
 31
0.0
  0
LINE
  5
9E
330
1F
100
AcDbEntity
  8
FISHER & PAYKEL
  6
Continuous
 62
    18
420
        0
100
AcDbLine
 10
2056.5485363575
 20
180.7583943826
 30
0.0
 11
2040.6985363575
 21
180.7583943826
 31
0.0
  0
LINE
  5
9F
330
1F
100
AcDbEntity
  8
FISHER & PAYKEL
  6
Continuous
 62
    18
420
        0
100
AcDbLine
 10
2084.5485363575
 20
181.2583943826
 30
0.0
 11
2056.5485363575
 21
181.2583943826
 31
0.0
  0
LINE
  5
A0
330
1F
100
AcDbEntity
  8
FISHER & PAYKEL
  6
Continuous
 62
    18
420
        0
100
AcDbLine
 10
2040.6985363575
 20
181.2583943826
 30
0.0
 11
1821.8485363575
 21
181.2583943826
 31
0.0
  0
LINE
  5
A1
330
1F
100
AcDbEntity
  8
FISHER & PAYKEL
  6
Continuous
 62
    18
420
        0
100
AcDbLine
 10
2094.5485363575
 20
181.2583943826
 30
0.0
 11
2129.8485363575
 21
181.2583943826
 31
0.0
  0
LINE
  5
A2
330
1F
100
AcDbEntity
  8
FISHER & PAYKEL
  6
Continuous
 62
    18
420
        0
100
AcDbLine
 10
1710.8485363575
 20
181.7583943826
 30
0.0
 11
2177.8485363575
 21
181.7583943826
 31
0.0
  0
LINE
  5
A3
330
1F
100
AcDbEntity
  8
FISHER & PAYKEL
  6
Continuous
 62
    18
420
        0
100
AcDbLine
 10
1710.8485363575
 20
189.7583943826
 30
0.0
 11
1689.8485363575
 21
189.7583943826
 31
0.0
  0
LINE
  5
A4
330
1F
100
AcDbEntity
  8
FISHER & PAYKEL
  6
Continuous
 62
    18
420
        0
100
AcDbLine
 10
1673.8485363575
 20
201.7583943826
 30
0.0
 11
1710.8485363575
 21
201.7583943826
 31
0.0
  0
LINE
  5
A5
330
1F
100
AcDbEntity
  8
FISHER & PAYKEL
  6
Continuous
 62
    18
420
        0
100
AcDbLine
 10
2183.3485363575
 20
237.7583943826
 30
0.0
 11
1666.3485363575
 21
237.7583943826
 31
0.0
  0
LINE
  5
A6
330
1F
100
AcDbEntity
  8
FISHER & PAYKEL
  6
Continuous
 62
    18
420
        0
100
AcDbLine
 10
1660.3485363575
 20
239.2583943826
 30
0.0
 11
2190.3485363575
 21
239.2583943826
 31
0.0
  0
LINE
  5
A7
330
1F
100
AcDbEntity
  8
FISHER & PAYKEL
  6
Continuous
 62
    18
420
        0
100
AcDbLine
 10
1660.3485363575
 20
243.2583943826
 30
0.0
 11
2190.3485363575
 21
243.2583943826
 31
0.0
  0
LINE
  5
A8
330
1F
100
AcDbEntity
  8
FISHER & PAYKEL
  6
Continuous
 62
    18
420
        0
100
AcDbLine
 10
1660.3485363575
 20
243.2583943826
 30
0.0
 11
1660.3485363575
 21
239.2583943826
 31
0.0
  0
LINE
  5
A9
330
1F
100
AcDbEntity
  8
FISHER & PAYKEL
  6
Continuous
 62
    18
420
        0
100
AcDbLine
 10
1666.3485363575
 20
239.2583943826
 30
0.0
 11
1666.3485363575
 21
237.7583943826
 31
0.0
  0
LINE
  5
AA
330
1F
100
AcDbEntity
  8
FISHER & PAYKEL
  6
Continuous
 62
    18
420
        0
100
AcDbLine
 10
1673.8485363575
 20
237.7583943826
 30
0.0
 11
1673.8485363575
 21
201.7583943826
 31
0.0
  0
LINE
  5
AB
330
1F
100
AcDbEntity
  8
FISHER & PAYKEL
  6
Continuous
 62
    18
420
        0
100
AcDbLine
 10
1689.8485363575
 20
189.7583943826
 30
0.0
 11
1689.8485363575
 21
201.7583943826
 31
0.0
  0
LINE
  5
AC
330
1F
100
AcDbEntity
  8
FISHER & PAYKEL
  6
Continuous
 62
    18
420
        0
100
AcDbLine
 10
1710.8485363575
 20
201.7583943826
 30
0.0
 11
1710.8485363575
 21
181.7583943826
 31
0.0
  0
LINE
  5
AD
330
1F
100
AcDbEntity
  8
FISHER & PAYKEL
  6
Continuous
 62
    18
420
        0
100
AcDbLine
 10
2040.6985363575
 20
181.7583943826
 30
0.0
 11
2040.6985363575
 21
180.7583943826
 31
0.0
  0
LINE
  5
AE
330
1F
100
AcDbEntity
  8
FISHER & PAYKEL
  6
Continuous
 62
    18
420
        0
100
AcDbLine
 10
2052.3985363575
 20
181.7583943826
 30
0.0
 11
2052.3985363575
 21
180.7583943826
 31
0.0
  0
LINE
  5
AF
330
1F
100
AcDbEntity
  8
FISHER & PAYKEL
  6
Continuous
 62
    18
420
        0
100
AcDbLine
 10
2056.5485363575
 20
181.7583943826
 30
0.0
 11
2056.5485363575
 21
180.7583943826
 31
0.0
  0
LINE
  5
B0
330
1F
100
AcDbEntity
  8
FISHER & PAYKEL
  6
Continuous
 62
    18
420
        0
100
AcDbLine
 10
2084.5485363575
 20
181.7583943826
 30
0.0
 11
2084.5485363575
 21
180.7583943826
 31
0.0
  0
LINE
  5
B1
330
1F
100
AcDbEntity
  8
FISHER & PAYKEL
  6
Continuous
 62
     1
420
 16711680
100
AcDbLine
 10
2200.3485363575
 20
693.2583943825999
 30
0.0
 11
1671.3485363575
 21
693.2583943825999
 31
0.0
  0
LINE
  5
B2
330
1F
100
AcDbEntity
  8
FISHER & PAYKEL
  6
Continuous
 62
    18
420
        0
100
AcDbLine
 10
2094.5485363575
 20
181.7583943826
 30
0.0
 11
2094.5485363575
 21
180.7583943826
 31
0.0
  0
LINE
  5
B3
330
1F
100
AcDbEntity
  8
FISHER & PAYKEL
  6
Continuous
 62
    18
420
        0
100
AcDbLine
 10
2119.8485363575
 20
172.7583943826
 30
0.0
 11
2119.8485363575
 21
162.7583943826
 31
0.0
  0
LINE
  5
B4
330
1F
100
AcDbEntity
  8
FISHER & PAYKEL
  6
Continuous
 62
    18
420
        0
100
AcDbLine
 10
2121.8485363575
 20
162.7583943826
 30
0.0
 11
2121.8485363575
 21
159.7583943826
 31
0.0
  0
LINE
  5
B5
330
1F
100
AcDbEntity
  8
FISHER & PAYKEL
  6
Continuous
 62
    18
420
        0
100
AcDbLine
 10
2125.3485363575
 20
162.7583943826
 30
0.0
 11
2125.3485363575
 21
159.7583943826
 31
0.0
  0
LINE
  5
B6
330
1F
100
AcDbEntity
  8
FISHER & PAYKEL
  6
Continuous
 62
    18
420
        0
100
AcDbLine
 10
2128.8485363575
 20
162.7583943826
 30
0.0
 11
2128.8485363575
 21
159.7583943826
 31
0.0
  0
LINE
  5
B7
330
1F
100
AcDbEntity
  8
FISHER & PAYKEL
  6
Continuous
 62
    18
420
        0
100
AcDbLine
 10
2129.8485363575
 20
181.7583943826
 30
0.0
 11
2129.8485363575
 21
175.4694969336
 31
0.0
  0
LINE
  5
B8
330
1F
100
AcDbEntity
  8
FISHER & PAYKEL
  6
Continuous
 62
    18
420
        0
100
AcDbLine
 10
2153.8485363575
 20
181.7583943826
 30
0.0
 11
2153.8485363575
 21
175.4694969336
 31
0.0
  0
LINE
  5
B9
330
1F
100
AcDbEntity
  8
FISHER & PAYKEL
  6
Continuous
 62
    18
420
        0
100
AcDbLine
 10
2154.8485363575
 20
162.7583943826
 30
0.0
 11
2154.8485363575
 21
159.7583943826
 31
0.0
  0
LINE
  5
BA
330
1F
100
AcDbEntity
  8
FISHER & PAYKEL
  6
Continuous
 62
    18
420
        0
100
AcDbLine
 10
2158.3485363575
 20
162.7583943826
 30
0.0
 11
2158.3485363575
 21
159.7583943826
 31
0.0
  0
LINE
  5
BB
330
1F
100
AcDbEntity
  8
FISHER & PAYKEL
  6
Continuous
 62
    18
420
        0
100
AcDbLine
 10
2161.8485363575
 20
162.7583943826
 30
0.0
 11
2161.8485363575
 21
159.7583943826
 31
0.0
  0
LINE
  5
BC
330
1F
100
AcDbEntity
  8
FISHER & PAYKEL
  6
Continuous
 62
    18
420
        0
100
AcDbLine
 10
2163.8485363575
 20
172.7583943826
 30
0.0
 11
2163.8485363575
 21
162.7583943826
 31
0.0
  0
LINE
  5
BD
330
1F
100
AcDbEntity
  8
FISHER & PAYKEL
  6
Continuous
 62
    18
420
        0
100
AcDbLine
 10
2177.8485363575
 20
181.7583943826
 30
0.0
 11
2177.8485363575
 21
237.7583943826
 31
0.0
  0
LINE
  5
BE
330
1F
100
AcDbEntity
  8
FISHER & PAYKEL
  6
Continuous
 62
    18
420
        0
100
AcDbLine
 10
2183.3485363575
 20
239.2583943826
 30
0.0
 11
2183.3485363575
 21
237.7583943826
 31
0.0
  0
LINE
  5
BF
330
1F
100
AcDbEntity
  8
FISHER & PAYKEL
  6
Continuous
 62
    18
420
        0
100
AcDbLine
 10
2190.3485363575
 20
243.2583943826
 30
0.0
 11
2190.3485363575
 21
239.2583943826
 31
0.0
  0
LINE
  5
C0
330
1F
100
AcDbEntity
  8
FISHER & PAYKEL
  6
Continuous
 62
     1
420
 16711680
100
AcDbLine
 10
2200.3485363575
 20
243.2583943826
 30
0.0
 11
2200.3485363575
 21
1005.2583943826
 31
0.0
  0
LINE
  5
C1
330
1F
100
AcDbEntity
  8
FISHER & PAYKEL
  6
Continuous
 62
     1
420
 16711680
100
AcDbLine
 10
2200.3485363575
 20
893.2583943825999
 30
0.0
 11
1671.3485363575
 21
893.2583943825999
 31
0.0
  0
LINE
  5
C2
330
1F
100
AcDbEntity
  8
FISHER & PAYKEL
  6
Continuous
 62
     1
420
 16711680
100
AcDbLine
 10
2200.3485363575
 20
953.2583943825999
 30
0.0
 11
1671.3485363575
 21
953.2583943825999
 31
0.0
  0
LINE
  5
C3
330
1F
100
AcDbEntity
  8
FISHER & PAYKEL
  6
Continuous
 62
     1
420
 16711680
100
AcDbLine
 10
2200.3485363575
 20
1005.2583943826
 30
0.0
 11
1671.3485363575
 21
1005.2583943826
 31
0.0
  0
ARC
  5
C4
330
1F
100
AcDbEntity
  8
FISHER & PAYKEL
  6
Continuous
 62
    18
420
        0
100
AcDbCircle
 10
810.0399925453
 20
168.2583943826
 30
0.0
 40
13.0
100
AcDbArc
 50
90.0
 51
270.0
  0
ARC
  5
C5
330
1F
100
AcDbEntity
  8
FISHER & PAYKEL
  6
Continuous
 62
    18
420
        0
100
AcDbCircle
 10
1110.0399925453
 20
168.2583943826
 30
0.0
 40
13.0
100
AcDbArc
 50
270.0
 51
90.0
  0
ARC
  5
C6
330
1F
100
AcDbEntity
  8
FISHER & PAYKEL
  6
Continuous
 62
    18
420
        0
100
AcDbCircle
 10
1185.0399925453
 20
166.2583943826
 30
0.0
 40
12.0
100
AcDbArc
 50
270.0
 51
0.0
  0
ARC
  5
C7
330
1F
100
AcDbEntity
  8
FISHER & PAYKEL
  6
Continuous
 62
    18
420
        0
100
AcDbCircle
 10
2141.8485363575
 20
168.2583943826
 30
0.0
 40
14.0
100
AcDbArc
 50
148.9972808661003
 51
31.00271913390094
  0
ARC
  5
C8
330
1F
100
AcDbEntity
  8
FISHER & PAYKEL
  6
Continuous
 62
    18
420
        0
100
AcDbCircle
 10
1821.8485363575
 20
168.2583943826
 30
0.0
 40
13.0
100
AcDbArc
 50
90.0
 51
270.0
  0
ARC
  5
C9
330
1F
100
AcDbEntity
  8
FISHER & PAYKEL
  6
Continuous
 62
    18
420
        0
100
AcDbCircle
 10
2101.8485363575
 20
168.2583943826
 30
0.0
 40
13.0
100
AcDbArc
 50
270.0
 51
90.0
  0
SPLINE
  5
CA
330
1F
100
AcDbEntity
  8
FISHER & PAYKEL
  6
Continuous
 62
    18
420
        0
100
AcDbSpline
210
0.0
220
0.0
230
1.0
 70
     8
 71
     3
 72
    14
 73
    10
 74
     0
 42
0.000000001
 43
0.0000000001
 40
0.0
 40
0.0
 40
0.0
 40
0.0
 40
0.101371626
 40
0.1857115791
 40
0.2769680215
 40
0.386667861
 40
0.5173583974
 40
0.6667447924000001
 40
1.0
 40
1.0
 40
1.0
 40
1.0
 10
1197.0399925453
 20
170.2583943826
 30
0.0
 10
1197.0399925453
 20
170.7487858041
 30
0.0
 10
1196.9926107188
 20
171.664633185
 30
0.0
 10
1196.3443429159
 20
172.8874606009
 30
0.0
 10
1195.2293069696
 20
173.7470459691
 30
0.0
 10
1193.7508155333
 20
174.3885083366
 30
0.0
 10
1191.9237392031
 20
174.8744789257
 30
0.0
 10
1188.9922800842
 20
175.3490531102
 30
0.0
 10
1186.6521349308
 20
175.4694969336
 30
0.0
 10
1185.0399925453
 20
175.4694969336
 30
0.0
  0
SPLINE
  5
CB
330
1F
100
AcDbEntity
  8
FISHER & PAYKEL
  6
Continuous
 62
    18
420
        0
100
AcDbSpline
210
0.0
220
0.0
230
1.0
 70
     8
 71
     3
 72
    12
 73
     8
 74
     0
 42
0.000000001
 43
0.0000000001
 40
0.0
 40
0.0
 40
0.0
 40
0.0
 40
0.1540572281
 40
0.3046770632
 40
0.4496347747
 40
0.5870676288000001
 40
1.0
 40
1.0
 40
1.0
 40
1.0
 10
1185.0399925453
 20
175.4694969336
 30
0.0
 10
1184.358868838
 20
175.4694969336
 30
0.0
 10
1183.0072042135
 20
175.6702293172
 30
0.0
 10
1181.1496527324
 20
176.4037400078
 30
0.0
 10
1179.4751312916
 20
177.338168697
 30
0.0
 10
1176.9155390892
 20
179.0438745318
 30
0.0
 10
1175.0215012867
 20
180.579739384
 30
0.0
 10
1173.6272803348
 20
181.7583943826
 30
0.0
  0
SPLINE
  5
CC
330
1F
100
AcDbEntity
  8
FISHER & PAYKEL
  6
Continuous
 62
    18
420
        0
100
AcDbSpline
210
0.0
220
0.0
230
1.0
 70
     8
 71
     3
 72
    12
 73
     8
 74
     0
 42
0.000000001
 43
0.0000000001
 40
0.0
 40
0.0
 40
0.0
 40
0.0
 40
0.1876945138
 40
0.3710032309
 40
0.6961511108
 40
0.9200390877
 40
1.0
 40
1.0
 40
1.0
 40
1.0
 10
2141.8485363575
 20
170.2583943826
 30
0.0
 10
2141.2654666064
 20
170.8414641337
 30
0.0
 10
2139.8924035767
 20
171.7623991767
 30
0.0
 10
2137.1444945255
 20
173.1001223305
 30
0.0
 10
2134.1133140694
 20
174.2033408889
 30
0.0
 10
2131.4715979847
 20
175.0124294801
 30
0.0
 10
2130.1870986427
 20
175.3756078063
 30
0.0
 10
2129.8485363575
 20
175.4694969336
 30
0.0
  0
SPLINE
  5
CD
330
1F
100
AcDbEntity
  8
FISHER & PAYKEL
  6
Continuous
 62
    18
420
        0
100
AcDbSpline
210
0.0
220
0.0
230
1.0
 70
     8
 71
     3
 72
    12
 73
     8
 74
     0
 42
0.000000001
 43
0.0000000001
 40
0.0
 40
0.0
 40
0.0
 40
0.0
 40
0.0799502531
 40
0.3038317453
 40
0.6289884754
 40
0.8123002270999999
 40
1.0
 40
1.0
 40
1.0
 40
1.0
 10
2153.8485363575
 20
175.4694969336
 30
0.0
 10
2153.5100189639
 20
175.3756211977
 30
0.0
 10
2152.2255913886
 20
175.0124660148
 30
0.0
 10
2149.5839097189
 20
174.2033900397
 30
0.0
 10
2146.5527016018
 20
173.1001773704
 30
0.0
 10
2143.8047214337
 20
171.7624295935
 30
0.0
 10
2142.4316224306
 20
170.8414804558
 30
0.0
 10
2141.8485363575
 20
170.2583943826
 30
0.0
  0
POLYLINE
  5
CE
330
1F
100
AcDbEntity
  8
FISHER & PAYKEL
 62
     5
420
      255
100
AcDb2dPolyline
 66
     1
 10
0.0
 20
0.0
 30
0.0
  0
VERTEX
  5
CF
330
CE
100
AcDbEntity
  8
FISHER & PAYKEL
 62
     5
420
      255
100
AcDbVertex
100
AcDb2dVertex
 10
337.0399925453
 20
243.2583943826
 30
0.0
  0
VERTEX
  5
D0
330
CE
100
AcDbEntity
  8
FISHER & PAYKEL
 62
     5
420
      255
100
AcDbVertex
100
AcDb2dVertex
 10
2190.3485363575
 20
243.2583943826
 30
0.0
  0
VERTEX
  5
D1
330
CE
100
AcDbEntity
  8
FISHER & PAYKEL
 62
     5
420
      255
100
AcDbVertex
100
AcDb2dVertex
 10
2210.3485363575
 20
243.2583943826
 30
0.0
  0
SEQEND
  5
D2
330
CE
100
AcDbEntity
  8
FISHER & PAYKEL
 62
     5
420
      255
  0
POLYLINE
  5
D3
330
1F
100
AcDbEntity
  8
FISHER & PAYKEL
 62
     5
420
      255
100
AcDb2dPolyline
 66
     1
 10
0.0
 20
0.0
 30
0.0
  0
VERTEX
  5
D4
330
D3
100
AcDbEntity
  8
FISHER & PAYKEL
 62
     5
420
      255
100
AcDbVertex
100
AcDb2dVertex
 10
337.0399925453
 20
243.2583943826
 30
0.0
  0
VERTEX
  5
D5
330
D3
100
AcDbEntity
  8
FISHER & PAYKEL
 62
     5
420
      255
100
AcDbVertex
100
AcDb2dVertex
 10
317.0399925453
 20
243.2583943826
 30
0.0
  0
SEQEND
  5
D6
330
D3
100
AcDbEntity
  8
FISHER & PAYKEL
 62
     5
420
      255
  0
POLYLINE
  5
D7
330
1F
100
AcDbEntity
  8
FISHER & PAYKEL
100
AcDb2dPolyline
 66
     1
 10
0.0
 20
0.0
 30
0.0
 70
     1
  0
VERTEX
  5
D8
330
D7
100
AcDbEntity
  8
FISHER & PAYKEL
100
AcDbVertex
100
AcDb2dVertex
 10
317.0385814115785
 20
-248.2801385504268
 30
0.0
  0
VERTEX
  5
D9
330
D7
100
AcDbEntity
  8
FISHER & PAYKEL
100
AcDbVertex
100
AcDb2dVertex
 10
717.0385814115785
 20
-248.2801385504268
 30
0.0
  0
VERTEX
  5
DA
330
D7
100
AcDbEntity
  8
FISHER & PAYKEL
100
AcDbVertex
100
AcDb2dVertex
 10
717.0385814115785
 20
-218.2801385504268
 30
0.0
  0
VERTEX
  5
DB
330
D7
100
AcDbEntity
  8
FISHER & PAYKEL
100
AcDbVertex
100
AcDb2dVertex
 10
317.0385814115785
 20
-218.2801385504268
 30
0.0
  0
SEQEND
  5
DC
330
D7
100
AcDbEntity
  8
FISHER & PAYKEL
  0
POLYLINE
  5
DD
330
1F
100
AcDbEntity
  8
FISHER & PAYKEL
100
AcDb2dPolyline
 66
     1
 10
0.0
 20
0.0
 30
0.0
  0
VERTEX
  5
DE
330
DD
100
AcDbEntity
  8
FISHER & PAYKEL
100
AcDbVertex
100
AcDb2dVertex
 10
317.0385814115785
 20
-248.2801385504268
 30
0.0
  0
VERTEX
  5
DF
330
DD
100
AcDbEntity
  8
FISHER & PAYKEL
100
AcDbVertex
100
AcDb2dVertex
 10
317.0385814115785
 20
-208.2801385504268
 30
0.0
  0
SEQEND
  5
E0
330
DD
100
AcDbEntity
  8
FISHER & PAYKEL
  0
POLYLINE
  5
E1
330
1F
100
AcDbEntity
  8
FISHER & PAYKEL
100
AcDb2dPolyline
 66
     1
 10
0.0
 20
0.0
 30
0.0
  0
VERTEX
  5
E2
330
E1
100
AcDbEntity
  8
FISHER & PAYKEL
100
AcDbVertex
100
AcDb2dVertex
 10
417.0385814115785
 20
-248.2801385504268
 30
0.0
  0
VERTEX
  5
E3
330
E1
100
AcDbEntity
  8
FISHER & PAYKEL
100
AcDbVertex
100
AcDb2dVertex
 10
417.0385814115785
 20
-208.2801385504268
 30
0.0
  0
SEQEND
  5
E4
330
E1
100
AcDbEntity
  8
FISHER & PAYKEL
  0
POLYLINE
  5
E5
330
1F
100
AcDbEntity
  8
FISHER & PAYKEL
100
AcDb2dPolyline
 66
     1
 10
0.0
 20
0.0
 30
0.0
  0
VERTEX
  5
E6
330
E5
100
AcDbEntity
  8
FISHER & PAYKEL
100
AcDbVertex
100
AcDb2dVertex
 10
517.0385814115784
 20
-248.2801385504268
 30
0.0
  0
VERTEX
  5
E7
330
E5
100
AcDbEntity
  8
FISHER & PAYKEL
100
AcDbVertex
100
AcDb2dVertex
 10
517.0385814115784
 20
-208.2801385504268
 30
0.0
  0
SEQEND
  5
E8
330
E5
100
AcDbEntity
  8
FISHER & PAYKEL
  0
POLYLINE
  5
E9
330
1F
100
AcDbEntity
  8
FISHER & PAYKEL
100
AcDb2dPolyline
 66
     1
 10
0.0
 20
0.0
 30
0.0
  0
VERTEX
  5
EA
330
E9
100
AcDbEntity
  8
FISHER & PAYKEL
100
AcDbVertex
100
AcDb2dVertex
 10
717.0385814115785
 20
-248.2801385504268
 30
0.0
  0
VERTEX
  5
EB
330
E9
100
AcDbEntity
  8
FISHER & PAYKEL
100
AcDbVertex
100
AcDb2dVertex
 10
717.0385814115785
 20
-208.2801385504268
 30
0.0
  0
SEQEND
  5
EC
330
E9
100
AcDbEntity
  8
FISHER & PAYKEL
  0
LINE
  5
ED
330
1F
100
AcDbEntity
  8
FISHER & PAYKEL
 62
   250
420
  1316376
370
     9
100
AcDbLine
 10
832.773048732418
 20
-246.5779584987573
 30
0.0
 11
833.3939475699175
 21
-245.7524452716271
 31
0.0
  0
SPLINE
  5
EE
330
1F
100
AcDbEntity
  8
FISHER & PAYKEL
 62
   250
420
  1316376
370
     9
100
AcDbSpline
210
0.0
220
0.0
230
1.0
 70
     8
 71
     3
 72
     8
 73
     4
 74
     0
 42
0.000000001
 43
0.0000000001
 40
0.292800273223734
 40
0.292800273223734
 40
0.292800273223734
 40
0.292800273223734
 40
1.292800273223734
 40
1.292800273223734
 40
1.292800273223734
 40
1.292800273223734
 10
833.3939475699175
 20
-245.7524452716271
 30
0.0
 10
834.5898833989667
 20
-246.6590986877491
 30
0.0
 10
835.9163490972622
 20
-247.1706346618258
 30
0.0
 10
837.3027879787252
 20
-247.1706346618258
 30
0.0
  0
SPLINE
  5
EF
330
1F
100
AcDbEntity
  8
FISHER & PAYKEL
 62
   250
420
  1316376
370
     9
100
AcDbSpline
210
0.0
220
0.0
230
1.0
 70
     8
 71
     3
 72
     8
 73
     4
 74
     0
 42
0.000000001
 43
0.0000000001
 40
1.292800273223734
 40
1.292800273223734
 40
1.292800273223734
 40
1.292800273223734
 40
2.292800273223734
 40
2.292800273223734
 40
2.292800273223734
 40
2.292800273223734
 10
837.3027879787252
 20
-247.1706346618258
 30
0.0
 10
838.7774227177878
 20
-247.1706346618258
 30
0.0
 10
839.9310245351888
 20
-246.3627606062149
 30
0.0
 10
839.9310245351888
 20
-245.1174350969107
 30
0.0
  0
LINE
  5
F0
330
1F
100
AcDbEntity
  8
FISHER & PAYKEL
 62
   250
420
  1316376
370
     9
100
AcDbLine
 10
839.9310245351888
 20
-245.1174350969107
 30
0.0
 11
839.9310245351888
 21
-245.075101085263
 31
0.0
  0
SPLINE
  5
F1
330
1F
100
AcDbEntity
  8
FISHER & PAYKEL
 62
   250
420
  1316376
370
     9
100
AcDbSpline
210
0.0
220
0.0
230
1.0
 70
     8
 71
     3
 72
     8
 73
     4
 74
     0
 42
0.000000001
 43
0.0000000001
 40
2.304800273223734
 40
2.304800273223734
 40
2.304800273223734
 40
2.304800273223734
 40
3.304800273223734
 40
3.304800273223734
 40
3.304800273223734
 40
3.304800273223734
 10
839.9310245351888
 20
-245.075101085263
 30
0.0
 10
839.9310245351888
 20
-243.8050807358309
 30
0.0
 10
838.5657526595493
 20
-243.3394066077058
 30
0.0
 10
837.0452560745347
 20
-242.9160664912284
 30
0.0
  0
SPLINE
  5
F2
330
1F
100
AcDbEntity
  8
FISHER & PAYKEL
 62
   250
420
  1316376
370
     9
100
AcDbSpline
210
0.0
220
0.0
230
1.0
 70
     8
 71
     3
 72
     8
 73
     4
 74
     0
 42
0.000000001
 43
0.0000000001
 40
3.304800273223734
 40
3.304800273223734
 40
3.304800273223734
 40
3.304800273223734
 40
4.304800273223734
 40
4.304800273223734
 40
4.304800273223734
 40
4.304800273223734
 10
837.0452560745347
 20
-242.9160664912284
 30
0.0
 10
835.2707554196339
 20
-242.4080583514556
 30
0.0
 10
833.3057517123185
 20
-241.8824110401629
 30
0.0
 10
833.3057517123185
 20
-239.956213510191
 30
0.0
  0
LINE
  5
F3
330
1F
100
AcDbEntity
  8
FISHER & PAYKEL
 62
   250
420
  1316376
370
     9
100
AcDbLine
 10
833.3057517123185
 20
-239.956213510191
 30
0.0
 11
833.3057517123185
 21
-239.9103516642395
 31
0.0
  0
SPLINE
  5
F4
330
1F
100
AcDbEntity
  8
FISHER & PAYKEL
 62
   250
420
  1316376
370
     9
100
AcDbSpline
210
0.0
220
0.0
230
1.0
 70
     8
 71
     3
 72
     8
 73
     4
 74
     0
 42
0.000000001
 43
0.0000000001
 40
4.317800273223711
 40
4.317800273223711
 40
4.317800273223711
 40
4.317800273223711
 40
5.317800273223711
 40
5.317800273223711
 40
5.317800273223711
 40
5.317800273223711
 10
833.3057517123185
 20
-239.9103516642395
 30
0.0
 10
833.3057517123185
 20
-238.1781850209864
 30
0.0
 10
834.7803864513813
 20
-236.9293316773781
 30
0.0
 10
836.8970870337677
 20
-236.9293316773781
 30
0.0
  0
SPLINE
  5
F5
330
1F
100
AcDbEntity
  8
FISHER & PAYKEL
 62
   250
420
  1316376
370
     9
100
AcDbSpline
210
0.0
220
0.0
230
1.0
 70
     8
 71
     3
 72
     8
 73
     4
 74
     0
 42
0.000000001
 43
0.0000000001
 40
5.317800273223711
 40
5.317800273223711
 40
5.317800273223711
 40
5.317800273223711
 40
6.317800273223711
 40
6.317800273223711
 40
6.317800273223711
 40
6.317800273223711
 10
836.8970870337677
 20
-236.9293316773781
 30
0.0
 10
838.1988578919357
 20
-236.9293316773781
 30
0.0
 10
839.6734926309983
 20
-237.395005805503
 30
0.0
 10
840.7671212652318
 20
-238.1146840035145
 30
0.0
  0
LINE
  5
F6
330
1F
100
AcDbEntity
  8
FISHER & PAYKEL
 62
   250
420
  1316376
370
     9
100
AcDbLine
 10
840.7671212652318
 20
-238.1146840035145
 30
0.0
 11
840.2061956108995
 21
-238.982531242293
 31
0.0
  0
SPLINE
  5
F7
330
1F
100
AcDbEntity
  8
FISHER & PAYKEL
 62
   250
420
  1316376
370
     9
100
AcDbSpline
210
0.0
220
0.0
230
1.0
 70
     8
 71
     3
 72
     8
 73
     4
 74
     0
 42
0.000000001
 43
0.0000000001
 40
6.610711522580898
 40
6.610711522580898
 40
6.610711522580898
 40
6.610711522580898
 40
7.610711522580898
 40
7.610711522580898
 40
7.610711522580898
 40
7.610711522580898
 10
840.2061956108995
 20
-238.982531242293
 30
0.0
 10
839.2042906685696
 20
-238.3263540617534
 30
0.0
 10
838.004827005217
 20
-237.903013945276
 30
0.0
 10
836.85475302212
 20
-237.903013945276
 30
0.0
  0
SPLINE
  5
F8
330
1F
100
AcDbEntity
  8
FISHER & PAYKEL
 62
   250
420
  1316376
370
     9
100
AcDbSpline
210
0.0
220
0.0
230
1.0
 70
     8
 71
     3
 72
     8
 73
     4
 74
     0
 42
0.000000001
 43
0.0000000001
 40
7.610711522580898
 40
7.610711522580898
 40
7.610711522580898
 40
7.610711522580898
 40
8.610711522580898
 40
8.610711522580898
 40
8.610711522580898
 40
8.610711522580898
 10
836.85475302212
 20
-237.903013945276
 30
0.0
 10
835.3554234429295
 20
-237.903013945276
 30
0.0
 10
834.374685506424
 20
-238.7073601665828
 30
0.0
 10
834.374685506424
 20
-239.7868774636
 30
0.0
  0
LINE
  5
F9
330
1F
100
AcDbEntity
  8
FISHER & PAYKEL
 62
   250
420
  1316376
370
     9
100
AcDbLine
 10
834.374685506424
 20
-239.7868774636
 30
0.0
 11
834.374685506424
 21
-239.8292114752476
 31
0.0
  0
SPLINE
  5
FA
330
1F
100
AcDbEntity
  8
FISHER & PAYKEL
 62
   250
420
  1316376
370
     9
100
AcDbSpline
210
0.0
220
0.0
230
1.0
 70
     8
 71
     3
 72
     8
 73
     4
 74
     0
 42
0.000000001
 43
0.0000000001
 40
8.622711522580898
 40
8.622711522580898
 40
8.622711522580898
 40
8.622711522580898
 40
9.622711522580898
 40
9.622711522580898
 40
9.622711522580898
 40
9.622711522580898
 10
834.374685506424
 20
-239.8292114752476
 30
0.0
 10
834.374685506424
 20
-241.0357308072083
 30
0.0
 10
835.8493202454866
 20
-241.4802379295095
 30
0.0
 10
837.408623007845
 20
-241.9247450518106
 30
0.0
  0
SPLINE
  5
FB
330
1F
100
AcDbEntity
  8
FISHER & PAYKEL
 62
   250
420
  1316376
370
     9
100
AcDbSpline
210
0.0
220
0.0
230
1.0
 70
     8
 71
     3
 72
     8
 73
     4
 74
     0
 42
0.000000001
 43
0.0000000001
 40
9.622711522580898
 40
9.622711522580898
 40
9.622711522580898
 40
9.622711522580898
 40
10.6227115225809
 40
10.6227115225809
 40
10.6227115225809
 40
10.6227115225809
 10
837.408623007845
 20
-241.9247450518106
 30
0.0
 10
839.1619566569219
 20
-242.4080583514556
 30
0.0
 10
840.9999583292941
 20
-243.0430685261718
 30
0.0
 10
840.9999583292941
 20
-244.9480990503196
 30
0.0
  0
LINE
  5
FC
330
1F
100
AcDbEntity
  8
FISHER & PAYKEL
 62
   250
420
  1316376
370
     9
100
AcDbLine
 10
840.9999583292941
 20
-244.9480990503196
 30
0.0
 11
840.9999583292941
 21
-244.9904330619673
 31
0.0
  0
SPLINE
  5
FD
330
1F
100
AcDbEntity
  8
FISHER & PAYKEL
 62
   250
420
  1316376
370
     9
100
AcDbSpline
210
0.0
220
0.0
230
1.0
 70
     8
 71
     3
 72
     8
 73
     4
 74
     0
 42
0.000000001
 43
0.0000000001
 40
10.6347115225809
 40
10.6347115225809
 40
10.6347115225809
 40
10.6347115225809
 40
11.6347115225809
 40
11.6347115225809
 40
11.6347115225809
 40
11.6347115225809
 10
840.9999583292941
 20
-244.9904330619673
 30
0.0
 10
840.9999583292941
 20
-246.9166305919394
 30
0.0
 10
839.3312927035128
 20
-248.1407890954195
 30
0.0
 10
837.2392869612542
 20
-248.1407890954195
 30
0.0
  0
SPLINE
  5
FE
330
1F
100
AcDbEntity
  8
FISHER & PAYKEL
 62
   250
420
  1316376
370
     9
100
AcDbSpline
210
0.0
220
0.0
230
1.0
 70
     8
 71
     3
 72
     8
 73
     4
 74
     0
 42
0.000000001
 43
0.0000000001
 40
11.6347115225809
 40
11.6347115225809
 40
11.6347115225809
 40
11.6347115225809
 40
12.6347115225809
 40
12.6347115225809
 40
12.6347115225809
 40
12.6347115225809
 10
837.2392869612542
 20
-248.1407890954195
 30
0.0
 10
835.6552897364223
 20
-248.1407890954195
 30
0.0
 10
833.9266513740976
 20
-247.5093070561218
 30
0.0
 10
832.773048732418
 20
-246.5779584987573
 30
0.0
  0
SPLINE
  5
FF
330
1F
100
AcDbEntity
  8
FISHER & PAYKEL
 62
   250
420
  1316376
370
     9
100
AcDbSpline
210
0.0
220
0.0
230
1.0
 70
     8
 71
     3
 72
     8
 73
     4
 74
     0
 42
0.000000001
 43
0.0000000001
 40
0.0
 40
0.0
 40
0.0
 40
0.0
 40
1.0
 40
1.0
 40
1.0
 40
1.0
 10
829.5553110637599
 20
-242.0270522466258
 30
0.0
 10
829.4071420229928
 20
-239.8503784810715
 30
0.0
 10
828.1477051764726
 20
-237.8395129278043
 30
0.0
 10
825.6464706549524
 20
-237.8395129278043
 30
0.0
  0
SPLINE
  5
100
330
1F
100
AcDbEntity
  8
FISHER & PAYKEL
 62
   250
420
  1316376
370
     9
100
AcDbSpline
210
0.0
220
0.0
230
1.0
 70
     8
 71
     3
 72
     8
 73
     4
 74
     0
 42
0.000000001
 43
0.0000000001
 40
1.0
 40
1.0
 40
1.0
 40
1.0
 40
2.0
 40
2.0
 40
2.0
 40
2.0
 10
825.6464706549524
 20
-237.8395129278043
 30
0.0
 10
823.4874360609177
 20
-237.8395129278043
 30
0.0
 10
821.8222982694402
 20
-239.6351805885291
 30
0.0
 10
821.6282673827217
 20
-242.0270522466258
 30
0.0
  0
LINE
  5
101
330
1F
100
AcDbEntity
  8
FISHER & PAYKEL
 62
   250
420
  1316376
370
     9
100
AcDbLine
 10
821.6282673827217
 20
-242.0270522466258
 30
0.0
 11
829.5553110637599
 21
-242.0270522466258
 31
0.0
  0
LINE
  5
102
330
1F
100
AcDbEntity
  8
FISHER & PAYKEL
 62
   250
420
  1316376
370
     9
100
AcDbLine
 10
820.5169995769685
 20
-242.5562273922226
 30
0.0
 11
820.5169995769685
 21
-242.5174212148789
 31
0.0
  0
SPLINE
  5
103
330
1F
100
AcDbEntity
  8
FISHER & PAYKEL
 62
   250
420
  1316376
370
     9
100
AcDbSpline
210
0.0
220
0.0
230
1.0
 70
     8
 71
     3
 72
     8
 73
     4
 74
     0
 42
0.000000001
 43
0.0000000001
 40
2.010999999999967
 40
2.010999999999967
 40
2.010999999999967
 40
2.010999999999967
 40
3.010999999999967
 40
3.010999999999967
 40
3.010999999999967
 40
3.010999999999967
 10
820.5169995769685
 20
-242.5174212148789
 30
0.0
 10
820.5169995769685
 20
-239.3847043529464
 30
0.0
 10
822.7395351884746
 20
-236.8869976657305
 30
0.0
 10
825.6888046666
 20
-236.8869976657305
 30
0.0
  0
SPLINE
  5
104
330
1F
100
AcDbEntity
  8
FISHER & PAYKEL
 62
   250
420
  1316376
370
     9
100
AcDbSpline
210
0.0
220
0.0
230
1.0
 70
     8
 71
     3
 72
     8
 73
     4
 74
     0
 42
0.000000001
 43
0.0000000001
 40
3.010999999999967
 40
3.010999999999967
 40
3.010999999999967
 40
3.010999999999967
 40
4.010999999999967
 40
4.010999999999967
 40
4.010999999999967
 40
4.010999999999967
 10
825.6888046666
 20
-236.8869976657305
 30
0.0
 10
828.747437008149
 20
-236.8869976657305
 30
0.0
 10
830.6877458753369
 20
-239.3423703412987
 30
0.0
 10
830.6877458753369
 20
-242.5385882207027
 30
0.0
  0
SPLINE
  5
105
330
1F
100
AcDbEntity
  8
FISHER & PAYKEL
 62
   250
420
  1316376
370
     9
100
AcDbSpline
210
0.0
220
0.0
230
1.0
 70
     8
 71
     3
 72
     8
 73
     4
 74
     0
 42
0.000000001
 43
0.0000000001
 40
4.010999999999967
 40
4.010999999999967
 40
4.010999999999967
 40
4.010999999999967
 40
5.010999999999967
 40
5.010999999999967
 40
5.010999999999967
 40
5.010999999999967
 10
830.6877458753369
 20
-242.5385882207027
 30
0.0
 10
830.6877458753369
 20
-242.7255634388135
 30
0.0
 10
830.6877458753369
 20
-242.7925922905891
 30
0.0
 10
830.6665788695126
 20
-242.9619283371799
 30
0.0
  0
LINE
  5
106
330
1F
100
AcDbEntity
  8
FISHER & PAYKEL
 62
   250
420
  1316376
370
     9
100
AcDbLine
 10
830.6665788695126
 20
-242.9619283371799
 30
0.0
 11
821.6282673827217
 21
-242.9619283371799
 31
0.0
  0
SPLINE
  5
107
330
1F
100
AcDbEntity
  8
FISHER & PAYKEL
 62
   250
420
  1316376
370
     9
100
AcDbSpline
210
0.0
220
0.0
230
1.0
 70
     8
 71
     3
 72
     8
 73
     4
 74
     0
 42
0.000000001
 43
0.0000000001
 40
7.572999999999979
 40
7.572999999999979
 40
7.572999999999979
 40
7.572999999999979
 40
8.572999999999979
 40
8.572999999999979
 40
8.572999999999979
 40
8.572999999999979
 10
821.6282673827217
 20
-242.9619283371799
 30
0.0
 10
821.8222982694402
 20
-245.6430824082034
 30
0.0
 10
823.7626071366284
 20
-247.2129686734734
 30
0.0
 10
825.9040025591427
 20
-247.2129686734734
 30
0.0
  0
SPLINE
  5
108
330
1F
100
AcDbEntity
  8
FISHER & PAYKEL
 62
   250
420
  1316376
370
     9
100
AcDbSpline
210
0.0
220
0.0
230
1.0
 70
     8
 71
     3
 72
     8
 73
     4
 74
     0
 42
0.000000001
 43
0.0000000001
 40
8.572999999999979
 40
8.572999999999979
 40
8.572999999999979
 40
8.572999999999979
 40
9.572999999999979
 40
9.572999999999979
 40
9.572999999999979
 40
9.572999999999979
 10
825.9040025591427
 20
-247.2129686734734
 30
0.0
 10
827.590307356444
 20
-247.2129686734734
 30
0.0
 10
828.747437008149
 20
-246.4721234696381
 30
0.0
 10
829.6399790870552
 20
-245.5196082075641
 30
0.0
  0
LINE
  5
109
330
1F
100
AcDbEntity
  8
FISHER & PAYKEL
 62
   250
420
  1316376
370
     9
100
AcDbLine
 10
829.6399790870552
 20
-245.5196082075641
 30
0.0
 11
830.3667129536747
 21
-246.1546183822803
 31
0.0
  0
SPLINE
  5
10A
330
1F
100
AcDbEntity
  8
FISHER & PAYKEL
 62
   250
420
  1316376
370
     9
100
AcDbSpline
210
0.0
220
0.0
230
1.0
 70
     8
 71
     3
 72
     8
 73
     4
 74
     0
 42
0.000000001
 43
0.0000000001
 40
9.84656169322476
 40
9.84656169322476
 40
9.84656169322476
 40
9.84656169322476
 40
10.84656169322476
 40
10.84656169322476
 40
10.84656169322476
 40
10.84656169322476
 10
830.3667129536747
 20
-246.1546183822803
 30
0.0
 10
829.2589729822258
 20
-247.3399707084166
 30
0.0
 10
827.9536742897538
 20
-248.1866509413713
 30
0.0
 10
825.8581407131909
 20
-248.1866509413713
 30
0.0
  0
SPLINE
  5
10B
330
1F
100
AcDbEntity
  8
FISHER & PAYKEL
 62
   250
420
  1316376
370
     9
100
AcDbSpline
210
0.0
220
0.0
230
1.0
 70
     8
 71
     3
 72
     8
 73
     4
 74
     0
 42
0.000000001
 43
0.0000000001
 40
10.84656169322476
 40
10.84656169322476
 40
10.84656169322476
 40
10.84656169322476
 40
11.84656169322476
 40
11.84656169322476
 40
11.84656169322476
 40
11.84656169322476
 10
825.8581407131909
 20
-248.1866509413713
 30
0.0
 10
822.9970670926651
 20
-248.1866509413713
 30
0.0
 10
820.5169995769685
 20
-245.9217813182175
 30
0.0
 10
820.5169995769685
 20
-242.5562273922226
 30
0.0
  0
LINE
  5
10C
330
1F
100
AcDbEntity
  8
FISHER & PAYKEL
 62
   250
420
  1316376
370
     9
100
AcDbLine
 10
812.7462389555964
 20
-237.1417073024775
 30
0.0
 11
813.7940057438781
 21
-237.1417073024775
 31
0.0
  0
LINE
  5
10D
330
1F
100
AcDbEntity
  8
FISHER & PAYKEL
 62
   250
420
  1316376
370
     9
100
AcDbLine
 10
813.7940057438781
 20
-237.1417073024775
 30
0.0
 11
813.7940057438781
 21
-240.2073953126344
 31
0.0
  0
SPLINE
  5
10E
330
1F
100
AcDbEntity
  8
FISHER & PAYKEL
 62
   250
420
  1316376
370
     9
100
AcDbSpline
210
0.0
220
0.0
230
1.0
 70
     8
 71
     3
 72
     8
 73
     4
 74
     0
 42
0.000000001
 43
0.0000000001
 40
1.166000000000054
 40
1.166000000000054
 40
1.166000000000054
 40
1.166000000000054
 40
2.166000000000054
 40
2.166000000000054
 40
2.166000000000054
 40
2.166000000000054
 10
813.7940057438781
 20
-240.2073953126344
 30
0.0
 10
814.6477416454405
 20
-238.2847256169662
 30
0.0
 10
816.4645763119892
 20
-236.8877032325912
 30
0.0
 10
818.6236109060236
 20
-236.9723712558865
 30
0.0
  0
LINE
  5
10F
330
1F
100
AcDbEntity
  8
FISHER & PAYKEL
 62
   250
420
  1316376
370
     9
100
AcDbLine
 10
818.6236109060236
 20
-236.9723712558865
 30
0.0
 11
818.6236109060236
 21
-238.1118617360715
 31
0.0
  0
LINE
  5
110
330
1F
100
AcDbEntity
  8
FISHER & PAYKEL
 62
   250
420
  1316376
370
     9
100
AcDbLine
 10
818.6236109060236
 20
-238.1118617360715
 30
0.0
 11
818.5177758769042
 21
-238.1118617360715
 31
0.0
  0
SPLINE
  5
111
330
1F
100
AcDbEntity
  8
FISHER & PAYKEL
 62
   250
420
  1316376
370
     9
100
AcDbSpline
210
0.0
220
0.0
230
1.0
 70
     8
 71
     3
 72
     8
 73
     4
 74
     0
 42
0.000000001
 43
0.0000000001
 40
2.519000000000005
 40
2.519000000000005
 40
2.519000000000005
 40
2.519000000000005
 40
3.519000000000005
 40
3.519000000000005
 40
3.519000000000005
 40
3.519000000000005
 10
818.5177758769042
 20
-238.1118617360715
 30
0.0
 10
815.9953743495602
 20
-238.1118617360715
 30
0.0
 10
813.7940057438781
 20
-239.9992530886994
 30
0.0
 10
813.7940057438781
 20
-243.5094482211576
 30
0.0
  0
LINE
  5
112
330
1F
100
AcDbEntity
  8
FISHER & PAYKEL
 62
   250
420
  1316376
370
     9
100
AcDbLine
 10
813.7940057438781
 20
-243.5094482211576
 30
0.0
 11
813.7940057438781
 21
-247.9333524383458
 31
0.0
  0
LINE
  5
113
330
1F
100
AcDbEntity
  8
FISHER & PAYKEL
 62
   250
420
  1316376
370
     9
100
AcDbLine
 10
813.7940057438781
 20
-247.9333524383458
 30
0.0
 11
812.7462389555964
 21
-247.9333524383458
 31
0.0
  0
LINE
  5
114
330
1F
100
AcDbEntity
  8
FISHER & PAYKEL
 62
   250
420
  1316376
370
     9
100
AcDbLine
 10
812.7462389555964
 20
-247.9333524383458
 30
0.0
 11
812.7462389555964
 21
-237.1417073024775
 31
0.0
  0
LINE
  5
115
330
1F
100
AcDbEntity
  8
FISHER & PAYKEL
 62
   250
420
  1316376
370
     9
100
AcDbLine
 10
804.805436720773
 20
-245.1587107582671
 30
0.0
 11
804.805436720773
 21
-238.0924586473996
 31
0.0
  0
LINE
  5
116
330
1F
100
AcDbEntity
  8
FISHER & PAYKEL
 62
   250
420
  1316376
370
     9
100
AcDbLine
 10
804.805436720773
 20
-238.0924586473996
 30
0.0
 11
803.2249669525908
 21
-238.0924586473996
 31
0.0
  0
LINE
  5
117
330
1F
100
AcDbEntity
  8
FISHER & PAYKEL
 62
   250
420
  1316376
370
     9
100
AcDbLine
 10
803.2249669525908
 20
-238.0924586473996
 30
0.0
 11
803.2249669525908
 21
-237.1434712196292
 31
0.0
  0
LINE
  5
118
330
1F
100
AcDbEntity
  8
FISHER & PAYKEL
 62
   250
420
  1316376
370
     9
100
AcDbLine
 10
803.2249669525908
 20
-237.1434712196292
 30
0.0
 11
804.805436720773
 21
-237.1434712196292
 31
0.0
  0
LINE
  5
119
330
1F
100
AcDbEntity
  8
FISHER & PAYKEL
 62
   250
420
  1316376
370
     9
100
AcDbLine
 10
804.805436720773
 20
-237.1434712196292
 30
0.0
 11
804.805436720773
 21
-233.6932492703391
 31
0.0
  0
LINE
  5
11A
330
1F
100
AcDbEntity
  8
FISHER & PAYKEL
 62
   250
420
  1316376
370
     9
100
AcDbLine
 10
804.805436720773
 20
-233.6932492703391
 30
0.0
 11
805.8532035090544
 21
-233.6932492703391
 31
0.0
  0
LINE
  5
11B
330
1F
100
AcDbEntity
  8
FISHER & PAYKEL
 62
   250
420
  1316376
370
     9
100
AcDbLine
 10
805.8532035090544
 20
-233.6932492703391
 30
0.0
 11
805.8532035090544
 21
-237.1434712196292
 31
0.0
  0
LINE
  5
11C
330
1F
100
AcDbEntity
  8
FISHER & PAYKEL
 62
   250
420
  1316376
370
     9
100
AcDbLine
 10
805.8532035090544
 20
-237.1434712196292
 30
0.0
 11
809.6773758945661
 21
-237.1434712196292
 31
0.0
  0
LINE
  5
11D
330
1F
100
AcDbEntity
  8
FISHER & PAYKEL
 62
   250
420
  1316376
370
     9
100
AcDbLine
 10
809.6773758945661
 20
-237.1434712196292
 30
0.0
 11
809.6773758945661
 21
-238.0924586473996
 31
0.0
  0
LINE
  5
11E
330
1F
100
AcDbEntity
  8
FISHER & PAYKEL
 62
   250
420
  1316376
370
     9
100
AcDbLine
 10
809.6773758945661
 20
-238.0924586473996
 30
0.0
 11
805.8532035090544
 21
-238.0924586473996
 31
0.0
  0
LINE
  5
11F
330
1F
100
AcDbEntity
  8
FISHER & PAYKEL
 62
   250
420
  1316376
370
     9
100
AcDbLine
 10
805.8532035090544
 20
-238.0924586473996
 30
0.0
 11
805.8532035090544
 21
-245.0528757291477
 31
0.0
  0
SPLINE
  5
120
330
1F
100
AcDbEntity
  8
FISHER & PAYKEL
 62
   250
420
  1316376
370
     9
100
AcDbSpline
210
0.0
220
0.0
230
1.0
 70
     8
 71
     3
 72
     8
 73
     4
 74
     0
 42
0.000000001
 43
0.0000000001
 40
9.830999999999904
 40
9.830999999999904
 40
9.830999999999904
 40
9.830999999999904
 40
10.8309999999999
 40
10.8309999999999
 40
10.8309999999999
 40
10.8309999999999
 10
805.8532035090544
 20
-245.0528757291477
 30
0.0
 10
805.8532035090544
 20
-246.59806715429
 30
0.0
 10
806.7739682623925
 20
-247.1448814714066
 30
0.0
 10
808.0334051089125
 20
-247.1448814714066
 30
0.0
  0
SPLINE
  5
121
330
1F
100
AcDbEntity
  8
FISHER & PAYKEL
 62
   250
420
  1316376
370
     9
100
AcDbSpline
210
0.0
220
0.0
230
1.0
 70
     8
 71
     3
 72
     8
 73
     4
 74
     0
 42
0.000000001
 43
0.0000000001
 40
10.8309999999999
 40
10.8309999999999
 40
10.8309999999999
 40
10.8309999999999
 40
11.8309999999999
 40
11.8309999999999
 40
11.8309999999999
 40
11.8309999999999
 10
808.0334051089125
 20
-247.1448814714066
 30
0.0
 10
808.5661080888129
 20
-247.1448814714066
 30
0.0
 10
809.0141430454183
 20
-247.0425742765911
 30
0.0
 10
809.6350418829185
 20
-246.7674032008809
 30
0.0
  0
LINE
  5
122
330
1F
100
AcDbEntity
  8
FISHER & PAYKEL
 62
   250
420
  1316376
370
     9
100
AcDbLine
 10
809.6350418829185
 20
-246.7674032008809
 30
0.0
 11
809.6350418829185
 21
-247.7375576344749
 31
0.0
  0
SPLINE
  5
123
330
1F
100
AcDbEntity
  8
FISHER & PAYKEL
 62
   250
420
  1316376
370
     9
100
AcDbSpline
210
0.0
220
0.0
230
1.0
 70
     8
 71
     3
 72
     8
 73
     4
 74
     0
 42
0.000000001
 43
0.0000000001
 40
12.10599999999988
 40
12.10599999999988
 40
12.10599999999988
 40
12.10599999999988
 40
13.10599999999988
 40
13.10599999999988
 40
13.10599999999988
 40
13.10599999999988
 10
809.6350418829185
 20
-247.7375576344749
 30
0.0
 10
809.0811718971939
 20
-247.9950895386651
 30
0.0
 10
808.548468917293
 20
-248.1220915736083
 30
0.0
 10
807.8605412280177
 20
-248.1220915736083
 30
0.0
  0
SPLINE
  5
124
330
1F
100
AcDbEntity
  8
FISHER & PAYKEL
 62
   250
420
  1316376
370
     9
100
AcDbSpline
210
0.0
220
0.0
230
1.0
 70
     8
 71
     3
 72
     8
 73
     4
 74
     0
 42
0.000000001
 43
0.0000000001
 40
13.10599999999988
 40
13.10599999999988
 40
13.10599999999988
 40
13.10599999999988
 40
14.10599999999988
 40
14.10599999999988
 40
14.10599999999988
 40
14.10599999999988
 10
807.8605412280177
 20
-248.1220915736083
 30
0.0
 10
806.1742364307162
 20
-248.1220915736083
 30
0.0
 10
804.805436720773
 20
-247.2119103231819
 30
0.0
 10
804.805436720773
 20
-245.1587107582671
 30
0.0
  0
SPLINE
  5
125
330
1F
100
AcDbEntity
  8
FISHER & PAYKEL
 62
   250
420
  1316376
370
     9
100
AcDbSpline
210
0.0
220
0.0
230
1.0
 70
     8
 71
     3
 72
     8
 73
     4
 74
     0
 42
0.000000001
 43
0.0000000001
 40
0.0
 40
0.0
 40
0.0
 40
0.0
 40
1.0
 40
1.0
 40
1.0
 40
1.0
 10
800.0717886516951
 20
-242.0270522466258
 30
0.0
 10
799.9236196109283
 20
-239.8503784810715
 30
0.0
 10
798.6641827644081
 20
-237.8395129278043
 30
0.0
 10
796.1629482428876
 20
-237.8395129278043
 30
0.0
  0
SPLINE
  5
126
330
1F
100
AcDbEntity
  8
FISHER & PAYKEL
 62
   250
420
  1316376
370
     9
100
AcDbSpline
210
0.0
220
0.0
230
1.0
 70
     8
 71
     3
 72
     8
 73
     4
 74
     0
 42
0.000000001
 43
0.0000000001
 40
1.0
 40
1.0
 40
1.0
 40
1.0
 40
2.0
 40
2.0
 40
2.0
 40
2.0
 10
796.1629482428876
 20
-237.8395129278043
 30
0.0
 10
794.0039136488532
 20
-237.8395129278043
 30
0.0
 10
792.3387758573757
 20
-239.6351805885291
 30
0.0
 10
792.1447449706569
 20
-242.0270522466258
 30
0.0
  0
LINE
  5
127
330
1F
100
AcDbEntity
  8
FISHER & PAYKEL
 62
   250
420
  1316376
370
     9
100
AcDbLine
 10
792.1447449706569
 20
-242.0270522466258
 30
0.0
 11
800.0717886516951
 21
-242.0270522466258
 31
0.0
  0
LINE
  5
128
330
1F
100
AcDbEntity
  8
FISHER & PAYKEL
 62
   250
420
  1316376
370
     9
100
AcDbLine
 10
791.033477164904
 20
-242.5562273922226
 30
0.0
 11
791.033477164904
 21
-242.5174212148789
 31
0.0
  0
SPLINE
  5
129
330
1F
100
AcDbEntity
  8
FISHER & PAYKEL
 62
   250
420
  1316376
370
     9
100
AcDbSpline
210
0.0
220
0.0
230
1.0
 70
     8
 71
     3
 72
     8
 73
     4
 74
     0
 42
0.000000001
 43
0.0000000001
 40
2.010999999999967
 40
2.010999999999967
 40
2.010999999999967
 40
2.010999999999967
 40
3.010999999999967
 40
3.010999999999967
 40
3.010999999999967
 40
3.010999999999967
 10
791.033477164904
 20
-242.5174212148789
 30
0.0
 10
791.033477164904
 20
-239.3847043529464
 30
0.0
 10
793.2560127764099
 20
-236.8869976657305
 30
0.0
 10
796.2052822545355
 20
-236.8869976657305
 30
0.0
  0
SPLINE
  5
12A
330
1F
100
AcDbEntity
  8
FISHER & PAYKEL
 62
   250
420
  1316376
370
     9
100
AcDbSpline
210
0.0
220
0.0
230
1.0
 70
     8
 71
     3
 72
     8
 73
     4
 74
     0
 42
0.000000001
 43
0.0000000001
 40
3.010999999999967
 40
3.010999999999967
 40
3.010999999999967
 40
3.010999999999967
 40
4.010999999999967
 40
4.010999999999967
 40
4.010999999999967
 40
4.010999999999967
 10
796.2052822545355
 20
-236.8869976657305
 30
0.0
 10
799.2639145960844
 20
-236.8869976657305
 30
0.0
 10
801.2042234632721
 20
-239.3423703412987
 30
0.0
 10
801.2042234632721
 20
-242.5385882207027
 30
0.0
  0
SPLINE
  5
12B
330
1F
100
AcDbEntity
  8
FISHER & PAYKEL
 62
   250
420
  1316376
370
     9
100
AcDbSpline
210
0.0
220
0.0
230
1.0
 70
     8
 71
     3
 72
     8
 73
     4
 74
     0
 42
0.000000001
 43
0.0000000001
 40
4.010999999999967
 40
4.010999999999967
 40
4.010999999999967
 40
4.010999999999967
 40
5.010999999999967
 40
5.010999999999967
 40
5.010999999999967
 40
5.010999999999967
 10
801.2042234632721
 20
-242.5385882207027
 30
0.0
 10
801.2042234632721
 20
-242.7255634388135
 30
0.0
 10
801.2042234632721
 20
-242.7925922905891
 30
0.0
 10
801.1830564574481
 20
-242.9619283371799
 30
0.0
  0
LINE
  5
12C
330
1F
100
AcDbEntity
  8
FISHER & PAYKEL
 62
   250
420
  1316376
370
     9
100
AcDbLine
 10
801.1830564574481
 20
-242.9619283371799
 30
0.0
 11
792.1447449706569
 21
-242.9619283371799
 31
0.0
  0
SPLINE
  5
12D
330
1F
100
AcDbEntity
  8
FISHER & PAYKEL
 62
   250
420
  1316376
370
     9
100
AcDbSpline
210
0.0
220
0.0
230
1.0
 70
     8
 71
     3
 72
     8
 73
     4
 74
     0
 42
0.000000001
 43
0.0000000001
 40
7.572999999999979
 40
7.572999999999979
 40
7.572999999999979
 40
7.572999999999979
 40
8.572999999999979
 40
8.572999999999979
 40
8.572999999999979
 40
8.572999999999979
 10
792.1447449706569
 20
-242.9619283371799
 30
0.0
 10
792.3387758573757
 20
-245.6430824082034
 30
0.0
 10
794.2790847245636
 20
-247.2129686734734
 30
0.0
 10
796.4204801470779
 20
-247.2129686734734
 30
0.0
  0
SPLINE
  5
12E
330
1F
100
AcDbEntity
  8
FISHER & PAYKEL
 62
   250
420
  1316376
370
     9
100
AcDbSpline
210
0.0
220
0.0
230
1.0
 70
     8
 71
     3
 72
     8
 73
     4
 74
     0
 42
0.000000001
 43
0.0000000001
 40
8.572999999999979
 40
8.572999999999979
 40
8.572999999999979
 40
8.572999999999979
 40
9.572999999999979
 40
9.572999999999979
 40
9.572999999999979
 40
9.572999999999979
 10
796.4204801470779
 20
-247.2129686734734
 30
0.0
 10
798.1067849443795
 20
-247.2129686734734
 30
0.0
 10
799.2639145960844
 20
-246.4721234696381
 30
0.0
 10
800.1564566749906
 20
-245.5196082075641
 30
0.0
  0
LINE
  5
12F
330
1F
100
AcDbEntity
  8
FISHER & PAYKEL
 62
   250
420
  1316376
370
     9
100
AcDbLine
 10
800.1564566749906
 20
-245.5196082075641
 30
0.0
 11
800.8831905416101
 21
-246.1546183822803
 31
0.0
  0
SPLINE
  5
130
330
1F
100
AcDbEntity
  8
FISHER & PAYKEL
 62
   250
420
  1316376
370
     9
100
AcDbSpline
210
0.0
220
0.0
230
1.0
 70
     8
 71
     3
 72
     8
 73
     4
 74
     0
 42
0.000000001
 43
0.0000000001
 40
9.84656169322476
 40
9.84656169322476
 40
9.84656169322476
 40
9.84656169322476
 40
10.84656169322476
 40
10.84656169322476
 40
10.84656169322476
 40
10.84656169322476
 10
800.8831905416101
 20
-246.1546183822803
 30
0.0
 10
799.7754505701611
 20
-247.3399707084166
 30
0.0
 10
798.4701518776893
 20
-248.1866509413713
 30
0.0
 10
796.3746183011264
 20
-248.1866509413713
 30
0.0
  0
SPLINE
  5
131
330
1F
100
AcDbEntity
  8
FISHER & PAYKEL
 62
   250
420
  1316376
370
     9
100
AcDbSpline
210
0.0
220
0.0
230
1.0
 70
     8
 71
     3
 72
     8
 73
     4
 74
     0
 42
0.000000001
 43
0.0000000001
 40
10.84656169322476
 40
10.84656169322476
 40
10.84656169322476
 40
10.84656169322476
 40
11.84656169322476
 40
11.84656169322476
 40
11.84656169322476
 40
11.84656169322476
 10
796.3746183011264
 20
-248.1866509413713
 30
0.0
 10
793.5135446806006
 20
-248.1866509413713
 30
0.0
 10
791.033477164904
 20
-245.9217813182175
 30
0.0
 10
791.033477164904
 20
-242.5562273922226
 30
0.0
  0
LINE
  5
132
330
1F
100
AcDbEntity
  8
FISHER & PAYKEL
 62
   250
420
  1316376
370
     9
100
AcDbLine
 10
771.4977419231963
 20
-237.1417073024775
 30
0.0
 11
772.5455087114777
 21
-237.1417073024775
 31
0.0
  0
LINE
  5
133
330
1F
100
AcDbEntity
  8
FISHER & PAYKEL
 62
   250
420
  1316376
370
     9
100
AcDbLine
 10
772.5455087114777
 20
-237.1417073024775
 30
0.0
 11
772.5455087114777
 21
-239.0679048324494
 31
0.0
  0
SPLINE
  5
134
330
1F
100
AcDbEntity
  8
FISHER & PAYKEL
 62
   250
420
  1316376
370
     9
100
AcDbSpline
210
0.0
220
0.0
230
1.0
 70
     8
 71
     3
 72
     8
 73
     4
 74
     0
 42
0.000000001
 43
0.0000000001
 40
0.8430000000000177
 40
0.8430000000000177
 40
0.8430000000000177
 40
0.8430000000000177
 40
1.843000000000018
 40
1.843000000000018
 40
1.843000000000018
 40
1.843000000000018
 10
772.5455087114777
 20
-239.0679048324494
 30
0.0
 10
773.2510755722734
 20
-237.9495813580882
 30
0.0
 10
774.2318135087788
 20
-236.8877032325912
 30
0.0
 10
776.1791780445748
 20
-236.8877032325912
 30
0.0
  0
SPLINE
  5
135
330
1F
100
AcDbEntity
  8
FISHER & PAYKEL
 62
   250
420
  1316376
370
     9
100
AcDbSpline
210
0.0
220
0.0
230
1.0
 70
     8
 71
     3
 72
     8
 73
     4
 74
     0
 42
0.000000001
 43
0.0000000001
 40
1.843000000000018
 40
1.843000000000018
 40
1.843000000000018
 40
1.843000000000018
 40
2.843000000000018
 40
2.843000000000018
 40
2.843000000000018
 40
2.843000000000018
 10
776.1791780445748
 20
-236.8877032325912
 30
0.0
 10
778.0806807344189
 20
-236.8877032325912
 30
0.0
 10
779.2554495576436
 20
-237.9672205296081
 30
0.0
 10
779.8551813893197
 20
-239.2160738732167
 30
0.0
  0
SPLINE
  5
136
330
1F
100
AcDbEntity
  8
FISHER & PAYKEL
 62
   250
420
  1316376
370
     9
100
AcDbSpline
210
0.0
220
0.0
230
1.0
 70
     8
 71
     3
 72
     8
 73
     4
 74
     0
 42
0.000000001
 43
0.0000000001
 40
2.843000000000018
 40
2.843000000000018
 40
2.843000000000018
 40
2.843000000000018
 40
3.843000000000018
 40
3.843000000000018
 40
3.843000000000018
 40
3.843000000000018
 10
779.8551813893197
 20
-239.2160738732167
 30
0.0
 10
780.5572204158112
 20
-238.0095545412558
 30
0.0
 10
781.7319892390359
 20
-236.8877032325912
 30
0.0
 10
783.785188803951
 20
-236.8877032325912
 30
0.0
  0
SPLINE
  5
137
330
1F
100
AcDbEntity
  8
FISHER & PAYKEL
 62
   250
420
  1316376
370
     9
100
AcDbSpline
210
0.0
220
0.0
230
1.0
 70
     8
 71
     3
 72
     8
 73
     4
 74
     0
 42
0.000000001
 43
0.0000000001
 40
3.843000000000018
 40
3.843000000000018
 40
3.843000000000018
 40
3.843000000000018
 40
4.843000000000018
 40
4.843000000000018
 40
4.843000000000018
 40
4.843000000000018
 10
783.785188803951
 20
-236.8877032325912
 30
0.0
 10
786.3746191830706
 20
-236.8877032325912
 30
0.0
 10
787.9762559570767
 20
-238.683370893316
 30
0.0
 10
787.9762559570767
 20
-241.3927476387708
 30
0.0
  0
LINE
  5
138
330
1F
100
AcDbEntity
  8
FISHER & PAYKEL
 62
   250
420
  1316376
370
     9
100
AcDbLine
 10
787.9762559570767
 20
-241.3927476387708
 30
0.0
 11
787.9762559570767
 21
-247.9333524383458
 31
0.0
  0
LINE
  5
139
330
1F
100
AcDbEntity
  8
FISHER & PAYKEL
 62
   250
420
  1316376
370
     9
100
AcDbLine
 10
787.9762559570767
 20
-247.9333524383458
 30
0.0
 11
786.9284891687954
 21
-247.9333524383458
 31
0.0
  0
LINE
  5
13A
330
1F
100
AcDbEntity
  8
FISHER & PAYKEL
 62
   250
420
  1316376
370
     9
100
AcDbLine
 10
786.9284891687954
 20
-247.9333524383458
 30
0.0
 11
786.9284891687954
 21
-241.519749673714
 31
0.0
  0
SPLINE
  5
13B
330
1F
100
AcDbEntity
  8
FISHER & PAYKEL
 62
   250
420
  1316376
370
     9
100
AcDbSpline
210
0.0
220
0.0
230
1.0
 70
     8
 71
     3
 72
     8
 73
     4
 74
     0
 42
0.000000001
 43
0.0000000001
 40
8.812000000000069
 40
8.812000000000069
 40
8.812000000000069
 40
8.812000000000069
 40
9.812000000000069
 40
9.812000000000069
 40
9.812000000000069
 40
9.812000000000069
 10
786.9284891687954
 20
-241.519749673714
 30
0.0
 10
786.9284891687954
 20
-239.1949068673926
 30
0.0
 10
785.707858499619
 20
-237.840218494665
 30
0.0
 10
783.7005207806557
 20
-237.840218494665
 30
0.0
  0
SPLINE
  5
13C
330
1F
100
AcDbEntity
  8
FISHER & PAYKEL
 62
   250
420
  1316376
370
     9
100
AcDbSpline
210
0.0
220
0.0
230
1.0
 70
     8
 71
     3
 72
     8
 73
     4
 74
     0
 42
0.000000001
 43
0.0000000001
 40
9.812000000000069
 40
9.812000000000069
 40
9.812000000000069
 40
9.812000000000069
 40
10.81200000000007
 40
10.81200000000007
 40
10.81200000000007
 40
10.81200000000007
 10
783.7005207806557
 20
-237.840218494665
 30
0.0
 10
781.8625191082832
 20
-237.840218494665
 30
0.0
 10
780.2573544999733
 20
-239.2372408790403
 30
0.0
 10
780.2573544999733
 20
-241.6467517086572
 30
0.0
  0
LINE
  5
13D
330
1F
100
AcDbEntity
  8
FISHER & PAYKEL
 62
   250
420
  1316376
370
     9
100
AcDbLine
 10
780.2573544999733
 20
-241.6467517086572
 30
0.0
 11
780.2573544999733
 21
-247.9333524383458
 31
0.0
  0
LINE
  5
13E
330
1F
100
AcDbEntity
  8
FISHER & PAYKEL
 62
   250
420
  1316376
370
     9
100
AcDbLine
 10
780.2573544999733
 20
-247.9333524383458
 30
0.0
 11
779.2131155459957
 21
-247.9333524383458
 31
0.0
  0
LINE
  5
13F
330
1F
100
AcDbEntity
  8
FISHER & PAYKEL
 62
   250
420
  1316376
370
     9
100
AcDbLine
 10
779.2131155459957
 20
-247.9333524383458
 30
0.0
 11
779.2131155459957
 21
-241.4597764905464
 31
0.0
  0
SPLINE
  5
140
330
1F
100
AcDbEntity
  8
FISHER & PAYKEL
 62
   250
420
  1316376
370
     9
100
AcDbSpline
210
0.0
220
0.0
230
1.0
 70
     8
 71
     3
 72
     8
 73
     4
 74
     0
 42
0.000000001
 43
0.0000000001
 40
14.72500000000014
 40
14.72500000000014
 40
14.72500000000014
 40
14.72500000000014
 40
15.72500000000014
 40
15.72500000000014
 40
15.72500000000014
 40
15.72500000000014
 10
779.2131155459957
 20
-241.4597764905464
 30
0.0
 10
779.2131155459957
 20
-239.2160738732167
 30
0.0
 10
777.9748457052996
 20
-237.840218494665
 30
0.0
 10
776.0274811695036
 20
-237.840218494665
 30
0.0
  0
SPLINE
  5
141
330
1F
100
AcDbEntity
  8
FISHER & PAYKEL
 62
   250
420
  1316376
370
     9
100
AcDbSpline
210
0.0
220
0.0
230
1.0
 70
     8
 71
     3
 72
     8
 73
     4
 74
     0
 42
0.000000001
 43
0.0000000001
 40
15.72500000000014
 40
15.72500000000014
 40
15.72500000000014
 40
15.72500000000014
 40
16.72500000000014
 40
16.72500000000014
 40
16.72500000000014
 40
16.72500000000014
 10
776.0274811695036
 20
-237.840218494665
 30
0.0
 10
774.083644468012
 20
-237.840218494665
 30
0.0
 10
772.5455087114777
 20
-239.5335789605745
 30
0.0
 10
772.5455087114777
 20
-241.7102527261289
 30
0.0
  0
LINE
  5
142
330
1F
100
AcDbEntity
  8
FISHER & PAYKEL
 62
   250
420
  1316376
370
     9
100
AcDbLine
 10
772.5455087114777
 20
-241.7102527261289
 30
0.0
 11
772.5455087114777
 21
-247.9333524383458
 31
0.0
  0
LINE
  5
143
330
1F
100
AcDbEntity
  8
FISHER & PAYKEL
 62
   250
420
  1316376
370
     9
100
AcDbLine
 10
772.5455087114777
 20
-247.9333524383458
 30
0.0
 11
771.4977419231963
 21
-247.9333524383458
 31
0.0
  0
LINE
  5
144
330
1F
100
AcDbEntity
  8
FISHER & PAYKEL
 62
   250
420
  1316376
370
     9
100
AcDbLine
 10
771.4977419231963
 20
-247.9333524383458
 30
0.0
 11
771.4977419231963
 21
-237.1417073024775
 31
0.0
  0
POLYLINE
  5
145
330
1F
100
AcDbEntity
  8
FISHER & PAYKEL
 62
   250
420
  1316376
370
     9
100
AcDb2dPolyline
 66
     1
 10
0.0
 20
0.0
 30
0.0
 70
     1
  0
VERTEX
  5
146
330
145
100
AcDbEntity
  8
FISHER & PAYKEL
 62
   250
420
  1316376
370
     9
100
AcDbVertex
100
AcDb2dVertex
 10
766.3534539411359
 20
-237.1424128693382
 30
0.0
  0
VERTEX
  5
147
330
145
100
AcDbEntity
  8
FISHER & PAYKEL
 62
   250
420
  1316376
370
     9
100
AcDbVertex
100
AcDb2dVertex
 10
767.4012207294173
 20
-237.1424128693382
 30
0.0
  0
VERTEX
  5
148
330
145
100
AcDbEntity
  8
FISHER & PAYKEL
 62
   250
420
  1316376
370
     9
100
AcDbVertex
100
AcDb2dVertex
 10
767.4012207294173
 20
-247.9340580052067
 30
0.0
  0
VERTEX
  5
149
330
145
100
AcDbEntity
  8
FISHER & PAYKEL
 62
   250
420
  1316376
370
     9
100
AcDbVertex
100
AcDb2dVertex
 10
766.3534539411359
 20
-247.9340580052067
 30
0.0
  0
SEQEND
  5
14A
330
145
100
AcDbEntity
  8
FISHER & PAYKEL
 62
   250
420
  1316376
370
     9
  0
POLYLINE
  5
14B
330
1F
100
AcDbEntity
  8
FISHER & PAYKEL
 62
   250
420
  1316376
370
     9
100
AcDb2dPolyline
 66
     1
 10
0.0
 20
0.0
 30
0.0
 70
     1
  0
VERTEX
  5
14C
330
14B
100
AcDbEntity
  8
FISHER & PAYKEL
 62
   250
420
  1316376
370
     9
100
AcDbVertex
100
AcDb2dVertex
 10
766.2264519061927
 20
-232.912539538869
 30
0.0
  0
VERTEX
  5
14D
330
14B
100
AcDbEntity
  8
FISHER & PAYKEL
 62
   250
420
  1316376
370
     9
100
AcDbVertex
100
AcDb2dVertex
 10
767.5282227643605
 20
-232.912539538869
 30
0.0
  0
VERTEX
  5
14E
330
14B
100
AcDbEntity
  8
FISHER & PAYKEL
 62
   250
420
  1316376
370
     9
100
AcDbVertex
100
AcDb2dVertex
 10
767.5282227643605
 20
-234.3272010947642
 30
0.0
  0
VERTEX
  5
14F
330
14B
100
AcDbEntity
  8
FISHER & PAYKEL
 62
   250
420
  1316376
370
     9
100
AcDbVertex
100
AcDb2dVertex
 10
766.2264519061927
 20
-234.3272010947642
 30
0.0
  0
SEQEND
  5
150
330
14B
100
AcDbEntity
  8
FISHER & PAYKEL
 62
   250
420
  1316376
370
     9
  0
POLYLINE
  5
151
330
1F
100
AcDbEntity
  8
FISHER & PAYKEL
 62
   250
420
  1316376
370
     9
100
AcDb2dPolyline
 66
     1
 10
0.0
 20
0.0
 30
0.0
 70
     1
  0
VERTEX
  5
152
330
151
100
AcDbEntity
  8
FISHER & PAYKEL
 62
   250
420
  1316376
370
     9
100
AcDbVertex
100
AcDb2dVertex
 10
761.058174650865
 20
-232.4856715880874
 30
0.0
  0
VERTEX
  5
153
330
151
100
AcDbEntity
  8
FISHER & PAYKEL
 62
   250
420
  1316376
370
     9
100
AcDbVertex
100
AcDb2dVertex
 10
762.1059414391467
 20
-232.4856715880874
 30
0.0
  0
VERTEX
  5
154
330
151
100
AcDbEntity
  8
FISHER & PAYKEL
 62
   250
420
  1316376
370
     9
100
AcDbVertex
100
AcDb2dVertex
 10
762.1059414391467
 20
-247.9305301709024
 30
0.0
  0
VERTEX
  5
155
330
151
100
AcDbEntity
  8
FISHER & PAYKEL
 62
   250
420
  1316376
370
     9
100
AcDbVertex
100
AcDb2dVertex
 10
761.058174650865
 20
-247.9305301709024
 30
0.0
  0
SEQEND
  5
156
330
151
100
AcDbEntity
  8
FISHER & PAYKEL
 62
   250
420
  1316376
370
     9
  0
POLYLINE
  5
157
330
1F
100
AcDbEntity
  8
FISHER & PAYKEL
 62
   250
420
  1316376
370
     9
100
AcDb2dPolyline
 66
     1
 10
0.0
 20
0.0
 30
0.0
 70
     1
  0
VERTEX
  5
158
330
157
100
AcDbEntity
  8
FISHER & PAYKEL
 62
   250
420
  1316376
370
     9
100
AcDbVertex
100
AcDb2dVertex
 10
755.7628953605944
 20
-232.4856715880874
 30
0.0
  0
VERTEX
  5
159
330
157
100
AcDbEntity
  8
FISHER & PAYKEL
 62
   250
420
  1316376
370
     9
100
AcDbVertex
100
AcDb2dVertex
 10
756.8106621488758
 20
-232.4856715880874
 30
0.0
  0
VERTEX
  5
15A
330
157
100
AcDbEntity
  8
FISHER & PAYKEL
 62
   250
420
  1316376
370
     9
100
AcDbVertex
100
AcDb2dVertex
 10
756.8106621488758
 20
-247.9305301709024
 30
0.0
  0
VERTEX
  5
15B
330
157
100
AcDbEntity
  8
FISHER & PAYKEL
 62
   250
420
  1316376
370
     9
100
AcDbVertex
100
AcDb2dVertex
 10
755.7628953605944
 20
-247.9305301709024
 30
0.0
  0
SEQEND
  5
15C
330
157
100
AcDbEntity
  8
FISHER & PAYKEL
 62
   250
420
  1316376
370
     9
  0
POLYLINE
  5
15D
330
1F
100
AcDbEntity
  8
FISHER & PAYKEL
 62
   250
420
  1316376
370
     9
100
AcDb2dPolyline
 66
     1
 10
0.0
 20
0.0
 30
0.0
 70
     1
  0
VERTEX
  5
15E
330
15D
100
AcDbEntity
  8
FISHER & PAYKEL
 62
   250
420
  1316376
370
     9
100
AcDbVertex
100
AcDb2dVertex
 10
750.4711439046276
 20
-237.1424128693382
 30
0.0
  0
VERTEX
  5
15F
330
15D
100
AcDbEntity
  8
FISHER & PAYKEL
 62
   250
420
  1316376
370
     9
100
AcDbVertex
100
AcDb2dVertex
 10
751.5189106929091
 20
-237.1424128693382
 30
0.0
  0
VERTEX
  5
160
330
15D
100
AcDbEntity
  8
FISHER & PAYKEL
 62
   250
420
  1316376
370
     9
100
AcDbVertex
100
AcDb2dVertex
 10
751.5189106929091
 20
-247.9340580052067
 30
0.0
  0
VERTEX
  5
161
330
15D
100
AcDbEntity
  8
FISHER & PAYKEL
 62
   250
420
  1316376
370
     9
100
AcDbVertex
100
AcDb2dVertex
 10
750.4711439046276
 20
-247.9340580052067
 30
0.0
  0
SEQEND
  5
162
330
15D
100
AcDbEntity
  8
FISHER & PAYKEL
 62
   250
420
  1316376
370
     9
  0
POLYLINE
  5
163
330
1F
100
AcDbEntity
  8
FISHER & PAYKEL
 62
   250
420
  1316376
370
     9
100
AcDb2dPolyline
 66
     1
 10
0.0
 20
0.0
 30
0.0
 70
     1
  0
VERTEX
  5
164
330
163
100
AcDbEntity
  8
FISHER & PAYKEL
 62
   250
420
  1316376
370
     9
100
AcDbVertex
100
AcDb2dVertex
 10
750.3406140353803
 20
-232.912539538869
 30
0.0
  0
VERTEX
  5
165
330
163
100
AcDbEntity
  8
FISHER & PAYKEL
 62
   250
420
  1316376
370
     9
100
AcDbVertex
100
AcDb2dVertex
 10
751.6459127278523
 20
-232.912539538869
 30
0.0
  0
VERTEX
  5
166
330
163
100
AcDbEntity
  8
FISHER & PAYKEL
 62
   250
420
  1316376
370
     9
100
AcDbVertex
100
AcDb2dVertex
 10
751.6459127278523
 20
-234.3272010947642
 30
0.0
  0
VERTEX
  5
167
330
163
100
AcDbEntity
  8
FISHER & PAYKEL
 62
   250
420
  1316376
370
     9
100
AcDbVertex
100
AcDb2dVertex
 10
750.3406140353803
 20
-234.3272010947642
 30
0.0
  0
SEQEND
  5
168
330
163
100
AcDbEntity
  8
FISHER & PAYKEL
 62
   250
420
  1316376
370
     9
  0
POLYLINE
  5
169
330
1F
100
AcDbEntity
  8
FISHER & PAYKEL
 62
   250
420
  1316376
370
     9
100
AcDb2dPolyline
 66
     1
 10
0.0
 20
0.0
 30
0.0
 70
     1
  0
VERTEX
  5
16A
330
169
100
AcDbEntity
  8
FISHER & PAYKEL
 62
   250
420
  1316376
370
     9
100
AcDbVertex
100
AcDb2dVertex
 10
732.0438542012297
 20
-233.1210345462339
 30
0.0
  0
VERTEX
  5
16B
330
169
100
AcDbEntity
  8
FISHER & PAYKEL
 62
   250
420
  1316376
370
     9
100
AcDbVertex
100
AcDb2dVertex
 10
733.0916209895112
 20
-233.1210345462339
 30
0.0
  0
VERTEX
  5
16C
330
169
100
AcDbEntity
  8
FISHER & PAYKEL
 62
   250
420
  1316376
370
     9
100
AcDbVertex
100
AcDb2dVertex
 10
739.0959949748816
 20
-241.880647123011
 30
0.0
  0
VERTEX
  5
16D
330
169
100
AcDbEntity
  8
FISHER & PAYKEL
 62
   250
420
  1316376
370
     9
100
AcDbVertex
100
AcDb2dVertex
 10
745.100368960252
 20
-233.1210345462339
 30
0.0
  0
VERTEX
  5
16E
330
169
100
AcDbEntity
  8
FISHER & PAYKEL
 62
   250
420
  1316376
370
     9
100
AcDbVertex
100
AcDb2dVertex
 10
746.1481357485333
 20
-233.1210345462339
 30
0.0
  0
VERTEX
  5
16F
330
169
100
AcDbEntity
  8
FISHER & PAYKEL
 62
   250
420
  1316376
370
     9
100
AcDbVertex
100
AcDb2dVertex
 10
746.1481357485333
 20
-247.930882954333
 30
0.0
  0
VERTEX
  5
170
330
169
100
AcDbEntity
  8
FISHER & PAYKEL
 62
   250
420
  1316376
370
     9
100
AcDbVertex
100
AcDb2dVertex
 10
745.0403957770842
 20
-247.930882954333
 30
0.0
  0
VERTEX
  5
171
330
169
100
AcDbEntity
  8
FISHER & PAYKEL
 62
   250
420
  1316376
370
     9
100
AcDbVertex
100
AcDb2dVertex
 10
745.0403957770842
 20
-235.0683990820297
 30
0.0
  0
VERTEX
  5
172
330
169
100
AcDbEntity
  8
FISHER & PAYKEL
 62
   250
420
  1316376
370
     9
100
AcDbVertex
100
AcDb2dVertex
 10
739.1206898150093
 20
-243.5951745947442
 30
0.0
  0
VERTEX
  5
173
330
169
100
AcDbEntity
  8
FISHER & PAYKEL
 62
   250
420
  1316376
370
     9
100
AcDbVertex
100
AcDb2dVertex
 10
739.0324939574099
 20
-243.5951745947442
 30
0.0
  0
VERTEX
  5
174
330
169
100
AcDbEntity
  8
FISHER & PAYKEL
 62
   250
420
  1316376
370
     9
100
AcDbVertex
100
AcDb2dVertex
 10
733.1163158296389
 20
-235.0683990820297
 30
0.0
  0
VERTEX
  5
175
330
169
100
AcDbEntity
  8
FISHER & PAYKEL
 62
   250
420
  1316376
370
     9
100
AcDbVertex
100
AcDb2dVertex
 10
733.1163158296389
 20
-247.930882954333
 30
0.0
  0
VERTEX
  5
176
330
169
100
AcDbEntity
  8
FISHER & PAYKEL
 62
   250
420
  1316376
370
     9
100
AcDbVertex
100
AcDb2dVertex
 10
732.0438542012297
 20
-247.930882954333
 30
0.0
  0
SEQEND
  5
177
330
169
100
AcDbEntity
  8
FISHER & PAYKEL
 62
   250
420
  1316376
370
     9
  0
LINE
  5
178
330
1F
100
AcDbEntity
  8
FISHER & PAYKEL
 62
   250
420
  1316376
370
     9
100
AcDbLine
 10
322.0844604554462
 20
-191.3144341269445
 30
0.0
 11
322.0844604554462
 21
-191.2721001152968
 31
0.0
  0
SPLINE
  5
179
330
1F
100
AcDbEntity
  8
FISHER & PAYKEL
 62
   250
420
  1316376
370
     9
100
AcDbSpline
210
0.0
220
0.0
230
1.0
 70
     8
 71
     3
 72
     8
 73
     4
 74
     0
 42
0.000000001
 43
0.0000000001
 40
0.0120000000000005
 40
0.0120000000000005
 40
0.0120000000000005
 40
0.0120000000000005
 40
1.012
 40
1.012
 40
1.012
 40
1.012
 10
322.0844604554462
 20
-191.2721001152968
 30
0.0
 10
322.0844604554462
 20
-187.8254060003104
 30
0.0
 10
320.1194567481305
 20
-184.6080211150825
 30
0.0
 10
317.0184903949338
 20
-184.6080211150825
 30
0.0
  0
SPLINE
  5
17A
330
1F
100
AcDbEntity
  8
FISHER & PAYKEL
 62
   250
420
  1316376
370
     9
100
AcDbSpline
210
0.0
220
0.0
230
1.0
 70
     8
 71
     3
 72
     8
 73
     4
 74
     0
 42
0.000000001
 43
0.0000000001
 40
1.012
 40
1.012
 40
1.012
 40
1.012
 40
2.012
 40
2.012
 40
2.012
 40
2.012
 10
317.0184903949338
 20
-184.6080211150825
 30
0.0
 10
313.9245797103454
 20
-184.6080211150825
 30
0.0
 10
311.9983821803734
 20
-187.7830719886627
 30
0.0
 10
311.9983821803734
 20
-191.2297661036492
 30
0.0
  0
LINE
  5
17B
330
1F
100
AcDbEntity
  8
FISHER & PAYKEL
 62
   250
420
  1316376
370
     9
100
AcDbLine
 10
311.9983821803734
 20
-191.2297661036492
 30
0.0
 11
311.9983821803734
 21
-191.2721001152968
 31
0.0
  0
SPLINE
  5
17C
330
1F
100
AcDbEntity
  8
FISHER & PAYKEL
 62
   250
420
  1316376
370
     9
100
AcDbSpline
210
0.0
220
0.0
230
1.0
 70
     8
 71
     3
 72
     8
 73
     4
 74
     0
 42
0.000000001
 43
0.0000000001
 40
2.024000000000001
 40
2.024000000000001
 40
2.024000000000001
 40
2.024000000000001
 40
3.024000000000001
 40
3.024000000000001
 40
3.024000000000001
 40
3.024000000000001
 10
311.9983821803734
 20
-191.2721001152968
 30
0.0
 10
311.9983821803734
 20
-194.6976272244593
 30
0.0
 10
313.9633858876892
 20
-197.9361791155112
 30
0.0
 10
317.0643522408855
 20
-197.9361791155112
 30
0.0
  0
SPLINE
  5
17D
330
1F
100
AcDbEntity
  8
FISHER & PAYKEL
 62
   250
420
  1316376
370
     9
100
AcDbSpline
210
0.0
220
0.0
230
1.0
 70
     8
 71
     3
 72
     8
 73
     4
 74
     0
 42
0.000000001
 43
0.0000000001
 40
3.024000000000001
 40
3.024000000000001
 40
3.024000000000001
 40
3.024000000000001
 40
4.024000000000001
 40
4.024000000000001
 40
4.024000000000001
 40
4.024000000000001
 10
317.0643522408855
 20
-197.9361791155112
 30
0.0
 10
320.1617907597782
 20
-197.9361791155112
 30
0.0
 10
322.0844604554462
 20
-194.7434890704108
 30
0.0
 10
322.0844604554462
 20
-191.3144341269445
 30
0.0
  0
LINE
  5
17E
330
1F
100
AcDbEntity
  8
FISHER & PAYKEL
 62
   250
420
  1316376
370
     9
100
AcDbLine
 10
310.8412525286687
 20
-191.3144341269445
 30
0.0
 11
310.8412525286687
 21
-191.2721001152968
 31
0.0
  0
SPLINE
  5
17F
330
1F
100
AcDbEntity
  8
FISHER & PAYKEL
 62
   250
420
  1316376
370
     9
100
AcDbSpline
210
0.0
220
0.0
230
1.0
 70
     8
 71
     3
 72
     8
 73
     4
 74
     0
 42
0.000000001
 43
0.0000000001
 40
2.012
 40
2.012
 40
2.012
 40
2.012
 40
3.012
 40
3.012
 40
3.012
 40
3.012
 10
310.8412525286687
 20
-191.2721001152968
 30
0.0
 10
310.8412525286687
 20
-187.1903958255946
 30
0.0
 10
313.2578190268934
 20
-183.6131718413608
 30
0.0
 10
317.0643522408855
 20
-183.6131718413608
 30
0.0
  0
SPLINE
  5
180
330
1F
100
AcDbEntity
  8
FISHER & PAYKEL
 62
   250
420
  1316376
370
     9
100
AcDbSpline
210
0.0
220
0.0
230
1.0
 70
     8
 71
     3
 72
     8
 73
     4
 74
     0
 42
0.000000001
 43
0.0000000001
 40
3.012
 40
3.012
 40
3.012
 40
3.012
 40
4.012
 40
4.012
 40
4.012
 40
4.012
 10
317.0643522408855
 20
-183.6131718413608
 30
0.0
 10
320.8673576205738
 20
-183.6131718413608
 30
0.0
 10
323.2380622728469
 20
-187.1445339796426
 30
0.0
 10
323.2380622728469
 20
-191.2297661036492
 30
0.0
  0
LINE
  5
181
330
1F
100
AcDbEntity
  8
FISHER & PAYKEL
 62
   250
420
  1316376
370
     9
100
AcDbLine
 10
323.2380622728469
 20
-191.2297661036492
 30
0.0
 11
323.2380622728469
 21
-191.2721001152968
 31
0.0
  0
SPLINE
  5
182
330
1F
100
AcDbEntity
  8
FISHER & PAYKEL
 62
   250
420
  1316376
370
     9
100
AcDbSpline
210
0.0
220
0.0
230
1.0
 70
     8
 71
     3
 72
     8
 73
     4
 74
     0
 42
0.000000001
 43
0.0000000001
 40
4.024000000000001
 40
4.024000000000001
 40
4.024000000000001
 40
4.024000000000001
 40
5.024000000000001
 40
5.024000000000001
 40
5.024000000000001
 40
5.024000000000001
 10
323.2380622728469
 20
-191.2721001152968
 30
0.0
 10
323.2380622728469
 20
-195.3573322393032
 30
0.0
 10
320.825023608926
 20
-198.9310283892328
 30
0.0
 10
317.0184903949338
 20
-198.9310283892328
 30
0.0
  0
SPLINE
  5
183
330
1F
100
AcDbEntity
  8
FISHER & PAYKEL
 62
   250
420
  1316376
370
     9
100
AcDbSpline
210
0.0
220
0.0
230
1.0
 70
     8
 71
     3
 72
     8
 73
     4
 74
     0
 42
0.000000001
 43
0.0000000001
 40
5.024000000000001
 40
5.024000000000001
 40
5.024000000000001
 40
5.024000000000001
 40
6.024000000000001
 40
6.024000000000001
 40
6.024000000000001
 40
6.024000000000001
 10
317.0184903949338
 20
-198.9310283892328
 30
0.0
 10
313.2154850152457
 20
-198.9310283892328
 30
0.0
 10
310.8412525286687
 20
-195.3961384166469
 30
0.0
 10
310.8412525286687
 20
-191.3144341269445
 30
0.0
  0
LINE
  5
184
330
1F
100
AcDbEntity
  8
FISHER & PAYKEL
 62
   250
420
  1316376
370
     9
100
AcDbLine
 10
736.739401659824
 20
-191.3144341269445
 30
0.0
 11
736.739401659824
 21
-191.2721001152968
 31
0.0
  0
SPLINE
  5
185
330
1F
100
AcDbEntity
  8
FISHER & PAYKEL
 62
   250
420
  1316376
370
     9
100
AcDbSpline
210
0.0
220
0.0
230
1.0
 70
     8
 71
     3
 72
     8
 73
     4
 74
     0
 42
0.000000001
 43
0.0000000001
 40
0.0120000000000005
 40
0.0120000000000005
 40
0.0120000000000005
 40
0.0120000000000005
 40
1.012
 40
1.012
 40
1.012
 40
1.012
 10
736.739401659824
 20
-191.2721001152968
 30
0.0
 10
736.739401659824
 20
-187.8254060003104
 30
0.0
 10
734.7708701182045
 20
-184.6080211150825
 30
0.0
 10
731.673431599312
 20
-184.6080211150825
 30
0.0
  0
SPLINE
  5
186
330
1F
100
AcDbEntity
  8
FISHER & PAYKEL
 62
   250
420
  1316376
370
     9
100
AcDbSpline
210
0.0
220
0.0
230
1.0
 70
     8
 71
     3
 72
     8
 73
     4
 74
     0
 42
0.000000001
 43
0.0000000001
 40
1.012
 40
1.012
 40
1.012
 40
1.012
 40
2.012
 40
2.012
 40
2.012
 40
2.012
 10
731.673431599312
 20
-184.6080211150825
 30
0.0
 10
728.5759930804194
 20
-184.6080211150825
 30
0.0
 10
726.6533233847516
 20
-187.7830719886627
 30
0.0
 10
726.6533233847516
 20
-191.2297661036492
 30
0.0
  0
LINE
  5
187
330
1F
100
AcDbEntity
  8
FISHER & PAYKEL
 62
   250
420
  1316376
370
     9
100
AcDbLine
 10
726.6533233847516
 20
-191.2297661036492
 30
0.0
 11
726.6533233847516
 21
-191.2721001152968
 31
0.0
  0
SPLINE
  5
188
330
1F
100
AcDbEntity
  8
FISHER & PAYKEL
 62
   250
420
  1316376
370
     9
100
AcDbSpline
210
0.0
220
0.0
230
1.0
 70
     8
 71
     3
 72
     8
 73
     4
 74
     0
 42
0.000000001
 43
0.0000000001
 40
2.024000000000001
 40
2.024000000000001
 40
2.024000000000001
 40
2.024000000000001
 40
3.024000000000001
 40
3.024000000000001
 40
3.024000000000001
 40
3.024000000000001
 10
726.6533233847516
 20
-191.2721001152968
 30
0.0
 10
726.6533233847516
 20
-194.6976272244593
 30
0.0
 10
728.618327092067
 20
-197.9361791155112
 30
0.0
 10
731.7157656109599
 20
-197.9361791155112
 30
0.0
  0
SPLINE
  5
189
330
1F
100
AcDbEntity
  8
FISHER & PAYKEL
 62
   250
420
  1316376
370
     9
100
AcDbSpline
210
0.0
220
0.0
230
1.0
 70
     8
 71
     3
 72
     8
 73
     4
 74
     0
 42
0.000000001
 43
0.0000000001
 40
3.024000000000001
 40
3.024000000000001
 40
3.024000000000001
 40
3.024000000000001
 40
4.024000000000001
 40
4.024000000000001
 40
4.024000000000001
 40
4.024000000000001
 10
731.7157656109599
 20
-197.9361791155112
 30
0.0
 10
734.8167319641562
 20
-197.9361791155112
 30
0.0
 10
736.739401659824
 20
-194.7434890704108
 30
0.0
 10
736.739401659824
 20
-191.3144341269445
 30
0.0
  0
LINE
  5
18A
330
1F
100
AcDbEntity
  8
FISHER & PAYKEL
 62
   250
420
  1316376
370
     9
100
AcDbLine
 10
725.4961937330467
 20
-191.3144341269445
 30
0.0
 11
725.4961937330467
 21
-191.2721001152968
 31
0.0
  0
SPLINE
  5
18B
330
1F
100
AcDbEntity
  8
FISHER & PAYKEL
 62
   250
420
  1316376
370
     9
100
AcDbSpline
210
0.0
220
0.0
230
1.0
 70
     8
 71
     3
 72
     8
 73
     4
 74
     0
 42
0.000000001
 43
0.0000000001
 40
2.012
 40
2.012
 40
2.012
 40
2.012
 40
3.012
 40
3.012
 40
3.012
 40
3.012
 10
725.4961937330467
 20
-191.2721001152968
 30
0.0
 10
725.4961937330467
 20
-187.1903958255946
 30
0.0
 10
727.9127602312716
 20
-183.6131718413608
 30
0.0
 10
731.7157656109599
 20
-183.6131718413608
 30
0.0
  0
SPLINE
  5
18C
330
1F
100
AcDbEntity
  8
FISHER & PAYKEL
 62
   250
420
  1316376
370
     9
100
AcDbSpline
210
0.0
220
0.0
230
1.0
 70
     8
 71
     3
 72
     8
 73
     4
 74
     0
 42
0.000000001
 43
0.0000000001
 40
3.012
 40
3.012
 40
3.012
 40
3.012
 40
4.012
 40
4.012
 40
4.012
 40
4.012
 10
731.7157656109599
 20
-183.6131718413608
 30
0.0
 10
735.5187709906478
 20
-183.6131718413608
 30
0.0
 10
737.8930034772249
 20
-187.1445339796426
 30
0.0
 10
737.8930034772249
 20
-191.2297661036492
 30
0.0
  0
LINE
  5
18D
330
1F
100
AcDbEntity
  8
FISHER & PAYKEL
 62
   250
420
  1316376
370
     9
100
AcDbLine
 10
737.8930034772249
 20
-191.2297661036492
 30
0.0
 11
737.8930034772249
 21
-191.2721001152968
 31
0.0
  0
SPLINE
  5
18E
330
1F
100
AcDbEntity
  8
FISHER & PAYKEL
 62
   250
420
  1316376
370
     9
100
AcDbSpline
210
0.0
220
0.0
230
1.0
 70
     8
 71
     3
 72
     8
 73
     4
 74
     0
 42
0.000000001
 43
0.0000000001
 40
4.024000000000001
 40
4.024000000000001
 40
4.024000000000001
 40
4.024000000000001
 40
5.024000000000001
 40
5.024000000000001
 40
5.024000000000001
 40
5.024000000000001
 10
737.8930034772249
 20
-191.2721001152968
 30
0.0
 10
737.8930034772249
 20
-195.3573322393032
 30
0.0
 10
735.479964813304
 20
-198.9310283892328
 30
0.0
 10
731.673431599312
 20
-198.9310283892328
 30
0.0
  0
SPLINE
  5
18F
330
1F
100
AcDbEntity
  8
FISHER & PAYKEL
 62
   250
420
  1316376
370
     9
100
AcDbSpline
210
0.0
220
0.0
230
1.0
 70
     8
 71
     3
 72
     8
 73
     4
 74
     0
 42
0.000000001
 43
0.0000000001
 40
5.024000000000001
 40
5.024000000000001
 40
5.024000000000001
 40
5.024000000000001
 40
6.024000000000001
 40
6.024000000000001
 40
6.024000000000001
 40
6.024000000000001
 10
731.673431599312
 20
-198.9310283892328
 30
0.0
 10
727.8668983853198
 20
-198.9310283892328
 30
0.0
 10
725.4961937330467
 20
-195.3961384166469
 30
0.0
 10
725.4961937330467
 20
-191.3144341269445
 30
0.0
  0
LINE
  5
190
330
1F
100
AcDbEntity
  8
FISHER & PAYKEL
 62
   250
420
  1316376
370
     9
100
AcDbLine
 10
721.6014646614552
 20
-191.3144341269445
 30
0.0
 11
721.6014646614552
 21
-191.2721001152968
 31
0.0
  0
SPLINE
  5
191
330
1F
100
AcDbEntity
  8
FISHER & PAYKEL
 62
   250
420
  1316376
370
     9
100
AcDbSpline
210
0.0
220
0.0
230
1.0
 70
     8
 71
     3
 72
     8
 73
     4
 74
     0
 42
0.000000001
 43
0.0000000001
 40
0.0120000000000005
 40
0.0120000000000005
 40
0.0120000000000005
 40
0.0120000000000005
 40
1.012
 40
1.012
 40
1.012
 40
1.012
 10
721.6014646614552
 20
-191.2721001152968
 30
0.0
 10
721.6014646614552
 20
-187.8254060003104
 30
0.0
 10
719.6329331198357
 20
-184.6080211150825
 30
0.0
 10
716.5354946009433
 20
-184.6080211150825
 30
0.0
  0
SPLINE
  5
192
330
1F
100
AcDbEntity
  8
FISHER & PAYKEL
 62
   250
420
  1316376
370
     9
100
AcDbSpline
210
0.0
220
0.0
230
1.0
 70
     8
 71
     3
 72
     8
 73
     4
 74
     0
 42
0.000000001
 43
0.0000000001
 40
1.012
 40
1.012
 40
1.012
 40
1.012
 40
2.012
 40
2.012
 40
2.012
 40
2.012
 10
716.5354946009433
 20
-184.6080211150825
 30
0.0
 10
713.4380560820504
 20
-184.6080211150825
 30
0.0
 10
711.5153863863826
 20
-187.7830719886627
 30
0.0
 10
711.5153863863826
 20
-191.2297661036492
 30
0.0
  0
LINE
  5
193
330
1F
100
AcDbEntity
  8
FISHER & PAYKEL
 62
   250
420
  1316376
370
     9
100
AcDbLine
 10
711.5153863863826
 20
-191.2297661036492
 30
0.0
 11
711.5153863863826
 21
-191.2721001152968
 31
0.0
  0
SPLINE
  5
194
330
1F
100
AcDbEntity
  8
FISHER & PAYKEL
 62
   250
420
  1316376
370
     9
100
AcDbSpline
210
0.0
220
0.0
230
1.0
 70
     8
 71
     3
 72
     8
 73
     4
 74
     0
 42
0.000000001
 43
0.0000000001
 40
2.024000000000001
 40
2.024000000000001
 40
2.024000000000001
 40
2.024000000000001
 40
3.024000000000001
 40
3.024000000000001
 40
3.024000000000001
 40
3.024000000000001
 10
711.5153863863826
 20
-191.2721001152968
 30
0.0
 10
711.5153863863826
 20
-194.6976272244593
 30
0.0
 10
713.4803900936982
 20
-197.9361791155112
 30
0.0
 10
716.5778286125909
 20
-197.9361791155112
 30
0.0
  0
SPLINE
  5
195
330
1F
100
AcDbEntity
  8
FISHER & PAYKEL
 62
   250
420
  1316376
370
     9
100
AcDbSpline
210
0.0
220
0.0
230
1.0
 70
     8
 71
     3
 72
     8
 73
     4
 74
     0
 42
0.000000001
 43
0.0000000001
 40
3.024000000000001
 40
3.024000000000001
 40
3.024000000000001
 40
3.024000000000001
 40
4.024000000000001
 40
4.024000000000001
 40
4.024000000000001
 40
4.024000000000001
 10
716.5778286125909
 20
-197.9361791155112
 30
0.0
 10
719.6787949657872
 20
-197.9361791155112
 30
0.0
 10
721.6014646614552
 20
-194.7434890704108
 30
0.0
 10
721.6014646614552
 20
-191.3144341269445
 30
0.0
  0
LINE
  5
196
330
1F
100
AcDbEntity
  8
FISHER & PAYKEL
 62
   250
420
  1316376
370
     9
100
AcDbLine
 10
710.3582567346779
 20
-191.3144341269445
 30
0.0
 11
710.3582567346779
 21
-191.2721001152968
 31
0.0
  0
SPLINE
  5
197
330
1F
100
AcDbEntity
  8
FISHER & PAYKEL
 62
   250
420
  1316376
370
     9
100
AcDbSpline
210
0.0
220
0.0
230
1.0
 70
     8
 71
     3
 72
     8
 73
     4
 74
     0
 42
0.000000001
 43
0.0000000001
 40
2.012
 40
2.012
 40
2.012
 40
2.012
 40
3.012
 40
3.012
 40
3.012
 40
3.012
 10
710.3582567346779
 20
-191.2721001152968
 30
0.0
 10
710.3582567346779
 20
-187.1903958255946
 30
0.0
 10
712.7748232329026
 20
-183.6131718413608
 30
0.0
 10
716.5778286125909
 20
-183.6131718413608
 30
0.0
  0
SPLINE
  5
198
330
1F
100
AcDbEntity
  8
FISHER & PAYKEL
 62
   250
420
  1316376
370
     9
100
AcDbSpline
210
0.0
220
0.0
230
1.0
 70
     8
 71
     3
 72
     8
 73
     4
 74
     0
 42
0.000000001
 43
0.0000000001
 40
3.012
 40
3.012
 40
3.012
 40
3.012
 40
4.012
 40
4.012
 40
4.012
 40
4.012
 10
716.5778286125909
 20
-183.6131718413608
 30
0.0
 10
720.3808339922788
 20
-183.6131718413608
 30
0.0
 10
722.7550664788561
 20
-187.1445339796426
 30
0.0
 10
722.7550664788561
 20
-191.2297661036492
 30
0.0
  0
LINE
  5
199
330
1F
100
AcDbEntity
  8
FISHER & PAYKEL
 62
   250
420
  1316376
370
     9
100
AcDbLine
 10
722.7550664788561
 20
-191.2297661036492
 30
0.0
 11
722.7550664788561
 21
-191.2721001152968
 31
0.0
  0
SPLINE
  5
19A
330
1F
100
AcDbEntity
  8
FISHER & PAYKEL
 62
   250
420
  1316376
370
     9
100
AcDbSpline
210
0.0
220
0.0
230
1.0
 70
     8
 71
     3
 72
     8
 73
     4
 74
     0
 42
0.000000001
 43
0.0000000001
 40
4.024000000000001
 40
4.024000000000001
 40
4.024000000000001
 40
4.024000000000001
 40
5.024000000000001
 40
5.024000000000001
 40
5.024000000000001
 40
5.024000000000001
 10
722.7550664788561
 20
-191.2721001152968
 30
0.0
 10
722.7550664788561
 20
-195.3573322393032
 30
0.0
 10
720.342027814935
 20
-198.9310283892328
 30
0.0
 10
716.5354946009433
 20
-198.9310283892328
 30
0.0
  0
SPLINE
  5
19B
330
1F
100
AcDbEntity
  8
FISHER & PAYKEL
 62
   250
420
  1316376
370
     9
100
AcDbSpline
210
0.0
220
0.0
230
1.0
 70
     8
 71
     3
 72
     8
 73
     4
 74
     0
 42
0.000000001
 43
0.0000000001
 40
5.024000000000001
 40
5.024000000000001
 40
5.024000000000001
 40
5.024000000000001
 40
6.024000000000001
 40
6.024000000000001
 40
6.024000000000001
 40
6.024000000000001
 10
716.5354946009433
 20
-198.9310283892328
 30
0.0
 10
712.728961386951
 20
-198.9310283892328
 30
0.0
 10
710.3582567346779
 20
-195.3961384166469
 30
0.0
 10
710.3582567346779
 20
-191.3144341269445
 30
0.0
  0
POLYLINE
  5
19C
330
1F
100
AcDbEntity
  8
FISHER & PAYKEL
 62
   250
420
  1316376
370
     9
100
AcDb2dPolyline
 66
     1
 10
0.0
 20
0.0
 30
0.0
 70
     1
  0
VERTEX
  5
19D
330
19C
100
AcDbEntity
  8
FISHER & PAYKEL
 62
   250
420
  1316376
370
     9
100
AcDbVertex
100
AcDb2dVertex
 10
704.3274239920278
 20
-194.1067149785429
 30
0.0
  0
VERTEX
  5
19E
330
19C
100
AcDbEntity
  8
FISHER & PAYKEL
 62
   250
420
  1316376
370
     9
100
AcDbVertex
100
AcDb2dVertex
 10
704.3274239920278
 20
-185.3506302360698
 30
0.0
  0
VERTEX
  5
19F
330
19C
100
AcDbEntity
  8
FISHER & PAYKEL
 62
   250
420
  1316376
370
     9
100
AcDbVertex
100
AcDb2dVertex
 10
697.1906151950806
 20
-194.1067149785429
 30
0.0
  0
SEQEND
  5
1A0
330
19C
100
AcDbEntity
  8
FISHER & PAYKEL
 62
   250
420
  1316376
370
     9
  0
POLYLINE
  5
1A1
330
1F
100
AcDbEntity
  8
FISHER & PAYKEL
 62
   250
420
  1316376
370
     9
100
AcDb2dPolyline
 66
     1
 10
0.0
 20
0.0
 30
0.0
 70
     1
  0
VERTEX
  5
1A2
330
1A1
100
AcDbEntity
  8
FISHER & PAYKEL
 62
   250
420
  1316376
370
     9
100
AcDbVertex
100
AcDb2dVertex
 10
704.3274239920278
 20
-195.0592302406167
 30
0.0
  0
VERTEX
  5
1A3
330
1A1
100
AcDbEntity
  8
FISHER & PAYKEL
 62
   250
420
  1316376
370
     9
100
AcDbVertex
100
AcDb2dVertex
 10
696.2275164300946
 20
-195.0592302406167
 30
0.0
  0
VERTEX
  5
1A4
330
1A1
100
AcDbEntity
  8
FISHER & PAYKEL
 62
   250
420
  1316376
370
     9
100
AcDbVertex
100
AcDb2dVertex
 10
695.8429824909612
 20
-194.2337170134859
 30
0.0
  0
VERTEX
  5
1A5
330
1A1
100
AcDbEntity
  8
FISHER & PAYKEL
 62
   250
420
  1316376
370
     9
100
AcDbVertex
100
AcDb2dVertex
 10
704.3909250094993
 20
-183.7631047992796
 30
0.0
  0
VERTEX
  5
1A6
330
1A1
100
AcDbEntity
  8
FISHER & PAYKEL
 62
   250
420
  1316376
370
     9
100
AcDbVertex
100
AcDb2dVertex
 10
705.3963577861331
 20
-183.7631047992796
 30
0.0
  0
VERTEX
  5
1A7
330
1A1
100
AcDbEntity
  8
FISHER & PAYKEL
 62
   250
420
  1316376
370
     9
100
AcDbVertex
100
AcDb2dVertex
 10
705.3963577861331
 20
-194.1067149785429
 30
0.0
  0
VERTEX
  5
1A8
330
1A1
100
AcDbEntity
  8
FISHER & PAYKEL
 62
   250
420
  1316376
370
     9
100
AcDbVertex
100
AcDb2dVertex
 10
707.8305634558777
 20
-194.1067149785429
 30
0.0
  0
VERTEX
  5
1A9
330
1A1
100
AcDbEntity
  8
FISHER & PAYKEL
 62
   250
420
  1316376
370
     9
100
AcDbVertex
100
AcDb2dVertex
 10
707.8305634558777
 20
-195.0592302406167
 30
0.0
  0
VERTEX
  5
1AA
330
1A1
100
AcDbEntity
  8
FISHER & PAYKEL
 62
   250
420
  1316376
370
     9
100
AcDbVertex
100
AcDb2dVertex
 10
705.3963577861331
 20
-195.0592302406167
 30
0.0
  0
VERTEX
  5
1AB
330
1A1
100
AcDbEntity
  8
FISHER & PAYKEL
 62
   250
420
  1316376
370
     9
100
AcDbVertex
100
AcDb2dVertex
 10
705.3963577861331
 20
-198.6752604021941
 30
0.0
  0
VERTEX
  5
1AC
330
1A1
100
AcDbEntity
  8
FISHER & PAYKEL
 62
   250
420
  1316376
370
     9
100
AcDbVertex
100
AcDb2dVertex
 10
704.3274239920278
 20
-198.6752604021941
 30
0.0
  0
SEQEND
  5
1AD
330
1A1
100
AcDbEntity
  8
FISHER & PAYKEL
 62
   250
420
  1316376
370
     9
  0
LINE
  5
1AE
330
1F
100
AcDbEntity
  8
FISHER & PAYKEL
 62
   250
420
  1316376
370
     9
100
AcDbLine
 10
535.9456565803173
 20
-191.3144341269445
 30
0.0
 11
535.9456565803173
 21
-191.2721001152968
 31
0.0
  0
SPLINE
  5
1AF
330
1F
100
AcDbEntity
  8
FISHER & PAYKEL
 62
   250
420
  1316376
370
     9
100
AcDbSpline
210
0.0
220
0.0
230
1.0
 70
     8
 71
     3
 72
     8
 73
     4
 74
     0
 42
0.000000001
 43
0.0000000001
 40
0.0120000000000005
 40
0.0120000000000005
 40
0.0120000000000005
 40
0.0120000000000005
 40
1.012
 40
1.012
 40
1.012
 40
1.012
 10
535.9456565803173
 20
-191.2721001152968
 30
0.0
 10
535.9456565803173
 20
-187.8254060003104
 30
0.0
 10
533.9806528730016
 20
-184.6080211150825
 30
0.0
 10
530.8796865198051
 20
-184.6080211150825
 30
0.0
  0
SPLINE
  5
1B0
330
1F
100
AcDbEntity
  8
FISHER & PAYKEL
 62
   250
420
  1316376
370
     9
100
AcDbSpline
210
0.0
220
0.0
230
1.0
 70
     8
 71
     3
 72
     8
 73
     4
 74
     0
 42
0.000000001
 43
0.0000000001
 40
1.012
 40
1.012
 40
1.012
 40
1.012
 40
2.012
 40
2.012
 40
2.012
 40
2.012
 10
530.8796865198051
 20
-184.6080211150825
 30
0.0
 10
527.7857758352166
 20
-184.6080211150825
 30
0.0
 10
525.8595783052447
 20
-187.7830719886627
 30
0.0
 10
525.8595783052447
 20
-191.2297661036492
 30
0.0
  0
LINE
  5
1B1
330
1F
100
AcDbEntity
  8
FISHER & PAYKEL
 62
   250
420
  1316376
370
     9
100
AcDbLine
 10
525.8595783052447
 20
-191.2297661036492
 30
0.0
 11
525.8595783052447
 21
-191.2721001152968
 31
0.0
  0
SPLINE
  5
1B2
330
1F
100
AcDbEntity
  8
FISHER & PAYKEL
 62
   250
420
  1316376
370
     9
100
AcDbSpline
210
0.0
220
0.0
230
1.0
 70
     8
 71
     3
 72
     8
 73
     4
 74
     0
 42
0.000000001
 43
0.0000000001
 40
2.024000000000001
 40
2.024000000000001
 40
2.024000000000001
 40
2.024000000000001
 40
3.024000000000001
 40
3.024000000000001
 40
3.024000000000001
 40
3.024000000000001
 10
525.8595783052447
 20
-191.2721001152968
 30
0.0
 10
525.8595783052447
 20
-194.6976272244593
 30
0.0
 10
527.8245820125603
 20
-197.9361791155112
 30
0.0
 10
530.9255483657569
 20
-197.9361791155112
 30
0.0
  0
SPLINE
  5
1B3
330
1F
100
AcDbEntity
  8
FISHER & PAYKEL
 62
   250
420
  1316376
370
     9
100
AcDbSpline
210
0.0
220
0.0
230
1.0
 70
     8
 71
     3
 72
     8
 73
     4
 74
     0
 42
0.000000001
 43
0.0000000001
 40
3.024000000000001
 40
3.024000000000001
 40
3.024000000000001
 40
3.024000000000001
 40
4.024000000000001
 40
4.024000000000001
 40
4.024000000000001
 40
4.024000000000001
 10
530.9255483657569
 20
-197.9361791155112
 30
0.0
 10
534.0229868846493
 20
-197.9361791155112
 30
0.0
 10
535.9456565803173
 20
-194.7434890704108
 30
0.0
 10
535.9456565803173
 20
-191.3144341269445
 30
0.0
  0
LINE
  5
1B4
330
1F
100
AcDbEntity
  8
FISHER & PAYKEL
 62
   250
420
  1316376
370
     9
100
AcDbLine
 10
524.7024486535399
 20
-191.3144341269445
 30
0.0
 11
524.7024486535399
 21
-191.2721001152968
 31
0.0
  0
SPLINE
  5
1B5
330
1F
100
AcDbEntity
  8
FISHER & PAYKEL
 62
   250
420
  1316376
370
     9
100
AcDbSpline
210
0.0
220
0.0
230
1.0
 70
     8
 71
     3
 72
     8
 73
     4
 74
     0
 42
0.000000001
 43
0.0000000001
 40
2.012
 40
2.012
 40
2.012
 40
2.012
 40
3.012
 40
3.012
 40
3.012
 40
3.012
 10
524.7024486535399
 20
-191.2721001152968
 30
0.0
 10
524.7024486535399
 20
-187.1903958255946
 30
0.0
 10
527.1190151517646
 20
-183.6131718413608
 30
0.0
 10
530.9255483657569
 20
-183.6131718413608
 30
0.0
  0
SPLINE
  5
1B6
330
1F
100
AcDbEntity
  8
FISHER & PAYKEL
 62
   250
420
  1316376
370
     9
100
AcDbSpline
210
0.0
220
0.0
230
1.0
 70
     8
 71
     3
 72
     8
 73
     4
 74
     0
 42
0.000000001
 43
0.0000000001
 40
3.012
 40
3.012
 40
3.012
 40
3.012
 40
4.012
 40
4.012
 40
4.012
 40
4.012
 10
530.9255483657569
 20
-183.6131718413608
 30
0.0
 10
534.728553745445
 20
-183.6131718413608
 30
0.0
 10
537.0992583977181
 20
-187.1445339796426
 30
0.0
 10
537.0992583977181
 20
-191.2297661036492
 30
0.0
  0
LINE
  5
1B7
330
1F
100
AcDbEntity
  8
FISHER & PAYKEL
 62
   250
420
  1316376
370
     9
100
AcDbLine
 10
537.0992583977181
 20
-191.2297661036492
 30
0.0
 11
537.0992583977181
 21
-191.2721001152968
 31
0.0
  0
SPLINE
  5
1B8
330
1F
100
AcDbEntity
  8
FISHER & PAYKEL
 62
   250
420
  1316376
370
     9
100
AcDbSpline
210
0.0
220
0.0
230
1.0
 70
     8
 71
     3
 72
     8
 73
     4
 74
     0
 42
0.000000001
 43
0.0000000001
 40
4.024000000000001
 40
4.024000000000001
 40
4.024000000000001
 40
4.024000000000001
 40
5.024000000000001
 40
5.024000000000001
 40
5.024000000000001
 40
5.024000000000001
 10
537.0992583977181
 20
-191.2721001152968
 30
0.0
 10
537.0992583977181
 20
-195.3573322393032
 30
0.0
 10
534.6862197337971
 20
-198.9310283892328
 30
0.0
 10
530.8796865198051
 20
-198.9310283892328
 30
0.0
  0
SPLINE
  5
1B9
330
1F
100
AcDbEntity
  8
FISHER & PAYKEL
 62
   250
420
  1316376
370
     9
100
AcDbSpline
210
0.0
220
0.0
230
1.0
 70
     8
 71
     3
 72
     8
 73
     4
 74
     0
 42
0.000000001
 43
0.0000000001
 40
5.024000000000001
 40
5.024000000000001
 40
5.024000000000001
 40
5.024000000000001
 40
6.024000000000001
 40
6.024000000000001
 40
6.024000000000001
 40
6.024000000000001
 10
530.8796865198051
 20
-198.9310283892328
 30
0.0
 10
527.076681140117
 20
-198.9310283892328
 30
0.0
 10
524.7024486535399
 20
-195.3961384166469
 30
0.0
 10
524.7024486535399
 20
-191.3144341269445
 30
0.0
  0
LINE
  5
1BA
330
1F
100
AcDbEntity
  8
FISHER & PAYKEL
 62
   250
420
  1316376
370
     9
100
AcDbLine
 10
520.8077195819483
 20
-191.3144341269445
 30
0.0
 11
520.8077195819483
 21
-191.2721001152968
 31
0.0
  0
SPLINE
  5
1BB
330
1F
100
AcDbEntity
  8
FISHER & PAYKEL
 62
   250
420
  1316376
370
     9
100
AcDbSpline
210
0.0
220
0.0
230
1.0
 70
     8
 71
     3
 72
     8
 73
     4
 74
     0
 42
0.000000001
 43
0.0000000001
 40
0.0120000000000005
 40
0.0120000000000005
 40
0.0120000000000005
 40
0.0120000000000005
 40
1.012
 40
1.012
 40
1.012
 40
1.012
 10
520.8077195819483
 20
-191.2721001152968
 30
0.0
 10
520.8077195819483
 20
-187.8254060003104
 30
0.0
 10
518.8427158746326
 20
-184.6080211150825
 30
0.0
 10
515.7417495214363
 20
-184.6080211150825
 30
0.0
  0
SPLINE
  5
1BC
330
1F
100
AcDbEntity
  8
FISHER & PAYKEL
 62
   250
420
  1316376
370
     9
100
AcDbSpline
210
0.0
220
0.0
230
1.0
 70
     8
 71
     3
 72
     8
 73
     4
 74
     0
 42
0.000000001
 43
0.0000000001
 40
1.012
 40
1.012
 40
1.012
 40
1.012
 40
2.012
 40
2.012
 40
2.012
 40
2.012
 10
515.7417495214363
 20
-184.6080211150825
 30
0.0
 10
512.6478388368478
 20
-184.6080211150825
 30
0.0
 10
510.7216413068758
 20
-187.7830719886627
 30
0.0
 10
510.7216413068758
 20
-191.2297661036492
 30
0.0
  0
LINE
  5
1BD
330
1F
100
AcDbEntity
  8
FISHER & PAYKEL
 62
   250
420
  1316376
370
     9
100
AcDbLine
 10
510.7216413068758
 20
-191.2297661036492
 30
0.0
 11
510.7216413068758
 21
-191.2721001152968
 31
0.0
  0
SPLINE
  5
1BE
330
1F
100
AcDbEntity
  8
FISHER & PAYKEL
 62
   250
420
  1316376
370
     9
100
AcDbSpline
210
0.0
220
0.0
230
1.0
 70
     8
 71
     3
 72
     8
 73
     4
 74
     0
 42
0.000000001
 43
0.0000000001
 40
2.024000000000001
 40
2.024000000000001
 40
2.024000000000001
 40
2.024000000000001
 40
3.024000000000001
 40
3.024000000000001
 40
3.024000000000001
 40
3.024000000000001
 10
510.7216413068758
 20
-191.2721001152968
 30
0.0
 10
510.7216413068758
 20
-194.6976272244593
 30
0.0
 10
512.6866450141913
 20
-197.9361791155112
 30
0.0
 10
515.7876113673879
 20
-197.9361791155112
 30
0.0
  0
SPLINE
  5
1BF
330
1F
100
AcDbEntity
  8
FISHER & PAYKEL
 62
   250
420
  1316376
370
     9
100
AcDbSpline
210
0.0
220
0.0
230
1.0
 70
     8
 71
     3
 72
     8
 73
     4
 74
     0
 42
0.000000001
 43
0.0000000001
 40
3.024000000000001
 40
3.024000000000001
 40
3.024000000000001
 40
3.024000000000001
 40
4.024000000000001
 40
4.024000000000001
 40
4.024000000000001
 40
4.024000000000001
 10
515.7876113673879
 20
-197.9361791155112
 30
0.0
 10
518.8850498862805
 20
-197.9361791155112
 30
0.0
 10
520.8077195819483
 20
-194.7434890704108
 30
0.0
 10
520.8077195819483
 20
-191.3144341269445
 30
0.0
  0
LINE
  5
1C0
330
1F
100
AcDbEntity
  8
FISHER & PAYKEL
 62
   250
420
  1316376
370
     9
100
AcDbLine
 10
509.5645116551711
 20
-191.3144341269445
 30
0.0
 11
509.5645116551711
 21
-191.2721001152968
 31
0.0
  0
SPLINE
  5
1C1
330
1F
100
AcDbEntity
  8
FISHER & PAYKEL
 62
   250
420
  1316376
370
     9
100
AcDbSpline
210
0.0
220
0.0
230
1.0
 70
     8
 71
     3
 72
     8
 73
     4
 74
     0
 42
0.000000001
 43
0.0000000001
 40
2.012
 40
2.012
 40
2.012
 40
2.012
 40
3.012
 40
3.012
 40
3.012
 40
3.012
 10
509.5645116551711
 20
-191.2721001152968
 30
0.0
 10
509.5645116551711
 20
-187.1903958255946
 30
0.0
 10
511.9810781533958
 20
-183.6131718413608
 30
0.0
 10
515.7876113673879
 20
-183.6131718413608
 30
0.0
  0
SPLINE
  5
1C2
330
1F
100
AcDbEntity
  8
FISHER & PAYKEL
 62
   250
420
  1316376
370
     9
100
AcDbSpline
210
0.0
220
0.0
230
1.0
 70
     8
 71
     3
 72
     8
 73
     4
 74
     0
 42
0.000000001
 43
0.0000000001
 40
3.012
 40
3.012
 40
3.012
 40
3.012
 40
4.012
 40
4.012
 40
4.012
 40
4.012
 10
515.7876113673879
 20
-183.6131718413608
 30
0.0
 10
519.590616747076
 20
-183.6131718413608
 30
0.0
 10
521.9613213993491
 20
-187.1445339796426
 30
0.0
 10
521.9613213993491
 20
-191.2297661036492
 30
0.0
  0
LINE
  5
1C3
330
1F
100
AcDbEntity
  8
FISHER & PAYKEL
 62
   250
420
  1316376
370
     9
100
AcDbLine
 10
521.9613213993491
 20
-191.2297661036492
 30
0.0
 11
521.9613213993491
 21
-191.2721001152968
 31
0.0
  0
SPLINE
  5
1C4
330
1F
100
AcDbEntity
  8
FISHER & PAYKEL
 62
   250
420
  1316376
370
     9
100
AcDbSpline
210
0.0
220
0.0
230
1.0
 70
     8
 71
     3
 72
     8
 73
     4
 74
     0
 42
0.000000001
 43
0.0000000001
 40
4.024000000000001
 40
4.024000000000001
 40
4.024000000000001
 40
4.024000000000001
 40
5.024000000000001
 40
5.024000000000001
 40
5.024000000000001
 40
5.024000000000001
 10
521.9613213993491
 20
-191.2721001152968
 30
0.0
 10
521.9613213993491
 20
-195.3573322393032
 30
0.0
 10
519.5482827354281
 20
-198.9310283892328
 30
0.0
 10
515.7417495214363
 20
-198.9310283892328
 30
0.0
  0
SPLINE
  5
1C5
330
1F
100
AcDbEntity
  8
FISHER & PAYKEL
 62
   250
420
  1316376
370
     9
100
AcDbSpline
210
0.0
220
0.0
230
1.0
 70
     8
 71
     3
 72
     8
 73
     4
 74
     0
 42
0.000000001
 43
0.0000000001
 40
5.024000000000001
 40
5.024000000000001
 40
5.024000000000001
 40
5.024000000000001
 40
6.024000000000001
 40
6.024000000000001
 40
6.024000000000001
 40
6.024000000000001
 10
515.7417495214363
 20
-198.9310283892328
 30
0.0
 10
511.9387441417481
 20
-198.9310283892328
 30
0.0
 10
509.5645116551711
 20
-195.3961384166469
 30
0.0
 10
509.5645116551711
 20
-191.3144341269445
 30
0.0
  0
LINE
  5
1C6
330
1F
100
AcDbEntity
  8
FISHER & PAYKEL
 62
   250
420
  1316376
370
     9
100
AcDbLine
 10
496.6297071796365
 20
-197.8515110922152
 30
0.0
 11
502.2072132142254
 21
-192.8560977177827
 31
0.0
  0
SPLINE
  5
1C7
330
1F
100
AcDbEntity
  8
FISHER & PAYKEL
 62
   250
420
  1316376
370
     9
100
AcDbSpline
210
0.0
220
0.0
230
1.0
 70
     8
 71
     3
 72
     8
 73
     4
 74
     0
 42
0.000000001
 43
0.0000000001
 40
2.122408301906088
 40
2.122408301906088
 40
2.122408301906088
 40
2.122408301906088
 40
3.122408301906088
 40
3.122408301906088
 40
3.122408301906088
 40
3.122408301906088
 10
502.2072132142254
 20
-192.8560977177827
 30
0.0
 10
504.6625858897938
 20
-190.6370899405807
 30
0.0
 10
505.5198496256604
 20
-189.367069591149
 30
0.0
 10
505.5198496256604
 20
-187.8042389944865
 30
0.0
  0
SPLINE
  5
1C8
330
1F
100
AcDbEntity
  8
FISHER & PAYKEL
 62
   250
420
  1316376
370
     9
100
AcDbSpline
210
0.0
220
0.0
230
1.0
 70
     8
 71
     3
 72
     8
 73
     4
 74
     0
 42
0.000000001
 43
0.0000000001
 40
3.122408301906088
 40
3.122408301906088
 40
3.122408301906088
 40
3.122408301906088
 40
4.122408301906088
 40
4.122408301906088
 40
4.122408301906088
 40
4.122408301906088
 10
505.5198496256604
 20
-187.8042389944865
 30
0.0
 10
505.5198496256604
 20
-185.8780414645146
 30
0.0
 10
503.9358520231745
 20
-184.6291881209066
 30
0.0
 10
502.1401843624497
 20
-184.6291881209066
 30
0.0
  0
SPLINE
  5
1C9
330
1F
100
AcDbEntity
  8
FISHER & PAYKEL
 62
   250
420
  1316376
370
     9
100
AcDbSpline
210
0.0
220
0.0
230
1.0
 70
     8
 71
     3
 72
     8
 73
     4
 74
     0
 42
0.000000001
 43
0.0000000001
 40
4.122408301906088
 40
4.122408301906088
 40
4.122408301906088
 40
4.122408301906088
 40
5.122408301906088
 40
5.122408301906088
 40
5.122408301906088
 40
5.122408301906088
 10
502.1401843624497
 20
-184.6291881209066
 30
0.0
 10
500.2386816726057
 20
-184.6291881209066
 30
0.0
 10
499.0039396662133
 20
-185.6028703888047
 30
0.0
 10
497.7621419912134
 20
-187.3808988780091
 30
0.0
  0
LINE
  5
1CA
330
1F
100
AcDbEntity
  8
FISHER & PAYKEL
 62
   250
420
  1316376
370
     9
100
AcDbLine
 10
497.7621419912134
 20
-187.3808988780091
 30
0.0
 11
496.9295730954743
 21
-186.8270288922848
 31
0.0
  0
SPLINE
  5
1CB
330
1F
100
AcDbEntity
  8
FISHER & PAYKEL
 62
   250
420
  1316376
370
     9
100
AcDbSpline
210
0.0
220
0.0
230
1.0
 70
     8
 71
     3
 72
     8
 73
     4
 74
     0
 42
0.000000001
 43
0.0000000001
 40
5.405860237867048
 40
5.405860237867048
 40
5.405860237867048
 40
5.405860237867048
 40
6.405860237867048
 40
6.405860237867048
 40
6.405860237867048
 40
6.405860237867048
 10
496.9295730954743
 20
-186.8270288922848
 30
0.0
 10
498.2313439536422
 20
-184.8620251849689
 30
0.0
 10
499.6213106694095
 20
-183.6555058530087
 30
0.0
 10
502.249547225873
 20
-183.6555058530087
 30
0.0
  0
SPLINE
  5
1CC
330
1F
100
AcDbEntity
  8
FISHER & PAYKEL
 62
   250
420
  1316376
370
     9
100
AcDbSpline
210
0.0
220
0.0
230
1.0
 70
     8
 71
     3
 72
     8
 73
     4
 74
     0
 42
0.000000001
 43
0.0000000001
 40
6.405860237867048
 40
6.405860237867048
 40
6.405860237867048
 40
6.405860237867048
 40
7.405860237867048
 40
7.405860237867048
 40
7.405860237867048
 40
7.405860237867048
 10
502.249547225873
 20
-183.6555058530087
 30
0.0
 10
504.7931157590411
 20
-183.6555058530087
 30
0.0
 10
506.698146283189
 20
-185.4123673363895
 30
0.0
 10
506.698146283189
 20
-187.7160431368871
 30
0.0
  0
LINE
  5
1CD
330
1F
100
AcDbEntity
  8
FISHER & PAYKEL
 62
   250
420
  1316376
370
     9
100
AcDbLine
 10
506.698146283189
 20
-187.7160431368871
 30
0.0
 11
506.698146283189
 21
-187.7619049828389
 31
0.0
  0
SPLINE
  5
1CE
330
1F
100
AcDbEntity
  8
FISHER & PAYKEL
 62
   250
420
  1316376
370
     9
100
AcDbSpline
210
0.0
220
0.0
230
1.0
 70
     8
 71
     3
 72
     8
 73
     4
 74
     0
 42
0.000000001
 43
0.0000000001
 40
7.418860237867025
 40
7.418860237867025
 40
7.418860237867025
 40
7.418860237867025
 40
8.418860237867026
 40
8.418860237867026
 40
8.418860237867026
 40
8.418860237867026
 10
506.698146283189
 20
-187.7619049828389
 30
0.0
 10
506.698146283189
 20
-189.7904097076262
 30
0.0
 10
505.5833506431321
 20
-191.1450980803536
 30
0.0
 10
502.9551140866686
 20
-193.5158027326268
 30
0.0
  0
LINE
  5
1CF
330
1F
100
AcDbEntity
  8
FISHER & PAYKEL
 62
   250
420
  1316376
370
     9
100
AcDbLine
 10
502.9551140866686
 20
-193.5158027326268
 30
0.0
 11
498.3830408287133
 21
-197.6186740281528
 31
0.0
  0
LINE
  5
1D0
330
1F
100
AcDbEntity
  8
FISHER & PAYKEL
 62
   250
420
  1316376
370
     9
100
AcDbLine
 10
498.3830408287133
 20
-197.6186740281528
 30
0.0
 11
506.8463153239562
 21
-197.6186740281528
 31
0.0
  0
LINE
  5
1D1
330
1F
100
AcDbEntity
  8
FISHER & PAYKEL
 62
   250
420
  1316376
370
     9
100
AcDbLine
 10
506.8463153239562
 20
-197.6186740281528
 30
0.0
 11
506.8463153239562
 21
-198.6770243193462
 31
0.0
  0
LINE
  5
1D2
330
1F
100
AcDbEntity
  8
FISHER & PAYKEL
 62
   250
420
  1316376
370
     9
100
AcDbLine
 10
506.8463153239562
 20
-198.6770243193462
 30
0.0
 11
496.6297071796362
 21
-198.6770243193462
 31
0.0
  0
LINE
  5
1D3
330
1F
100
AcDbEntity
  8
FISHER & PAYKEL
 62
   250
420
  1316376
370
     9
100
AcDbLine
 10
496.6297071796362
 20
-198.6770243193462
 30
0.0
 11
496.6297071796365
 21
-197.8515110922152
 31
0.0
  0
LINE
  5
1D4
330
1F
100
AcDbEntity
  8
FISHER & PAYKEL
 62
   250
420
  1316376
370
     9
100
AcDbLine
 10
433.2218245336599
 20
-191.3144341269445
 30
0.0
 11
433.2218245336599
 21
-191.2721001152968
 31
0.0
  0
SPLINE
  5
1D5
330
1F
100
AcDbEntity
  8
FISHER & PAYKEL
 62
   250
420
  1316376
370
     9
100
AcDbSpline
210
0.0
220
0.0
230
1.0
 70
     8
 71
     3
 72
     8
 73
     4
 74
     0
 42
0.000000001
 43
0.0000000001
 40
0.0120000000000005
 40
0.0120000000000005
 40
0.0120000000000005
 40
0.0120000000000005
 40
1.012
 40
1.012
 40
1.012
 40
1.012
 10
433.2218245336599
 20
-191.2721001152968
 30
0.0
 10
433.2218245336599
 20
-187.8254060003104
 30
0.0
 10
431.2568208263443
 20
-184.6080211150825
 30
0.0
 10
428.1558544731478
 20
-184.6080211150825
 30
0.0
  0
SPLINE
  5
1D6
330
1F
100
AcDbEntity
  8
FISHER & PAYKEL
 62
   250
420
  1316376
370
     9
100
AcDbSpline
210
0.0
220
0.0
230
1.0
 70
     8
 71
     3
 72
     8
 73
     4
 74
     0
 42
0.000000001
 43
0.0000000001
 40
1.012
 40
1.012
 40
1.012
 40
1.012
 40
2.012
 40
2.012
 40
2.012
 40
2.012
 10
428.1558544731478
 20
-184.6080211150825
 30
0.0
 10
425.0619437885593
 20
-184.6080211150825
 30
0.0
 10
423.1357462585873
 20
-187.7830719886627
 30
0.0
 10
423.1357462585873
 20
-191.2297661036492
 30
0.0
  0
LINE
  5
1D7
330
1F
100
AcDbEntity
  8
FISHER & PAYKEL
 62
   250
420
  1316376
370
     9
100
AcDbLine
 10
423.1357462585873
 20
-191.2297661036492
 30
0.0
 11
423.1357462585873
 21
-191.2721001152968
 31
0.0
  0
SPLINE
  5
1D8
330
1F
100
AcDbEntity
  8
FISHER & PAYKEL
 62
   250
420
  1316376
370
     9
100
AcDbSpline
210
0.0
220
0.0
230
1.0
 70
     8
 71
     3
 72
     8
 73
     4
 74
     0
 42
0.000000001
 43
0.0000000001
 40
2.024000000000001
 40
2.024000000000001
 40
2.024000000000001
 40
2.024000000000001
 40
3.024000000000001
 40
3.024000000000001
 40
3.024000000000001
 40
3.024000000000001
 10
423.1357462585873
 20
-191.2721001152968
 30
0.0
 10
423.1357462585873
 20
-194.6976272244593
 30
0.0
 10
425.1007499659029
 20
-197.9361791155112
 30
0.0
 10
428.2017163190995
 20
-197.9361791155112
 30
0.0
  0
SPLINE
  5
1D9
330
1F
100
AcDbEntity
  8
FISHER & PAYKEL
 62
   250
420
  1316376
370
     9
100
AcDbSpline
210
0.0
220
0.0
230
1.0
 70
     8
 71
     3
 72
     8
 73
     4
 74
     0
 42
0.000000001
 43
0.0000000001
 40
3.024000000000001
 40
3.024000000000001
 40
3.024000000000001
 40
3.024000000000001
 40
4.024000000000001
 40
4.024000000000001
 40
4.024000000000001
 40
4.024000000000001
 10
428.2017163190995
 20
-197.9361791155112
 30
0.0
 10
431.299154837992
 20
-197.9361791155112
 30
0.0
 10
433.2218245336599
 20
-194.7434890704108
 30
0.0
 10
433.2218245336599
 20
-191.3144341269445
 30
0.0
  0
LINE
  5
1DA
330
1F
100
AcDbEntity
  8
FISHER & PAYKEL
 62
   250
420
  1316376
370
     9
100
AcDbLine
 10
421.9786166068827
 20
-191.3144341269445
 30
0.0
 11
421.9786166068827
 21
-191.2721001152968
 31
0.0
  0
SPLINE
  5
1DB
330
1F
100
AcDbEntity
  8
FISHER & PAYKEL
 62
   250
420
  1316376
370
     9
100
AcDbSpline
210
0.0
220
0.0
230
1.0
 70
     8
 71
     3
 72
     8
 73
     4
 74
     0
 42
0.000000001
 43
0.0000000001
 40
2.012
 40
2.012
 40
2.012
 40
2.012
 40
3.012
 40
3.012
 40
3.012
 40
3.012
 10
421.9786166068827
 20
-191.2721001152968
 30
0.0
 10
421.9786166068827
 20
-187.1903958255946
 30
0.0
 10
424.3951831051074
 20
-183.6131718413608
 30
0.0
 10
428.2017163190995
 20
-183.6131718413608
 30
0.0
  0
SPLINE
  5
1DC
330
1F
100
AcDbEntity
  8
FISHER & PAYKEL
 62
   250
420
  1316376
370
     9
100
AcDbSpline
210
0.0
220
0.0
230
1.0
 70
     8
 71
     3
 72
     8
 73
     4
 74
     0
 42
0.000000001
 43
0.0000000001
 40
3.012
 40
3.012
 40
3.012
 40
3.012
 40
4.012
 40
4.012
 40
4.012
 40
4.012
 10
428.2017163190995
 20
-183.6131718413608
 30
0.0
 10
432.0047216987876
 20
-183.6131718413608
 30
0.0
 10
434.3754263510606
 20
-187.1445339796426
 30
0.0
 10
434.3754263510606
 20
-191.2297661036492
 30
0.0
  0
LINE
  5
1DD
330
1F
100
AcDbEntity
  8
FISHER & PAYKEL
 62
   250
420
  1316376
370
     9
100
AcDbLine
 10
434.3754263510606
 20
-191.2297661036492
 30
0.0
 11
434.3754263510606
 21
-191.2721001152968
 31
0.0
  0
SPLINE
  5
1DE
330
1F
100
AcDbEntity
  8
FISHER & PAYKEL
 62
   250
420
  1316376
370
     9
100
AcDbSpline
210
0.0
220
0.0
230
1.0
 70
     8
 71
     3
 72
     8
 73
     4
 74
     0
 42
0.000000001
 43
0.0000000001
 40
4.024000000000001
 40
4.024000000000001
 40
4.024000000000001
 40
4.024000000000001
 40
5.024000000000001
 40
5.024000000000001
 40
5.024000000000001
 40
5.024000000000001
 10
434.3754263510606
 20
-191.2721001152968
 30
0.0
 10
434.3754263510606
 20
-195.3573322393032
 30
0.0
 10
431.9623876871397
 20
-198.9310283892328
 30
0.0
 10
428.1558544731478
 20
-198.9310283892328
 30
0.0
  0
SPLINE
  5
1DF
330
1F
100
AcDbEntity
  8
FISHER & PAYKEL
 62
   250
420
  1316376
370
     9
100
AcDbSpline
210
0.0
220
0.0
230
1.0
 70
     8
 71
     3
 72
     8
 73
     4
 74
     0
 42
0.000000001
 43
0.0000000001
 40
5.024000000000001
 40
5.024000000000001
 40
5.024000000000001
 40
5.024000000000001
 40
6.024000000000001
 40
6.024000000000001
 40
6.024000000000001
 40
6.024000000000001
 10
428.1558544731478
 20
-198.9310283892328
 30
0.0
 10
424.3528490934597
 20
-198.9310283892328
 30
0.0
 10
421.9786166068827
 20
-195.3961384166469
 30
0.0
 10
421.9786166068827
 20
-191.3144341269445
 30
0.0
  0
LINE
  5
1E0
330
1F
100
AcDbEntity
  8
FISHER & PAYKEL
 62
   250
420
  1316376
370
     9
100
AcDbLine
 10
418.0870625861648
 20
-191.3144341269445
 30
0.0
 11
418.0870625861648
 21
-191.2721001152968
 31
0.0
  0
SPLINE
  5
1E1
330
1F
100
AcDbEntity
  8
FISHER & PAYKEL
 62
   250
420
  1316376
370
     9
100
AcDbSpline
210
0.0
220
0.0
230
1.0
 70
     8
 71
     3
 72
     8
 73
     4
 74
     0
 42
0.000000001
 43
0.0000000001
 40
0.0120000000000005
 40
0.0120000000000005
 40
0.0120000000000005
 40
0.0120000000000005
 40
1.012
 40
1.012
 40
1.012
 40
1.012
 10
418.0870625861648
 20
-191.2721001152968
 30
0.0
 10
418.0870625861648
 20
-187.8254060003104
 30
0.0
 10
416.1185310445451
 20
-184.6080211150825
 30
0.0
 10
413.0210925256526
 20
-184.6080211150825
 30
0.0
  0
SPLINE
  5
1E2
330
1F
100
AcDbEntity
  8
FISHER & PAYKEL
 62
   250
420
  1316376
370
     9
100
AcDbSpline
210
0.0
220
0.0
230
1.0
 70
     8
 71
     3
 72
     8
 73
     4
 74
     0
 42
0.000000001
 43
0.0000000001
 40
1.012
 40
1.012
 40
1.012
 40
1.012
 40
2.012
 40
2.012
 40
2.012
 40
2.012
 10
413.0210925256526
 20
-184.6080211150825
 30
0.0
 10
409.92365400676
 20
-184.6080211150825
 30
0.0
 10
408.0009843110921
 20
-187.7830719886627
 30
0.0
 10
408.0009843110921
 20
-191.2297661036492
 30
0.0
  0
LINE
  5
1E3
330
1F
100
AcDbEntity
  8
FISHER & PAYKEL
 62
   250
420
  1316376
370
     9
100
AcDbLine
 10
408.0009843110921
 20
-191.2297661036492
 30
0.0
 11
408.0009843110921
 21
-191.2721001152968
 31
0.0
  0
SPLINE
  5
1E4
330
1F
100
AcDbEntity
  8
FISHER & PAYKEL
 62
   250
420
  1316376
370
     9
100
AcDbSpline
210
0.0
220
0.0
230
1.0
 70
     8
 71
     3
 72
     8
 73
     4
 74
     0
 42
0.000000001
 43
0.0000000001
 40
2.024000000000001
 40
2.024000000000001
 40
2.024000000000001
 40
2.024000000000001
 40
3.024000000000001
 40
3.024000000000001
 40
3.024000000000001
 40
3.024000000000001
 10
408.0009843110921
 20
-191.2721001152968
 30
0.0
 10
408.0009843110921
 20
-194.6976272244593
 30
0.0
 10
409.9659880184078
 20
-197.9361791155112
 30
0.0
 10
413.0634265373004
 20
-197.9361791155112
 30
0.0
  0
SPLINE
  5
1E5
330
1F
100
AcDbEntity
  8
FISHER & PAYKEL
 62
   250
420
  1316376
370
     9
100
AcDbSpline
210
0.0
220
0.0
230
1.0
 70
     8
 71
     3
 72
     8
 73
     4
 74
     0
 42
0.000000001
 43
0.0000000001
 40
3.024000000000001
 40
3.024000000000001
 40
3.024000000000001
 40
3.024000000000001
 40
4.024000000000001
 40
4.024000000000001
 40
4.024000000000001
 40
4.024000000000001
 10
413.0634265373004
 20
-197.9361791155112
 30
0.0
 10
416.1643928904968
 20
-197.9361791155112
 30
0.0
 10
418.0870625861648
 20
-194.7434890704108
 30
0.0
 10
418.0870625861648
 20
-191.3144341269445
 30
0.0
  0
LINE
  5
1E6
330
1F
100
AcDbEntity
  8
FISHER & PAYKEL
 62
   250
420
  1316376
370
     9
100
AcDbLine
 10
406.8438546593873
 20
-191.3144341269445
 30
0.0
 11
406.8438546593873
 21
-191.2721001152968
 31
0.0
  0
SPLINE
  5
1E7
330
1F
100
AcDbEntity
  8
FISHER & PAYKEL
 62
   250
420
  1316376
370
     9
100
AcDbSpline
210
0.0
220
0.0
230
1.0
 70
     8
 71
     3
 72
     8
 73
     4
 74
     0
 42
0.000000001
 43
0.0000000001
 40
2.012
 40
2.012
 40
2.012
 40
2.012
 40
3.012
 40
3.012
 40
3.012
 40
3.012
 10
406.8438546593873
 20
-191.2721001152968
 30
0.0
 10
406.8438546593873
 20
-187.1903958255946
 30
0.0
 10
409.2604211576123
 20
-183.6131718413608
 30
0.0
 10
413.0634265373004
 20
-183.6131718413608
 30
0.0
  0
SPLINE
  5
1E8
330
1F
100
AcDbEntity
  8
FISHER & PAYKEL
 62
   250
420
  1316376
370
     9
100
AcDbSpline
210
0.0
220
0.0
230
1.0
 70
     8
 71
     3
 72
     8
 73
     4
 74
     0
 42
0.000000001
 43
0.0000000001
 40
3.012
 40
3.012
 40
3.012
 40
3.012
 40
4.012
 40
4.012
 40
4.012
 40
4.012
 10
413.0634265373004
 20
-183.6131718413608
 30
0.0
 10
416.8664319169885
 20
-183.6131718413608
 30
0.0
 10
419.2406644035655
 20
-187.1445339796426
 30
0.0
 10
419.2406644035655
 20
-191.2297661036492
 30
0.0
  0
LINE
  5
1E9
330
1F
100
AcDbEntity
  8
FISHER & PAYKEL
 62
   250
420
  1316376
370
     9
100
AcDbLine
 10
419.2406644035655
 20
-191.2297661036492
 30
0.0
 11
419.2406644035655
 21
-191.2721001152968
 31
0.0
  0
SPLINE
  5
1EA
330
1F
100
AcDbEntity
  8
FISHER & PAYKEL
 62
   250
420
  1316376
370
     9
100
AcDbSpline
210
0.0
220
0.0
230
1.0
 70
     8
 71
     3
 72
     8
 73
     4
 74
     0
 42
0.000000001
 43
0.0000000001
 40
4.024000000000001
 40
4.024000000000001
 40
4.024000000000001
 40
4.024000000000001
 40
5.024000000000001
 40
5.024000000000001
 40
5.024000000000001
 40
5.024000000000001
 10
419.2406644035655
 20
-191.2721001152968
 30
0.0
 10
419.2406644035655
 20
-195.3573322393032
 30
0.0
 10
416.8276257396447
 20
-198.9310283892328
 30
0.0
 10
413.0210925256526
 20
-198.9310283892328
 30
0.0
  0
SPLINE
  5
1EB
330
1F
100
AcDbEntity
  8
FISHER & PAYKEL
 62
   250
420
  1316376
370
     9
100
AcDbSpline
210
0.0
220
0.0
230
1.0
 70
     8
 71
     3
 72
     8
 73
     4
 74
     0
 42
0.000000001
 43
0.0000000001
 40
5.024000000000001
 40
5.024000000000001
 40
5.024000000000001
 40
5.024000000000001
 40
6.024000000000001
 40
6.024000000000001
 40
6.024000000000001
 40
6.024000000000001
 10
413.0210925256526
 20
-198.9310283892328
 30
0.0
 10
409.2145593116605
 20
-198.9310283892328
 30
0.0
 10
406.8438546593873
 20
-195.3961384166469
 30
0.0
 10
406.8438546593873
 20
-191.3144341269445
 30
0.0
  0
POLYLINE
  5
1EC
330
1F
100
AcDbEntity
  8
FISHER & PAYKEL
 62
   250
420
  1316376
370
     9
100
AcDb2dPolyline
 66
     1
 10
0.0
 20
0.0
 30
0.0
 70
     1
  0
VERTEX
  5
1ED
330
1EC
100
AcDbEntity
  8
FISHER & PAYKEL
 62
   250
420
  1316376
370
     9
100
AcDbVertex
100
AcDb2dVertex
 10
402.1497183345144
 20
-184.9047119800471
 30
0.0
  0
VERTEX
  5
1EE
330
1EC
100
AcDbEntity
  8
FISHER & PAYKEL
 62
   250
420
  1316376
370
     9
100
AcDbVertex
100
AcDb2dVertex
 10
399.2674777081646
 20
-185.8783942479452
 30
0.0
  0
VERTEX
  5
1EF
330
1EC
100
AcDbEntity
  8
FISHER & PAYKEL
 62
   250
420
  1316376
370
     9
100
AcDbVertex
100
AcDb2dVertex
 10
398.9676117923264
 20
-185.0105470091665
 30
0.0
  0
VERTEX
  5
1F0
330
1EC
100
AcDbEntity
  8
FISHER & PAYKEL
 62
   250
420
  1316376
370
     9
100
AcDbVertex
100
AcDb2dVertex
 10
402.3825553985769
 20
-183.7616936655584
 30
0.0
  0
VERTEX
  5
1F1
330
1EC
100
AcDbEntity
  8
FISHER & PAYKEL
 62
   250
420
  1316376
370
     9
100
AcDbVertex
100
AcDb2dVertex
 10
403.2398191344435
 20
-183.7616936655584
 30
0.0
  0
VERTEX
  5
1F2
330
1EC
100
AcDbEntity
  8
FISHER & PAYKEL
 62
   250
420
  1316376
370
     9
100
AcDbVertex
100
AcDb2dVertex
 10
403.2398191344435
 20
-198.6773771027766
 30
0.0
  0
VERTEX
  5
1F3
330
1EC
100
AcDbEntity
  8
FISHER & PAYKEL
 62
   250
420
  1316376
370
     9
100
AcDbVertex
100
AcDb2dVertex
 10
402.1497183345144
 20
-198.6773771027766
 30
0.0
  0
SEQEND
  5
1F4
330
1EC
100
AcDbEntity
  8
FISHER & PAYKEL
 62
   250
420
  1316376
370
     9
  0
POLYLINE
  5
1F5
330
1F
100
AcDbEntity
  8
FISHER & PAYKEL
100
AcDb2dPolyline
 66
     1
 10
0.0
 20
0.0
 30
0.0
  0
VERTEX
  5
1F6
330
1F5
100
AcDbEntity
  8
FISHER & PAYKEL
100
AcDbVertex
100
AcDb2dVertex
 10
317.0385814115785
 20
-233.2801385504268
 30
0.0
  0
VERTEX
  5
1F7
330
1F5
100
AcDbEntity
  8
FISHER & PAYKEL
100
AcDbVertex
100
AcDb2dVertex
 10
717.0385814115785
 20
-233.2801385504269
 30
0.0
  0
SEQEND
  5
1F8
330
1F5
100
AcDbEntity
  8
FISHER & PAYKEL
  0
POLYLINE
  5
1F9
330
1F
100
AcDbEntity
  8
FISHER & PAYKEL
 62
   250
420
  1316376
370
     9
100
AcDb2dPolyline
 66
     1
 10
0.0
 20
0.0
 30
0.0
  0
VERTEX
  5
1FA
330
1F9
100
AcDbEntity
  8
FISHER & PAYKEL
 62
   250
420
  1316376
370
     9
100
AcDbVertex
100
AcDb2dVertex
 10
444.0420274885024
 20
-316.7394924445952
 30
0.0
  0
VERTEX
  5
1FB
330
1F9
100
AcDbEntity
  8
FISHER & PAYKEL
 62
   250
420
  1316376
370
     9
100
AcDbVertex
100
AcDb2dVertex
 10
444.0420274885024
 20
-356.7416056173999
 30
0.0
  0
SEQEND
  5
1FC
330
1F9
100
AcDbEntity
  8
FISHER & PAYKEL
 62
   250
420
  1316376
370
     9
  0
POLYLINE
  5
1FD
330
1F
100
AcDbEntity
  8
FISHER & PAYKEL
 62
   250
420
  1316376
370
     9
100
AcDb2dPolyline
 66
     1
 10
0.0
 20
0.0
 30
0.0
  0
VERTEX
  5
1FE
330
1FD
100
AcDbEntity
  8
FISHER & PAYKEL
 62
   250
420
  1316376
370
     9
100
AcDbVertex
100
AcDb2dVertex
 10
571.0440624317047
 20
-316.7394924445952
 30
0.0
  0
VERTEX
  5
1FF
330
1FD
100
AcDbEntity
  8
FISHER & PAYKEL
 62
   250
420
  1316376
370
     9
100
AcDbVertex
100
AcDb2dVertex
 10
571.0440624317047
 20
-356.7416056173999
 30
0.0
  0
SEQEND
  5
200
330
1FD
100
AcDbEntity
  8
FISHER & PAYKEL
 62
   250
420
  1316376
370
     9
  0
POLYLINE
  5
201
330
1F
100
AcDbEntity
  8
FISHER & PAYKEL
 62
   250
420
  1316376
370
     9
100
AcDb2dPolyline
 66
     1
 10
0.0
 20
0.0
 30
0.0
  0
VERTEX
  5
202
330
201
100
AcDbEntity
  8
FISHER & PAYKEL
 62
   250
420
  1316376
370
     9
100
AcDbVertex
100
AcDb2dVertex
 10
825.0481323181092
 20
-316.7394924445952
 30
0.0
  0
VERTEX
  5
203
330
201
100
AcDbEntity
  8
FISHER & PAYKEL
 62
   250
420
  1316376
370
     9
100
AcDbVertex
100
AcDb2dVertex
 10
825.0481323181092
 20
-356.7416056173999
 30
0.0
  0
SEQEND
  5
204
330
201
100
AcDbEntity
  8
FISHER & PAYKEL
 62
   250
420
  1316376
370
     9
  0
POLYLINE
  5
205
330
1F
100
AcDbEntity
  8
FISHER & PAYKEL
 62
   250
420
  1316376
370
     9
100
AcDb2dPolyline
 66
     1
 10
0.0
 20
0.0
 30
0.0
 70
     1
  0
VERTEX
  5
206
330
205
100
AcDbEntity
  8
FISHER & PAYKEL
 62
   250
420
  1316376
370
     9
100
AcDbVertex
100
AcDb2dVertex
 10
317.0385814115785
 20
-356.7401944836785
 30
0.0
  0
VERTEX
  5
207
330
205
100
AcDbEntity
  8
FISHER & PAYKEL
 62
   250
420
  1316376
370
     9
100
AcDbVertex
100
AcDb2dVertex
 10
825.0467211843878
 20
-356.7401944836785
 30
0.0
  0
VERTEX
  5
208
330
205
100
AcDbEntity
  8
FISHER & PAYKEL
 62
   250
420
  1316376
370
     9
100
AcDbVertex
100
AcDb2dVertex
 10
825.0467211843878
 20
-326.7394915626509
 30
0.0
  0
VERTEX
  5
209
330
205
100
AcDbEntity
  8
FISHER & PAYKEL
 62
   250
420
  1316376
370
     9
100
AcDbVertex
100
AcDb2dVertex
 10
317.0385814115785
 20
-326.7394915626509
 30
0.0
  0
SEQEND
  5
20A
330
205
100
AcDbEntity
  8
FISHER & PAYKEL
 62
   250
420
  1316376
370
     9
  0
POLYLINE
  5
20B
330
1F
100
AcDbEntity
  8
FISHER & PAYKEL
 62
   250
420
  1316376
370
     9
100
AcDb2dPolyline
 66
     1
 10
0.0
 20
0.0
 30
0.0
 70
     1
  0
VERTEX
  5
20C
330
20B
100
AcDbEntity
  8
FISHER & PAYKEL
 62
   250
420
  1316376
370
     9
100
AcDbVertex
100
AcDb2dVertex
 10
571.0426512979833
 20
-356.7401944836785
 30
0.0
  0
VERTEX
  5
20D
330
20B
100
AcDbEntity
  8
FISHER & PAYKEL
 62
   250
420
  1316376
370
     9
100
AcDbVertex
100
AcDb2dVertex
 10
825.0467211843878
 20
-356.7401944836785
 30
0.0
  0
VERTEX
  5
20E
330
20B
100
AcDbEntity
  8
FISHER & PAYKEL
 62
   250
420
  1316376
370
     9
100
AcDbVertex
100
AcDb2dVertex
 10
825.0467211843878
 20
-341.7398430231646
 30
0.0
  0
VERTEX
  5
20F
330
20B
100
AcDbEntity
  8
FISHER & PAYKEL
 62
   250
420
  1316376
370
     9
100
AcDbVertex
100
AcDb2dVertex
 10
571.0426512979833
 20
-341.7398430231646
 30
0.0
  0
SEQEND
  5
210
330
20B
100
AcDbEntity
  8
FISHER & PAYKEL
 62
   250
420
  1316376
370
     9
  0
POLYLINE
  5
211
330
1F
100
AcDbEntity
  8
FISHER & PAYKEL
 62
   250
420
  1316376
370
     9
100
AcDb2dPolyline
 66
     1
 10
0.0
 20
0.0
 30
0.0
 70
     1
  0
VERTEX
  5
212
330
211
100
AcDbEntity
  8
FISHER & PAYKEL
 62
   250
420
  1316376
370
     9
100
AcDbVertex
100
AcDb2dVertex
 10
444.0406163547808
 20
-341.7398430231646
 30
0.0
  0
VERTEX
  5
213
330
211
100
AcDbEntity
  8
FISHER & PAYKEL
 62
   250
420
  1316376
370
     9
100
AcDbVertex
100
AcDb2dVertex
 10
571.0426512979833
 20
-341.7398430231646
 30
0.0
  0
VERTEX
  5
214
330
211
100
AcDbEntity
  8
FISHER & PAYKEL
 62
   250
420
  1316376
370
     9
100
AcDbVertex
100
AcDb2dVertex
 10
571.0426512979833
 20
-326.7394915626509
 30
0.0
  0
VERTEX
  5
215
330
211
100
AcDbEntity
  8
FISHER & PAYKEL
 62
   250
420
  1316376
370
     9
100
AcDbVertex
100
AcDb2dVertex
 10
444.0406163547808
 20
-326.7394915626509
 30
0.0
  0
SEQEND
  5
216
330
211
100
AcDbEntity
  8
FISHER & PAYKEL
 62
   250
420
  1316376
370
     9
  0
POLYLINE
  5
217
330
1F
100
AcDbEntity
  8
FISHER & PAYKEL
 62
   250
420
  1316376
370
     9
100
AcDb2dPolyline
 66
     1
 10
0.0
 20
0.0
 30
0.0
 70
     1
  0
VERTEX
  5
218
330
217
100
AcDbEntity
  8
FISHER & PAYKEL
 62
   250
420
  1316376
370
     9
100
AcDbVertex
100
AcDb2dVertex
 10
317.0385814115785
 20
-356.7401944836785
 30
0.0
  0
VERTEX
  5
219
330
217
100
AcDbEntity
  8
FISHER & PAYKEL
 62
   250
420
  1316376
370
     9
100
AcDbVertex
100
AcDb2dVertex
 10
444.0406163547808
 20
-356.7401944836785
 30
0.0
  0
VERTEX
  5
21A
330
217
100
AcDbEntity
  8
FISHER & PAYKEL
 62
   250
420
  1316376
370
     9
100
AcDbVertex
100
AcDb2dVertex
 10
444.0406163547808
 20
-341.7398430231646
 30
0.0
  0
VERTEX
  5
21B
330
217
100
AcDbEntity
  8
FISHER & PAYKEL
 62
   250
420
  1316376
370
     9
100
AcDbVertex
100
AcDb2dVertex
 10
317.0385814115785
 20
-341.7398430231646
 30
0.0
  0
SEQEND
  5
21C
330
217
100
AcDbEntity
  8
FISHER & PAYKEL
 62
   250
420
  1316376
370
     9
  0
POLYLINE
  5
21D
330
1F
100
AcDbEntity
  8
FISHER & PAYKEL
 62
   250
420
  1316376
370
     9
100
AcDb2dPolyline
 66
     1
 10
0.0
 20
0.0
 30
0.0
  0
VERTEX
  5
21E
330
21D
100
AcDbEntity
  8
FISHER & PAYKEL
 62
   250
420
  1316376
370
     9
100
AcDbVertex
100
AcDb2dVertex
 10
317.0399925453
 20
-316.7394924445952
 30
0.0
  0
VERTEX
  5
21F
330
21D
100
AcDbEntity
  8
FISHER & PAYKEL
 62
   250
420
  1316376
370
     9
100
AcDbVertex
100
AcDb2dVertex
 10
317.0399925453
 20
-356.7416056173999
 30
0.0
  0
SEQEND
  5
220
330
21D
100
AcDbEntity
  8
FISHER & PAYKEL
 62
   250
420
  1316376
370
     9
  0
LINE
  5
221
330
1F
100
AcDbEntity
  8
FISHER & PAYKEL
 62
   250
420
  1316376
370
     9
100
AcDbLine
 10
895.9561906943424
 20
-355.0394255657308
 30
0.0
 11
896.5770895318423
 21
-354.2174401729041
 31
0.0
  0
SPLINE
  5
222
330
1F
100
AcDbEntity
  8
FISHER & PAYKEL
 62
   250
420
  1316376
370
     9
100
AcDbSpline
210
0.0
220
0.0
230
1.0
 70
     8
 71
     3
 72
     8
 73
     4
 74
     0
 42
0.000000001
 43
0.0000000001
 40
0.2920017123236627
 40
0.2920017123236627
 40
0.2920017123236627
 40
0.2920017123236627
 40
1.292001712323663
 40
1.292001712323663
 40
1.292001712323663
 40
1.292001712323663
 10
896.5770895318423
 20
-354.2174401729041
 30
0.0
 10
897.7765531951949
 20
-355.1240935890264
 30
0.0
 10
899.0994910591866
 20
-355.6321017287991
 30
0.0
 10
900.4894577749541
 20
-355.6321017287991
 30
0.0
  0
SPLINE
  5
223
330
1F
100
AcDbEntity
  8
FISHER & PAYKEL
 62
   250
420
  1316376
370
     9
100
AcDbSpline
210
0.0
220
0.0
230
1.0
 70
     8
 71
     3
 72
     8
 73
     4
 74
     0
 42
0.000000001
 43
0.0000000001
 40
1.292001712323663
 40
1.292001712323663
 40
1.292001712323663
 40
1.292001712323663
 40
2.292001712323663
 40
2.292001712323663
 40
2.292001712323663
 40
2.292001712323663
 10
900.4894577749541
 20
-355.6321017287991
 30
0.0
 10
901.9640925140164
 20
-355.6321017287991
 30
0.0
 10
903.1141664971134
 20
-354.8277555074921
 30
0.0
 10
903.1141664971134
 20
-353.578902163884
 30
0.0
  0
LINE
  5
224
330
1F
100
AcDbEntity
  8
FISHER & PAYKEL
 62
   250
420
  1316376
370
     9
100
AcDbLine
 10
903.1141664971134
 20
-353.578902163884
 30
0.0
 11
903.1141664971134
 21
-353.5365681522364
 31
0.0
  0
SPLINE
  5
225
330
1F
100
AcDbEntity
  8
FISHER & PAYKEL
 62
   250
420
  1316376
370
     9
100
AcDbSpline
210
0.0
220
0.0
230
1.0
 70
     8
 71
     3
 72
     8
 73
     4
 74
     0
 42
0.000000001
 43
0.0000000001
 40
2.304001712323663
 40
2.304001712323663
 40
2.304001712323663
 40
2.304001712323663
 40
3.304001712323663
 40
3.304001712323663
 40
3.304001712323663
 40
3.304001712323663
 10
903.1141664971134
 20
-353.5365681522364
 30
0.0
 10
903.1141664971134
 20
-352.2700756371082
 30
0.0
 10
901.752422455778
 20
-351.8044015089833
 30
0.0
 10
900.2319258707633
 20
-351.3810613925058
 30
0.0
  0
SPLINE
  5
226
330
1F
100
AcDbEntity
  8
FISHER & PAYKEL
 62
   250
420
  1316376
370
     9
100
AcDbSpline
210
0.0
220
0.0
230
1.0
 70
     8
 71
     3
 72
     8
 73
     4
 74
     0
 42
0.000000001
 43
0.0000000001
 40
3.304001712323663
 40
3.304001712323663
 40
3.304001712323663
 40
3.304001712323663
 40
4.304001712323663
 40
4.304001712323663
 40
4.304001712323663
 40
4.304001712323663
 10
900.2319258707633
 20
-351.3810613925058
 30
0.0
 10
898.4574252158626
 20
-350.869525418429
 30
0.0
 10
896.492421508547
 20
-350.3438781071363
 30
0.0
 10
896.492421508547
 20
-348.4176805771644
 30
0.0
  0
LINE
  5
227
330
1F
100
AcDbEntity
  8
FISHER & PAYKEL
 62
   250
420
  1316376
370
     9
100
AcDbLine
 10
896.492421508547
 20
-348.4176805771644
 30
0.0
 11
896.492421508547
 21
-348.3753465655167
 31
0.0
  0
SPLINE
  5
228
330
1F
100
AcDbEntity
  8
FISHER & PAYKEL
 62
   250
420
  1316376
370
     9
100
AcDbSpline
210
0.0
220
0.0
230
1.0
 70
     8
 71
     3
 72
     8
 73
     4
 74
     0
 42
0.000000001
 43
0.0000000001
 40
4.316001712323663
 40
4.316001712323663
 40
4.316001712323663
 40
4.316001712323663
 40
5.316001712323663
 40
5.316001712323663
 40
5.316001712323663
 40
5.316001712323663
 10
896.492421508547
 20
-348.3753465655167
 30
0.0
 10
896.492421508547
 20
-346.6396520879597
 30
0.0
 10
897.9670562476095
 20
-345.3943265786556
 30
0.0
 10
900.0837568299963
 20
-345.3943265786556
 30
0.0
  0
SPLINE
  5
229
330
1F
100
AcDbEntity
  8
FISHER & PAYKEL
 62
   250
420
  1316376
370
     9
100
AcDbSpline
210
0.0
220
0.0
230
1.0
 70
     8
 71
     3
 72
     8
 73
     4
 74
     0
 42
0.000000001
 43
0.0000000001
 40
5.316001712323663
 40
5.316001712323663
 40
5.316001712323663
 40
5.316001712323663
 40
6.316001712323663
 40
6.316001712323663
 40
6.316001712323663
 40
6.316001712323663
 10
900.0837568299963
 20
-345.3943265786556
 30
0.0
 10
901.385527688164
 20
-345.3943265786556
 30
0.0
 10
902.8601624272268
 20
-345.8564728724766
 30
0.0
 10
903.9502632271561
 20
-346.5796789047919
 30
0.0
  0
LINE
  5
22A
330
1F
100
AcDbEntity
  8
FISHER & PAYKEL
 62
   250
420
  1316376
370
     9
100
AcDbLine
 10
903.9502632271561
 20
-346.5796789047919
 30
0.0
 11
903.3928654071275
 21
-347.4475261435707
 31
0.0
  0
SPLINE
  5
22B
330
1F
100
AcDbEntity
  8
FISHER & PAYKEL
 62
   250
420
  1316376
370
     9
100
AcDbSpline
210
0.0
220
0.0
230
1.0
 70
     8
 71
     3
 72
     8
 73
     4
 74
     0
 42
0.000000001
 43
0.0000000001
 40
6.608371341389377
 40
6.608371341389377
 40
6.608371341389377
 40
6.608371341389377
 40
7.608371341389377
 40
7.608371341389377
 40
7.608371341389377
 40
7.608371341389377
 10
903.3928654071275
 20
-347.4475261435707
 30
0.0
 10
902.390960464798
 20
-346.7913489630307
 30
0.0
 10
901.1914968014454
 20
-346.3644810122493
 30
0.0
 10
900.0378949840448
 20
-346.3644810122493
 30
0.0
  0
SPLINE
  5
22C
330
1F
100
AcDbEntity
  8
FISHER & PAYKEL
 62
   250
420
  1316376
370
     9
100
AcDbSpline
210
0.0
220
0.0
230
1.0
 70
     8
 71
     3
 72
     8
 73
     4
 74
     0
 42
0.000000001
 43
0.0000000001
 40
7.608371341389377
 40
7.608371341389377
 40
7.608371341389377
 40
7.608371341389377
 40
8.608371341389377
 40
8.608371341389377
 40
8.608371341389377
 40
8.608371341389377
 10
900.0378949840448
 20
-346.3644810122493
 30
0.0
 10
898.5420932391581
 20
-346.3644810122493
 30
0.0
 10
897.561355302652
 20
-347.1723550678602
 30
0.0
 10
897.561355302652
 20
-348.2483445305735
 30
0.0
  0
LINE
  5
22D
330
1F
100
AcDbEntity
  8
FISHER & PAYKEL
 62
   250
420
  1316376
370
     9
100
AcDbLine
 10
897.561355302652
 20
-348.2483445305735
 30
0.0
 11
897.561355302652
 21
-348.2942063765253
 31
0.0
  0
SPLINE
  5
22E
330
1F
100
AcDbEntity
  8
FISHER & PAYKEL
 62
   250
420
  1316376
370
     9
100
AcDbSpline
210
0.0
220
0.0
230
1.0
 70
     8
 71
     3
 72
     8
 73
     4
 74
     0
 42
0.000000001
 43
0.0000000001
 40
8.62137134138941
 40
8.62137134138941
 40
8.62137134138941
 40
8.62137134138941
 40
9.62137134138941
 40
9.62137134138941
 40
9.62137134138941
 40
9.62137134138941
 10
897.561355302652
 20
-348.2942063765253
 30
0.0
 10
897.561355302652
 20
-349.5007257084855
 30
0.0
 10
899.0359900417149
 20
-349.9417049964829
 30
0.0
 10
900.5917649697693
 20
-350.3862121187839
 30
0.0
  0
SPLINE
  5
22F
330
1F
100
AcDbEntity
  8
FISHER & PAYKEL
 62
   250
420
  1316376
370
     9
100
AcDbSpline
210
0.0
220
0.0
230
1.0
 70
     8
 71
     3
 72
     8
 73
     4
 74
     0
 42
0.000000001
 43
0.0000000001
 40
9.62137134138941
 40
9.62137134138941
 40
9.62137134138941
 40
9.62137134138941
 40
10.62137134138941
 40
10.62137134138941
 40
10.62137134138941
 40
10.62137134138941
 10
900.5917649697693
 20
-350.3862121187839
 30
0.0
 10
902.3486264531501
 20
-350.869525418429
 30
0.0
 10
904.1831002912185
 20
-351.508063427449
 30
0.0
 10
904.1831002912185
 20
-353.4130939515971
 30
0.0
  0
LINE
  5
230
330
1F
100
AcDbEntity
  8
FISHER & PAYKEL
 62
   250
420
  1316376
370
     9
100
AcDbLine
 10
904.1831002912185
 20
-353.4130939515971
 30
0.0
 11
904.1831002912185
 21
-353.4554279632447
 31
0.0
  0
SPLINE
  5
231
330
1F
100
AcDbEntity
  8
FISHER & PAYKEL
 62
   250
420
  1316376
370
     9
100
AcDbSpline
210
0.0
220
0.0
230
1.0
 70
     8
 71
     3
 72
     8
 73
     4
 74
     0
 42
0.000000001
 43
0.0000000001
 40
10.63337134138941
 40
10.63337134138941
 40
10.63337134138941
 40
10.63337134138941
 40
11.63337134138941
 40
11.63337134138941
 40
11.63337134138941
 40
11.63337134138941
 10
904.1831002912185
 20
-353.4554279632447
 30
0.0
 10
904.1831002912185
 20
-355.3780976589127
 30
0.0
 10
902.517962499741
 20
-356.605783996697
 30
0.0
 10
900.4259567574821
 20
-356.605783996697
 30
0.0
  0
SPLINE
  5
232
330
1F
100
AcDbEntity
  8
FISHER & PAYKEL
 62
   250
420
  1316376
370
     9
100
AcDbSpline
210
0.0
220
0.0
230
1.0
 70
     8
 71
     3
 72
     8
 73
     4
 74
     0
 42
0.000000001
 43
0.0000000001
 40
11.63337134138941
 40
11.63337134138941
 40
11.63337134138941
 40
11.63337134138941
 40
12.63337134138941
 40
12.63337134138941
 40
12.63337134138941
 40
12.63337134138941
 10
900.4259567574821
 20
-356.605783996697
 30
0.0
 10
898.8419595326508
 20
-356.605783996697
 30
0.0
 10
897.1133211703262
 20
-355.9707741247773
 30
0.0
 10
895.9561906943424
 20
-355.0394255657308
 30
0.0
  0
SPLINE
  5
233
330
1F
100
AcDbEntity
  8
FISHER & PAYKEL
 62
   250
420
  1316376
370
     9
100
AcDbSpline
210
0.0
220
0.0
230
1.0
 70
     8
 71
     3
 72
     8
 73
     4
 74
     0
 42
0.000000001
 43
0.0000000001
 40
0.0
 40
0.0
 40
0.0
 40
0.0
 40
1.0
 40
1.0
 40
1.0
 40
1.0
 10
892.7419808599883
 20
-350.4916943644729
 30
0.0
 10
892.5938118192213
 20
-348.3150205989186
 30
0.0
 10
891.3343749727011
 20
-346.3041550456512
 30
0.0
 10
888.8331404511808
 20
-346.3041550456512
 30
0.0
  0
SPLINE
  5
234
330
1F
100
AcDbEntity
  8
FISHER & PAYKEL
 62
   250
420
  1316376
370
     9
100
AcDbSpline
210
0.0
220
0.0
230
1.0
 70
     8
 71
     3
 72
     8
 73
     4
 74
     0
 42
0.000000001
 43
0.0000000001
 40
1.0
 40
1.0
 40
1.0
 40
1.0
 40
2.0
 40
2.0
 40
2.0
 40
2.0
 10
888.8331404511808
 20
-346.3041550456512
 30
0.0
 10
886.6741058571464
 20
-346.3041550456512
 30
0.0
 10
885.0089680656689
 20
-348.099822706376
 30
0.0
 10
884.8149371789499
 20
-350.4916943644729
 30
0.0
  0
LINE
  5
235
330
1F
100
AcDbEntity
  8
FISHER & PAYKEL
 62
   250
420
  1316376
370
     9
100
AcDbLine
 10
884.8149371789499
 20
-350.4916943644729
 30
0.0
 11
892.7419808599883
 21
-350.4916943644729
 31
0.0
  0
LINE
  5
236
330
1F
100
AcDbEntity
  8
FISHER & PAYKEL
 62
   250
420
  1316376
370
     9
100
AcDbLine
 10
883.7036693731969
 20
-351.0208695100695
 30
0.0
 11
883.7036693731969
 21
-350.9785354984219
 31
0.0
  0
SPLINE
  5
237
330
1F
100
AcDbEntity
  8
FISHER & PAYKEL
 62
   250
420
  1316376
370
     9
100
AcDbSpline
210
0.0
220
0.0
230
1.0
 70
     8
 71
     3
 72
     8
 73
     4
 74
     0
 42
0.000000001
 43
0.0000000001
 40
2.012
 40
2.012
 40
2.012
 40
2.012
 40
3.012
 40
3.012
 40
3.012
 40
3.012
 10
883.7036693731969
 20
-350.9785354984219
 30
0.0
 10
883.7036693731969
 20
-347.8458186364896
 30
0.0
 10
885.922677150399
 20
-345.3516397835774
 30
0.0
 10
888.8719466285246
 20
-345.3516397835774
 30
0.0
  0
SPLINE
  5
238
330
1F
100
AcDbEntity
  8
FISHER & PAYKEL
 62
   250
420
  1316376
370
     9
100
AcDbSpline
210
0.0
220
0.0
230
1.0
 70
     8
 71
     3
 72
     8
 73
     4
 74
     0
 42
0.000000001
 43
0.0000000001
 40
3.012
 40
3.012
 40
3.012
 40
3.012
 40
4.012
 40
4.012
 40
4.012
 40
4.012
 10
888.8719466285246
 20
-345.3516397835774
 30
0.0
 10
891.9341068043774
 20
-345.3516397835774
 30
0.0
 10
893.8744156715653
 20
-347.8034846248419
 30
0.0
 10
893.8744156715653
 20
-351.0032303385496
 30
0.0
  0
SPLINE
  5
239
330
1F
100
AcDbEntity
  8
FISHER & PAYKEL
 62
   250
420
  1316376
370
     9
100
AcDbSpline
210
0.0
220
0.0
230
1.0
 70
     8
 71
     3
 72
     8
 73
     4
 74
     0
 42
0.000000001
 43
0.0000000001
 40
4.012
 40
4.012
 40
4.012
 40
4.012
 40
5.012
 40
5.012
 40
5.012
 40
5.012
 10
893.8744156715653
 20
-351.0032303385496
 30
0.0
 10
893.8744156715653
 20
-351.1902055566604
 30
0.0
 10
893.8744156715653
 20
-351.2537065741321
 30
0.0
 10
893.853248665741
 20
-351.4230426207232
 30
0.0
  0
LINE
  5
23A
330
1F
100
AcDbEntity
  8
FISHER & PAYKEL
 62
   250
420
  1316376
370
     9
100
AcDbLine
 10
893.853248665741
 20
-351.4230426207232
 30
0.0
 11
884.8149371789499
 21
-351.4230426207232
 31
0.0
  0
SPLINE
  5
23B
330
1F
100
AcDbEntity
  8
FISHER & PAYKEL
 62
   250
420
  1316376
370
     9
100
AcDbSpline
210
0.0
220
0.0
230
1.0
 70
     8
 71
     3
 72
     8
 73
     4
 74
     0
 42
0.000000001
 43
0.0000000001
 40
7.574000000000012
 40
7.574000000000012
 40
7.574000000000012
 40
7.574000000000012
 40
8.574000000000012
 40
8.574000000000012
 40
8.574000000000012
 40
8.574000000000012
 10
884.8149371789499
 20
-351.4230426207232
 30
0.0
 10
885.0089680656689
 20
-354.1077245260503
 30
0.0
 10
886.9492769328566
 20
-355.6740829570164
 30
0.0
 10
889.0871445210672
 20
-355.6740829570164
 30
0.0
  0
SPLINE
  5
23C
330
1F
100
AcDbEntity
  8
FISHER & PAYKEL
 62
   250
420
  1316376
370
     9
100
AcDbSpline
210
0.0
220
0.0
230
1.0
 70
     8
 71
     3
 72
     8
 73
     4
 74
     0
 42
0.000000001
 43
0.0000000001
 40
8.574000000000012
 40
8.574000000000012
 40
8.574000000000012
 40
8.574000000000012
 40
9.574000000000012
 40
9.574000000000012
 40
9.574000000000012
 40
9.574000000000012
 10
889.0871445210672
 20
-355.6740829570164
 30
0.0
 10
890.7734493183685
 20
-355.6740829570164
 30
0.0
 10
891.9341068043774
 20
-354.936765587485
 30
0.0
 10
892.8266488832836
 20
-353.9807224911069
 30
0.0
  0
LINE
  5
23D
330
1F
100
AcDbEntity
  8
FISHER & PAYKEL
 62
   250
420
  1316376
370
     9
100
AcDbLine
 10
892.8266488832836
 20
-353.9807224911069
 30
0.0
 11
893.5533827499031
 21
-354.6192605001272
 31
0.0
  0
SPLINE
  5
23E
330
1F
100
AcDbEntity
  8
FISHER & PAYKEL
 62
   250
420
  1316376
370
     9
100
AcDbSpline
210
0.0
220
0.0
230
1.0
 70
     8
 71
     3
 72
     8
 73
     4
 74
     0
 42
0.000000001
 43
0.0000000001
 40
9.848220714024357
 40
9.848220714024357
 40
9.848220714024357
 40
9.848220714024357
 40
10.84822071402436
 40
10.84822071402436
 40
10.84822071402436
 40
10.84822071402436
 10
893.5533827499031
 20
-354.6192605001272
 30
0.0
 10
892.4421149441501
 20
-355.8010849919596
 30
0.0
 10
891.1403440859823
 20
-356.6477652249143
 30
0.0
 10
889.0448105094193
 20
-356.6477652249143
 30
0.0
  0
SPLINE
  5
23F
330
1F
100
AcDbEntity
  8
FISHER & PAYKEL
 62
   250
420
  1316376
370
     9
100
AcDbSpline
210
0.0
220
0.0
230
1.0
 70
     8
 71
     3
 72
     8
 73
     4
 74
     0
 42
0.000000001
 43
0.0000000001
 40
10.84822071402436
 40
10.84822071402436
 40
10.84822071402436
 40
10.84822071402436
 40
11.84822071402436
 40
11.84822071402436
 40
11.84822071402436
 40
11.84822071402436
 10
889.0448105094193
 20
-356.6477652249143
 30
0.0
 10
886.1837368888933
 20
-356.6477652249143
 30
0.0
 10
883.7036693731969
 20
-354.3864234360644
 30
0.0
 10
883.7036693731969
 20
-351.0208695100695
 30
0.0
  0
LINE
  5
240
330
1F
100
AcDbEntity
  8
FISHER & PAYKEL
 62
   250
420
  1316376
370
     9
100
AcDbLine
 10
871.3855303339975
 20
-340.9485497887824
 30
0.0
 11
872.433297122279
 21
-340.9485497887824
 31
0.0
  0
LINE
  5
241
330
1F
100
AcDbEntity
  8
FISHER & PAYKEL
 62
   250
420
  1316376
370
     9
100
AcDbLine
 10
872.433297122279
 20
-340.9485497887824
 30
0.0
 11
872.433297122279
 21
-347.6161566233006
 31
0.0
  0
SPLINE
  5
242
330
1F
100
AcDbEntity
  8
FISHER & PAYKEL
 62
   250
420
  1316376
370
     9
100
AcDbSpline
210
0.0
220
0.0
230
1.0
 70
     8
 71
     3
 72
     8
 73
     4
 74
     0
 42
0.000000001
 43
0.0000000001
 40
2.187000000000012
 40
2.187000000000012
 40
2.187000000000012
 40
2.187000000000012
 40
3.187000000000012
 40
3.187000000000012
 40
3.187000000000012
 40
3.187000000000012
 10
872.433297122279
 20
-347.6161566233006
 30
0.0
 10
873.1600309888983
 20
-346.3426084395646
 30
0.0
 10
874.3771338237706
 20
-345.3512870001468
 30
0.0
 10
876.3633045369103
 20
-345.3512870001468
 30
0.0
  0
SPLINE
  5
243
330
1F
100
AcDbEntity
  8
FISHER & PAYKEL
 62
   250
420
  1316376
370
     9
100
AcDbSpline
210
0.0
220
0.0
230
1.0
 70
     8
 71
     3
 72
     8
 73
     4
 74
     0
 42
0.000000001
 43
0.0000000001
 40
3.187000000000012
 40
3.187000000000012
 40
3.187000000000012
 40
3.187000000000012
 40
4.187000000000012
 40
4.187000000000012
 40
4.187000000000012
 40
4.187000000000012
 10
876.3633045369103
 20
-345.3512870001468
 30
0.0
 10
879.1220709626208
 20
-345.3512870001468
 30
0.0
 10
880.7201799023231
 20
-347.2104556783431
 30
0.0
 10
880.7201799023231
 20
-349.7963582231588
 30
0.0
  0
LINE
  5
244
330
1F
100
AcDbEntity
  8
FISHER & PAYKEL
 62
   250
420
  1316376
370
     9
100
AcDbLine
 10
880.7201799023231
 20
-349.7963582231588
 30
0.0
 11
880.7201799023231
 21
-356.3934083715973
 31
0.0
  0
LINE
  5
245
330
1F
100
AcDbEntity
  8
FISHER & PAYKEL
 62
   250
420
  1316376
370
     9
100
AcDbLine
 10
880.7201799023231
 20
-356.3934083715973
 30
0.0
 11
879.6759409483453
 21
-356.3934083715973
 31
0.0
  0
LINE
  5
246
330
1F
100
AcDbEntity
  8
FISHER & PAYKEL
 62
   250
420
  1316376
370
     9
100
AcDbLine
 10
879.6759409483453
 20
-356.3934083715973
 30
0.0
 11
879.6759409483453
 21
-349.9868612755737
 31
0.0
  0
SPLINE
  5
247
330
1F
100
AcDbEntity
  8
FISHER & PAYKEL
 62
   250
420
  1316376
370
     9
100
AcDbSpline
210
0.0
220
0.0
230
1.0
 70
     8
 71
     3
 72
     8
 73
     4
 74
     0
 42
0.000000001
 43
0.0000000001
 40
8.168999999999983
 40
8.168999999999983
 40
8.168999999999983
 40
8.168999999999983
 40
9.168999999999983
 40
9.168999999999983
 40
9.168999999999983
 40
9.168999999999983
 10
879.6759409483453
 20
-349.9868612755737
 30
0.0
 10
879.6759409483453
 20
-347.7643256640676
 30
0.0
 10
878.4129762675215
 20
-346.3038022622206
 30
0.0
 10
876.2151354961433
 20
-346.3038022622206
 30
0.0
  0
SPLINE
  5
248
330
1F
100
AcDbEntity
  8
FISHER & PAYKEL
 62
   250
420
  1316376
370
     9
100
AcDbSpline
210
0.0
220
0.0
230
1.0
 70
     8
 71
     3
 72
     8
 73
     4
 74
     0
 42
0.000000001
 43
0.0000000001
 40
9.168999999999983
 40
9.168999999999983
 40
9.168999999999983
 40
9.168999999999983
 40
10.16899999999998
 40
10.16899999999998
 40
10.16899999999998
 40
10.16899999999998
 10
876.2151354961433
 20
-346.3038022622206
 30
0.0
 10
874.0807957422365
 20
-346.3038022622206
 30
0.0
 10
872.433297122279
 20
-347.9124947048346
 30
0.0
 10
872.433297122279
 20
-350.1526694878605
 30
0.0
  0
LINE
  5
249
330
1F
100
AcDbEntity
  8
FISHER & PAYKEL
 62
   250
420
  1316376
370
     9
100
AcDbLine
 10
872.433297122279
 20
-350.1526694878605
 30
0.0
 11
872.433297122279
 21
-356.3934083715973
 31
0.0
  0
LINE
  5
24A
330
1F
100
AcDbEntity
  8
FISHER & PAYKEL
 62
   250
420
  1316376
370
     9
100
AcDbLine
 10
872.433297122279
 20
-356.3934083715973
 30
0.0
 11
871.3855303339975
 21
-356.3934083715973
 31
0.0
  0
LINE
  5
24B
330
1F
100
AcDbEntity
  8
FISHER & PAYKEL
 62
   250
420
  1316376
370
     9
100
AcDbLine
 10
871.3855303339975
 20
-356.3934083715973
 30
0.0
 11
871.3855303339975
 21
-340.9485497887824
 31
0.0
  0
LINE
  5
24C
330
1F
100
AcDbEntity
  8
FISHER & PAYKEL
 62
   250
420
  1316376
370
     9
100
AcDbLine
 10
858.4697761637041
 20
-351.0430948661846
 30
0.0
 11
858.4697761637041
 21
-351.000760854537
 31
0.0
  0
SPLINE
  5
24D
330
1F
100
AcDbEntity
  8
FISHER & PAYKEL
 62
   250
420
  1316376
370
     9
100
AcDbSpline
210
0.0
220
0.0
230
1.0
 70
     8
 71
     3
 72
     8
 73
     4
 74
     0
 42
0.000000001
 43
0.0000000001
 40
0.0120000000000005
 40
0.0120000000000005
 40
0.0120000000000005
 40
0.0120000000000005
 40
1.012
 40
1.012
 40
1.012
 40
1.012
 10
858.4697761637041
 20
-351.000760854537
 30
0.0
 10
858.4697761637041
 20
-347.973879021724
 30
0.0
 10
860.9039818334487
 20
-345.3526981338684
 30
0.0
 10
864.0261151924691
 20
-345.3526981338684
 30
0.0
  0
SPLINE
  5
24E
330
1F
100
AcDbEntity
  8
FISHER & PAYKEL
 62
   250
420
  1316376
370
     9
100
AcDbSpline
210
0.0
220
0.0
230
1.0
 70
     8
 71
     3
 72
     8
 73
     4
 74
     0
 42
0.000000001
 43
0.0000000001
 40
1.012
 40
1.012
 40
1.012
 40
1.012
 40
2.012
 40
2.012
 40
2.012
 40
2.012
 10
864.0261151924691
 20
-345.3526981338684
 30
0.0
 10
866.0757869230803
 20
-345.3526981338684
 30
0.0
 10
867.3634464440323
 20
-346.2805185558145
 30
0.0
 10
868.3865183921858
 20
-347.3388688470079
 30
0.0
  0
LINE
  5
24F
330
1F
100
AcDbEntity
  8
FISHER & PAYKEL
 62
   250
420
  1316376
370
     9
100
AcDbLine
 10
868.3865183921858
 20
-347.3388688470079
 30
0.0
 11
867.6386175197425
 21
-348.1008810566672
 31
0.0
  0
SPLINE
  5
250
330
1F
100
AcDbEntity
  8
FISHER & PAYKEL
 62
   250
420
  1316376
370
     9
100
AcDbSpline
210
0.0
220
0.0
230
1.0
 70
     8
 71
     3
 72
     8
 73
     4
 74
     0
 42
0.000000001
 43
0.0000000001
 40
2.31465491900843
 40
2.31465491900843
 40
2.31465491900843
 40
2.31465491900843
 40
3.31465491900843
 40
3.31465491900843
 40
3.31465491900843
 40
3.31465491900843
 10
867.6386175197425
 20
-348.1008810566672
 30
0.0
 10
866.6966857605804
 20
-347.1483657945932
 30
0.0
 10
865.6277519664753
 20
-346.3228525674621
 30
0.0
 10
864.0049481866455
 20
-346.3228525674621
 30
0.0
  0
SPLINE
  5
251
330
1F
100
AcDbEntity
  8
FISHER & PAYKEL
 62
   250
420
  1316376
370
     9
100
AcDbSpline
210
0.0
220
0.0
230
1.0
 70
     8
 71
     3
 72
     8
 73
     4
 74
     0
 42
0.000000001
 43
0.0000000001
 40
3.31465491900843
 40
3.31465491900843
 40
3.31465491900843
 40
3.31465491900843
 40
4.314654919008429
 40
4.314654919008429
 40
4.314654919008429
 40
4.314654919008429
 10
864.0049481866455
 20
-346.3228525674621
 30
0.0
 10
861.5248806709488
 20
-346.3228525674621
 30
0.0
 10
859.6022109752811
 20
-348.3760521323774
 30
0.0
 10
859.6022109752811
 20
-350.9584268428893
 30
0.0
  0
LINE
  5
252
330
1F
100
AcDbEntity
  8
FISHER & PAYKEL
 62
   250
420
  1316376
370
     9
100
AcDbLine
 10
859.6022109752811
 20
-350.9584268428893
 30
0.0
 11
859.6022109752811
 21
-351.000760854537
 31
0.0
  0
SPLINE
  5
253
330
1F
100
AcDbEntity
  8
FISHER & PAYKEL
 62
   250
420
  1316376
370
     9
100
AcDbSpline
210
0.0
220
0.0
230
1.0
 70
     8
 71
     3
 72
     8
 73
     4
 74
     0
 42
0.000000001
 43
0.0000000001
 40
4.32665491900843
 40
4.32665491900843
 40
4.32665491900843
 40
4.32665491900843
 40
5.32665491900843
 40
5.32665491900843
 40
5.32665491900843
 40
5.32665491900843
 10
859.6022109752811
 20
-351.000760854537
 30
0.0
 10
859.6022109752811
 20
-353.6043025708724
 30
0.0
 10
861.5883816884206
 20
-355.6716134730036
 30
0.0
 10
864.089616209941
 20
-355.6716134730036
 30
0.0
  0
SPLINE
  5
254
330
1F
100
AcDbEntity
  8
FISHER & PAYKEL
 62
   250
420
  1316376
370
     9
100
AcDbSpline
210
0.0
220
0.0
230
1.0
 70
     8
 71
     3
 72
     8
 73
     4
 74
     0
 42
0.000000001
 43
0.0000000001
 40
5.32665491900843
 40
5.32665491900843
 40
5.32665491900843
 40
5.32665491900843
 40
6.32665491900843
 40
6.32665491900843
 40
6.32665491900843
 40
6.32665491900843
 10
864.089616209941
 20
-355.6716134730036
 30
0.0
 10
865.6277519664753
 20
-355.6716134730036
 30
0.0
 10
866.8236877955236
 20
-354.8919620918245
 30
0.0
 10
867.7444525488621
 20
-353.8759458122788
 30
0.0
  0
LINE
  5
255
330
1F
100
AcDbEntity
  8
FISHER & PAYKEL
 62
   250
420
  1316376
370
     9
100
AcDbLine
 10
867.7444525488621
 20
-353.8759458122788
 30
0.0
 11
868.4711864154812
 21
-354.5109559869949
 31
0.0
  0
SPLINE
  5
256
330
1F
100
AcDbEntity
  8
FISHER & PAYKEL
 62
   250
420
  1316376
370
     9
100
AcDbSpline
210
0.0
220
0.0
230
1.0
 70
     8
 71
     3
 72
     8
 73
     4
 74
     0
 42
0.000000001
 43
0.0000000001
 40
6.600216612233169
 40
6.600216612233169
 40
6.600216612233169
 40
6.600216612233169
 40
7.600216612233169
 40
7.600216612233169
 40
7.600216612233169
 40
7.600216612233169
 10
868.4711864154812
 20
-354.5109559869949
 30
0.0
 10
867.3634464440323
 20
-355.759809330603
 30
0.0
 10
866.0334529114326
 20
-356.6488235752053
 30
0.0
 10
864.0261151924691
 20
-356.6488235752053
 30
0.0
  0
SPLINE
  5
257
330
1F
100
AcDbEntity
  8
FISHER & PAYKEL
 62
   250
420
  1316376
370
     9
100
AcDbSpline
210
0.0
220
0.0
230
1.0
 70
     8
 71
     3
 72
     8
 73
     4
 74
     0
 42
0.000000001
 43
0.0000000001
 40
7.600216612233169
 40
7.600216612233169
 40
7.600216612233169
 40
7.600216612233169
 40
8.600216612233169
 40
8.600216612233169
 40
8.600216612233169
 40
8.600216612233169
 10
864.0261151924691
 20
-356.6488235752053
 30
0.0
 10
860.8863426619288
 20
-356.6488235752053
 30
0.0
 10
858.4697761637041
 20
-354.0664488646937
 30
0.0
 10
858.4697761637041
 20
-351.0430948661846
 30
0.0
  0
LINE
  5
258
330
1F
100
AcDbEntity
  8
FISHER & PAYKEL
 62
   250
420
  1316376
370
     9
100
AcDbLine
 10
846.1498732073529
 20
-345.6067022037548
 30
0.0
 11
847.1976399956344
 21
-345.6067022037548
 31
0.0
  0
LINE
  5
259
330
1F
100
AcDbEntity
  8
FISHER & PAYKEL
 62
   250
420
  1316376
370
     9
100
AcDbLine
 10
847.1976399956344
 20
-345.6067022037548
 30
0.0
 11
847.1976399956344
 21
-347.6140399227183
 31
0.0
  0
SPLINE
  5
25A
330
1F
100
AcDbEntity
  8
FISHER & PAYKEL
 62
   250
420
  1316376
370
     9
100
AcDbSpline
210
0.0
220
0.0
230
1.0
 70
     8
 71
     3
 72
     8
 73
     4
 74
     0
 42
0.000000001
 43
0.0000000001
 40
0.8660000000000423
 40
0.8660000000000423
 40
0.8660000000000423
 40
0.8660000000000423
 40
1.866000000000042
 40
1.866000000000042
 40
1.866000000000042
 40
1.866000000000042
 10
847.1976399956344
 20
-347.6140399227183
 30
0.0
 10
847.9243738622537
 20
-346.3440195732862
 30
0.0
 10
849.1450045314301
 20
-345.3526981338684
 30
0.0
 10
851.1276474102655
 20
-345.3526981338684
 30
0.0
  0
SPLINE
  5
25B
330
1F
100
AcDbEntity
  8
FISHER & PAYKEL
 62
   250
420
  1316376
370
     9
100
AcDbSpline
210
0.0
220
0.0
230
1.0
 70
     8
 71
     3
 72
     8
 73
     4
 74
     0
 42
0.000000001
 43
0.0000000001
 40
1.866000000000042
 40
1.866000000000042
 40
1.866000000000042
 40
1.866000000000042
 40
2.866000000000042
 40
2.866000000000042
 40
2.866000000000042
 40
2.866000000000042
 10
851.1276474102655
 20
-345.3526981338684
 30
0.0
 10
853.8828860016723
 20
-345.3526981338684
 30
0.0
 10
855.4880506099822
 20
-347.2118668120647
 30
0.0
 10
855.4880506099822
 20
-349.7942415225766
 30
0.0
  0
LINE
  5
25C
330
1F
100
AcDbEntity
  8
FISHER & PAYKEL
 62
   250
420
  1316376
370
     9
100
AcDbLine
 10
855.4880506099822
 20
-349.7942415225766
 30
0.0
 11
855.4880506099822
 21
-356.3948195053192
 31
0.0
  0
LINE
  5
25D
330
1F
100
AcDbEntity
  8
FISHER & PAYKEL
 62
   250
420
  1316376
370
     9
100
AcDbLine
 10
855.4880506099822
 20
-356.3948195053192
 30
0.0
 11
854.4438116560049
 21
-356.3948195053192
 31
0.0
  0
LINE
  5
25E
330
1F
100
AcDbEntity
  8
FISHER & PAYKEL
 62
   250
420
  1316376
370
     9
100
AcDbLine
 10
854.4438116560049
 20
-356.3948195053192
 30
0.0
 11
854.4438116560049
 21
-349.9847445749912
 31
0.0
  0
SPLINE
  5
25F
330
1F
100
AcDbEntity
  8
FISHER & PAYKEL
 62
   250
420
  1316376
370
     9
100
AcDbSpline
210
0.0
220
0.0
230
1.0
 70
     8
 71
     3
 72
     8
 73
     4
 74
     0
 42
0.000000001
 43
0.0000000001
 40
6.850000000000023
 40
6.850000000000023
 40
6.850000000000023
 40
6.850000000000023
 40
7.850000000000023
 40
7.850000000000023
 40
7.850000000000023
 40
7.850000000000023
 10
854.4438116560049
 20
-349.9847445749912
 30
0.0
 10
854.4438116560049
 20
-347.7622089634853
 30
0.0
 10
853.1808469751805
 20
-346.3016855616383
 30
0.0
 10
850.9794783694987
 20
-346.3016855616383
 30
0.0
  0
SPLINE
  5
260
330
1F
100
AcDbEntity
  8
FISHER & PAYKEL
 62
   250
420
  1316376
370
     9
100
AcDbSpline
210
0.0
220
0.0
230
1.0
 70
     8
 71
     3
 72
     8
 73
     4
 74
     0
 42
0.000000001
 43
0.0000000001
 40
7.850000000000023
 40
7.850000000000023
 40
7.850000000000023
 40
7.850000000000023
 40
8.850000000000023
 40
8.850000000000023
 40
8.850000000000023
 40
8.850000000000023
 10
850.9794783694987
 20
-346.3016855616383
 30
0.0
 10
848.8416107812878
 20
-346.3016855616383
 30
0.0
 10
847.1976399956344
 20
-347.9103780042523
 30
0.0
 10
847.1976399956344
 20
-350.1540806215821
 30
0.0
  0
LINE
  5
261
330
1F
100
AcDbEntity
  8
FISHER & PAYKEL
 62
   250
420
  1316376
370
     9
100
AcDbLine
 10
847.1976399956344
 20
-350.1540806215821
 30
0.0
 11
847.1976399956344
 21
-356.3948195053192
 31
0.0
  0
LINE
  5
262
330
1F
100
AcDbEntity
  8
FISHER & PAYKEL
 62
   250
420
  1316376
370
     9
100
AcDbLine
 10
847.1976399956344
 20
-356.3948195053192
 30
0.0
 11
846.1498732073529
 21
-356.3948195053192
 31
0.0
  0
LINE
  5
263
330
1F
100
AcDbEntity
  8
FISHER & PAYKEL
 62
   250
420
  1316376
370
     9
100
AcDbLine
 10
846.1498732073529
 20
-356.3948195053192
 30
0.0
 11
846.1498732073529
 21
-345.6067022037548
 31
0.0
  0
POLYLINE
  5
264
330
1F
100
AcDbEntity
  8
FISHER & PAYKEL
 62
   250
420
  1316376
370
     9
100
AcDb2dPolyline
 66
     1
 10
0.0
 20
0.0
 30
0.0
 70
     1
  0
VERTEX
  5
265
330
264
100
AcDbEntity
  8
FISHER & PAYKEL
 62
   250
420
  1316376
370
     9
100
AcDbVertex
100
AcDb2dVertex
 10
840.7067776597452
 20
-341.5846183137896
 30
0.0
  0
VERTEX
  5
266
330
264
100
AcDbEntity
  8
FISHER & PAYKEL
 62
   250
420
  1316376
370
     9
100
AcDbVertex
100
AcDb2dVertex
 10
841.8180454654984
 20
-341.5846183137896
 30
0.0
  0
VERTEX
  5
267
330
264
100
AcDbEntity
  8
FISHER & PAYKEL
 62
   250
420
  1316376
370
     9
100
AcDbVertex
100
AcDb2dVertex
 10
841.8180454654984
 20
-356.3909388875847
 30
0.0
  0
VERTEX
  5
268
330
264
100
AcDbEntity
  8
FISHER & PAYKEL
 62
   250
420
  1316376
370
     9
100
AcDbVertex
100
AcDb2dVertex
 10
840.7067776597452
 20
-356.3909388875847
 30
0.0
  0
SEQEND
  5
269
330
264
100
AcDbEntity
  8
FISHER & PAYKEL
 62
   250
420
  1316376
370
     9
  0
LINE
  5
26A
330
1F
100
AcDbEntity
  8
FISHER & PAYKEL
 62
   250
420
  1316376
370
     9
100
AcDbLine
 10
322.0872650840012
 20
-299.7790762447914
 30
0.0
 11
322.0872650840012
 21
-299.7332143988398
 31
0.0
  0
SPLINE
  5
26B
330
1F
100
AcDbEntity
  8
FISHER & PAYKEL
 62
   250
420
  1316376
370
     9
100
AcDbSpline
210
0.0
220
0.0
230
1.0
 70
     8
 71
     3
 72
     8
 73
     4
 74
     0
 42
0.000000001
 43
0.0000000001
 40
0.0129999999999768
 40
0.0129999999999768
 40
0.0129999999999768
 40
0.0129999999999768
 40
1.012999999999977
 40
1.012999999999977
 40
1.012999999999977
 40
1.012999999999977
 10
322.0872650840012
 20
-299.7332143988398
 30
0.0
 10
322.0872650840012
 20
-296.2865202838533
 30
0.0
 10
320.1222613766856
 20
-293.0726632329294
 30
0.0
 10
317.0212950234889
 20
-293.0726632329294
 30
0.0
  0
SPLINE
  5
26C
330
1F
100
AcDbEntity
  8
FISHER & PAYKEL
 62
   250
420
  1316376
370
     9
100
AcDbSpline
210
0.0
220
0.0
230
1.0
 70
     8
 71
     3
 72
     8
 73
     4
 74
     0
 42
0.000000001
 43
0.0000000001
 40
1.012999999999977
 40
1.012999999999977
 40
1.012999999999977
 40
1.012999999999977
 40
2.012999999999977
 40
2.012999999999977
 40
2.012999999999977
 40
2.012999999999977
 10
317.0212950234889
 20
-293.0726632329294
 30
0.0
 10
313.9238565045965
 20
-293.0726632329294
 30
0.0
 10
312.0011868089285
 20
-296.2441862722055
 30
0.0
 10
312.0011868089285
 20
-299.6944082214961
 30
0.0
  0
LINE
  5
26D
330
1F
100
AcDbEntity
  8
FISHER & PAYKEL
 62
   250
420
  1316376
370
     9
100
AcDbLine
 10
312.0011868089285
 20
-299.6944082214961
 30
0.0
 11
312.0011868089285
 21
-299.7332143988398
 31
0.0
  0
SPLINE
  5
26E
330
1F
100
AcDbEntity
  8
FISHER & PAYKEL
 62
   250
420
  1316376
370
     9
100
AcDbSpline
210
0.0
220
0.0
230
1.0
 70
     8
 71
     3
 72
     8
 73
     4
 74
     0
 42
0.000000001
 43
0.0000000001
 40
2.024000000000001
 40
2.024000000000001
 40
2.024000000000001
 40
2.024000000000001
 40
3.024000000000001
 40
3.024000000000001
 40
3.024000000000001
 40
3.024000000000001
 10
312.0011868089285
 20
-299.7332143988398
 30
0.0
 10
312.0011868089285
 20
-303.1622693423062
 30
0.0
 10
313.9661905162442
 20
-306.400821233358
 30
0.0
 10
317.0671568694407
 20
-306.400821233358
 30
0.0
  0
SPLINE
  5
26F
330
1F
100
AcDbEntity
  8
FISHER & PAYKEL
 62
   250
420
  1316376
370
     9
100
AcDbSpline
210
0.0
220
0.0
230
1.0
 70
     8
 71
     3
 72
     8
 73
     4
 74
     0
 42
0.000000001
 43
0.0000000001
 40
3.024000000000001
 40
3.024000000000001
 40
3.024000000000001
 40
3.024000000000001
 40
4.024000000000001
 40
4.024000000000001
 40
4.024000000000001
 40
4.024000000000001
 10
317.0671568694407
 20
-306.400821233358
 30
0.0
 10
320.1645953883332
 20
-306.400821233358
 30
0.0
 10
322.0872650840012
 20
-303.204603353954
 30
0.0
 10
322.0872650840012
 20
-299.7790762447914
 30
0.0
  0
LINE
  5
270
330
1F
100
AcDbEntity
  8
FISHER & PAYKEL
 62
   250
420
  1316376
370
     9
100
AcDbLine
 10
310.8440571572237
 20
-299.7790762447914
 30
0.0
 11
310.8440571572237
 21
-299.7332143988398
 31
0.0
  0
SPLINE
  5
271
330
1F
100
AcDbEntity
  8
FISHER & PAYKEL
 62
   250
420
  1316376
370
     9
100
AcDbSpline
210
0.0
220
0.0
230
1.0
 70
     8
 71
     3
 72
     8
 73
     4
 74
     0
 42
0.000000001
 43
0.0000000001
 40
2.012999999999977
 40
2.012999999999977
 40
2.012999999999977
 40
2.012999999999977
 40
3.012999999999977
 40
3.012999999999977
 40
3.012999999999977
 40
3.012999999999977
 10
310.8440571572237
 20
-299.7332143988398
 30
0.0
 10
310.8440571572237
 20
-295.6515101091374
 30
0.0
 10
313.2606236554485
 20
-292.0742861249038
 30
0.0
 10
317.0671568694407
 20
-292.0742861249038
 30
0.0
  0
SPLINE
  5
272
330
1F
100
AcDbEntity
  8
FISHER & PAYKEL
 62
   250
420
  1316376
370
     9
100
AcDbSpline
210
0.0
220
0.0
230
1.0
 70
     8
 71
     3
 72
     8
 73
     4
 74
     0
 42
0.000000001
 43
0.0000000001
 40
3.012999999999977
 40
3.012999999999977
 40
3.012999999999977
 40
3.012999999999977
 40
4.012999999999977
 40
4.012999999999977
 40
4.012999999999977
 40
4.012999999999977
 10
317.0671568694407
 20
-292.0742861249038
 30
0.0
 10
320.8701622491289
 20
-292.0742861249038
 30
0.0
 10
323.2408669014019
 20
-295.6091760974898
 30
0.0
 10
323.2408669014019
 20
-299.6944082214961
 30
0.0
  0
LINE
  5
273
330
1F
100
AcDbEntity
  8
FISHER & PAYKEL
 62
   250
420
  1316376
370
     9
100
AcDbLine
 10
323.2408669014019
 20
-299.6944082214961
 30
0.0
 11
323.2408669014019
 21
-299.7332143988398
 31
0.0
  0
SPLINE
  5
274
330
1F
100
AcDbEntity
  8
FISHER & PAYKEL
 62
   250
420
  1316376
370
     9
100
AcDbSpline
210
0.0
220
0.0
230
1.0
 70
     8
 71
     3
 72
     8
 73
     4
 74
     0
 42
0.000000001
 43
0.0000000001
 40
4.024000000000001
 40
4.024000000000001
 40
4.024000000000001
 40
4.024000000000001
 40
5.024000000000001
 40
5.024000000000001
 40
5.024000000000001
 40
5.024000000000001
 10
323.2408669014019
 20
-299.7332143988398
 30
0.0
 10
323.2408669014019
 20
-303.8184465228459
 30
0.0
 10
320.827828237481
 20
-307.3921426727756
 30
0.0
 10
317.0212950234889
 20
-307.3921426727756
 30
0.0
  0
SPLINE
  5
275
330
1F
100
AcDbEntity
  8
FISHER & PAYKEL
 62
   250
420
  1316376
370
     9
100
AcDbSpline
210
0.0
220
0.0
230
1.0
 70
     8
 71
     3
 72
     8
 73
     4
 74
     0
 42
0.000000001
 43
0.0000000001
 40
5.024000000000001
 40
5.024000000000001
 40
5.024000000000001
 40
5.024000000000001
 40
6.024000000000001
 40
6.024000000000001
 40
6.024000000000001
 40
6.024000000000001
 10
317.0212950234889
 20
-307.3921426727756
 30
0.0
 10
313.2182896438008
 20
-307.3921426727756
 30
0.0
 10
310.8440571572237
 20
-303.8607805344938
 30
0.0
 10
310.8440571572237
 20
-299.7790762447914
 30
0.0
  0
LINE
  5
276
330
1F
100
AcDbEntity
  8
FISHER & PAYKEL
 62
   250
420
  1316376
370
     9
100
AcDbLine
 10
836.3862389876637
 20
-299.7790762447914
 30
0.0
 11
836.3862389876637
 21
-299.7332143988398
 31
0.0
  0
SPLINE
  5
277
330
1F
100
AcDbEntity
  8
FISHER & PAYKEL
 62
   250
420
  1316376
370
     9
100
AcDbSpline
210
0.0
220
0.0
230
1.0
 70
     8
 71
     3
 72
     8
 73
     4
 74
     0
 42
0.000000001
 43
0.0000000001
 40
0.0129999999999768
 40
0.0129999999999768
 40
0.0129999999999768
 40
0.0129999999999768
 40
1.012999999999977
 40
1.012999999999977
 40
1.012999999999977
 40
1.012999999999977
 10
836.3862389876637
 20
-299.7332143988398
 30
0.0
 10
836.3862389876637
 20
-296.2865202838533
 30
0.0
 10
834.4177074460441
 20
-293.0726632329294
 30
0.0
 10
831.3202689271515
 20
-293.0726632329294
 30
0.0
  0
SPLINE
  5
278
330
1F
100
AcDbEntity
  8
FISHER & PAYKEL
 62
   250
420
  1316376
370
     9
100
AcDbSpline
210
0.0
220
0.0
230
1.0
 70
     8
 71
     3
 72
     8
 73
     4
 74
     0
 42
0.000000001
 43
0.0000000001
 40
1.012999999999977
 40
1.012999999999977
 40
1.012999999999977
 40
1.012999999999977
 40
2.012999999999977
 40
2.012999999999977
 40
2.012999999999977
 40
2.012999999999977
 10
831.3202689271515
 20
-293.0726632329294
 30
0.0
 10
828.2263582425629
 20
-293.0726632329294
 30
0.0
 10
826.300160712591
 20
-296.2441862722055
 30
0.0
 10
826.300160712591
 20
-299.6944082214961
 30
0.0
  0
LINE
  5
279
330
1F
100
AcDbEntity
  8
FISHER & PAYKEL
 62
   250
420
  1316376
370
     9
100
AcDbLine
 10
826.300160712591
 20
-299.6944082214961
 30
0.0
 11
826.300160712591
 21
-299.7332143988398
 31
0.0
  0
SPLINE
  5
27A
330
1F
100
AcDbEntity
  8
FISHER & PAYKEL
 62
   250
420
  1316376
370
     9
100
AcDbSpline
210
0.0
220
0.0
230
1.0
 70
     8
 71
     3
 72
     8
 73
     4
 74
     0
 42
0.000000001
 43
0.0000000001
 40
2.024000000000001
 40
2.024000000000001
 40
2.024000000000001
 40
2.024000000000001
 40
3.024000000000001
 40
3.024000000000001
 40
3.024000000000001
 40
3.024000000000001
 10
826.300160712591
 20
-299.7332143988398
 30
0.0
 10
826.300160712591
 20
-303.1622693423062
 30
0.0
 10
828.2651644199067
 20
-306.400821233358
 30
0.0
 10
831.3661307731032
 20
-306.400821233358
 30
0.0
  0
SPLINE
  5
27B
330
1F
100
AcDbEntity
  8
FISHER & PAYKEL
 62
   250
420
  1316376
370
     9
100
AcDbSpline
210
0.0
220
0.0
230
1.0
 70
     8
 71
     3
 72
     8
 73
     4
 74
     0
 42
0.000000001
 43
0.0000000001
 40
3.024000000000001
 40
3.024000000000001
 40
3.024000000000001
 40
3.024000000000001
 40
4.024000000000001
 40
4.024000000000001
 40
4.024000000000001
 40
4.024000000000001
 10
831.3661307731032
 20
-306.400821233358
 30
0.0
 10
834.4635692919957
 20
-306.400821233358
 30
0.0
 10
836.3862389876637
 20
-303.204603353954
 30
0.0
 10
836.3862389876637
 20
-299.7790762447914
 30
0.0
  0
LINE
  5
27C
330
1F
100
AcDbEntity
  8
FISHER & PAYKEL
 62
   250
420
  1316376
370
     9
100
AcDbLine
 10
825.1430310608863
 20
-299.7790762447914
 30
0.0
 11
825.1430310608863
 21
-299.7332143988398
 31
0.0
  0
SPLINE
  5
27D
330
1F
100
AcDbEntity
  8
FISHER & PAYKEL
 62
   250
420
  1316376
370
     9
100
AcDbSpline
210
0.0
220
0.0
230
1.0
 70
     8
 71
     3
 72
     8
 73
     4
 74
     0
 42
0.000000001
 43
0.0000000001
 40
2.012999999999977
 40
2.012999999999977
 40
2.012999999999977
 40
2.012999999999977
 40
3.012999999999977
 40
3.012999999999977
 40
3.012999999999977
 40
3.012999999999977
 10
825.1430310608863
 20
-299.7332143988398
 30
0.0
 10
825.1430310608863
 20
-295.6515101091374
 30
0.0
 10
827.5595975591112
 20
-292.0742861249038
 30
0.0
 10
831.3661307731032
 20
-292.0742861249038
 30
0.0
  0
SPLINE
  5
27E
330
1F
100
AcDbEntity
  8
FISHER & PAYKEL
 62
   250
420
  1316376
370
     9
100
AcDbSpline
210
0.0
220
0.0
230
1.0
 70
     8
 71
     3
 72
     8
 73
     4
 74
     0
 42
0.000000001
 43
0.0000000001
 40
3.012999999999977
 40
3.012999999999977
 40
3.012999999999977
 40
3.012999999999977
 40
4.012999999999977
 40
4.012999999999977
 40
4.012999999999977
 40
4.012999999999977
 10
831.3661307731032
 20
-292.0742861249038
 30
0.0
 10
835.1691361527911
 20
-292.0742861249038
 30
0.0
 10
837.5398408050645
 20
-295.6091760974898
 30
0.0
 10
837.5398408050645
 20
-299.6944082214961
 30
0.0
  0
LINE
  5
27F
330
1F
100
AcDbEntity
  8
FISHER & PAYKEL
 62
   250
420
  1316376
370
     9
100
AcDbLine
 10
837.5398408050645
 20
-299.6944082214961
 30
0.0
 11
837.5398408050645
 21
-299.7332143988398
 31
0.0
  0
SPLINE
  5
280
330
1F
100
AcDbEntity
  8
FISHER & PAYKEL
 62
   250
420
  1316376
370
     9
100
AcDbSpline
210
0.0
220
0.0
230
1.0
 70
     8
 71
     3
 72
     8
 73
     4
 74
     0
 42
0.000000001
 43
0.0000000001
 40
4.024000000000001
 40
4.024000000000001
 40
4.024000000000001
 40
4.024000000000001
 40
5.024000000000001
 40
5.024000000000001
 40
5.024000000000001
 40
5.024000000000001
 10
837.5398408050645
 20
-299.7332143988398
 30
0.0
 10
837.5398408050645
 20
-303.8184465228459
 30
0.0
 10
835.1268021411435
 20
-307.3921426727756
 30
0.0
 10
831.3202689271515
 20
-307.3921426727756
 30
0.0
  0
SPLINE
  5
281
330
1F
100
AcDbEntity
  8
FISHER & PAYKEL
 62
   250
420
  1316376
370
     9
100
AcDbSpline
210
0.0
220
0.0
230
1.0
 70
     8
 71
     3
 72
     8
 73
     4
 74
     0
 42
0.000000001
 43
0.0000000001
 40
5.024000000000001
 40
5.024000000000001
 40
5.024000000000001
 40
5.024000000000001
 40
6.024000000000001
 40
6.024000000000001
 40
6.024000000000001
 40
6.024000000000001
 10
831.3202689271515
 20
-307.3921426727756
 30
0.0
 10
827.5172635474634
 20
-307.3921426727756
 30
0.0
 10
825.1430310608863
 20
-303.8607805344938
 30
0.0
 10
825.1430310608863
 20
-299.7790762447914
 30
0.0
  0
LINE
  5
282
330
1F
100
AcDbEntity
  8
FISHER & PAYKEL
 62
   250
420
  1316376
370
     9
100
AcDbLine
 10
812.2082265853516
 20
-306.3147420763409
 30
0.0
 11
817.7857326199409
 21
-301.3228565362119
 31
0.0
  0
SPLINE
  5
283
330
1F
100
AcDbEntity
  8
FISHER & PAYKEL
 62
   250
420
  1316376
370
     9
100
AcDbSpline
210
0.0
220
0.0
230
1.0
 70
     8
 71
     3
 72
     8
 73
     4
 74
     0
 42
0.000000001
 43
0.0000000001
 40
2.121741266036095
 40
2.121741266036095
 40
2.121741266036095
 40
2.121741266036095
 40
3.121741266036095
 40
3.121741266036095
 40
3.121741266036095
 40
3.121741266036095
 10
817.7857326199409
 20
-301.3228565362119
 30
0.0
 10
820.2411052955091
 20
-299.100320924706
 30
0.0
 10
821.0983690313757
 20
-297.8303005752741
 30
0.0
 10
821.0983690313757
 20
-296.2639421443079
 30
0.0
  0
SPLINE
  5
284
330
1F
100
AcDbEntity
  8
FISHER & PAYKEL
 62
   250
420
  1316376
370
     9
100
AcDbSpline
210
0.0
220
0.0
230
1.0
 70
     8
 71
     3
 72
     8
 73
     4
 74
     0
 42
0.000000001
 43
0.0000000001
 40
3.121741266036095
 40
3.121741266036095
 40
3.121741266036095
 40
3.121741266036095
 40
4.121741266036095
 40
4.121741266036095
 40
4.121741266036095
 40
4.121741266036095
 10
821.0983690313757
 20
-296.2639421443079
 30
0.0
 10
821.0983690313757
 20
-294.3412724486399
 30
0.0
 10
819.5143714288898
 20
-293.0924191050319
 30
0.0
 10
817.718703768165
 20
-293.0924191050319
 30
0.0
  0
SPLINE
  5
285
330
1F
100
AcDbEntity
  8
FISHER & PAYKEL
 62
   250
420
  1316376
370
     9
100
AcDbSpline
210
0.0
220
0.0
230
1.0
 70
     8
 71
     3
 72
     8
 73
     4
 74
     0
 42
0.000000001
 43
0.0000000001
 40
4.121741266036095
 40
4.121741266036095
 40
4.121741266036095
 40
4.121741266036095
 40
5.121741266036095
 40
5.121741266036095
 40
5.121741266036095
 40
5.121741266036095
 10
817.718703768165
 20
-293.0924191050319
 30
0.0
 10
815.8172010783211
 20
-293.0924191050319
 30
0.0
 10
814.5824590719286
 20
-294.0661013729297
 30
0.0
 10
813.3406613969286
 20
-295.8441298621346
 30
0.0
  0
LINE
  5
286
330
1F
100
AcDbEntity
  8
FISHER & PAYKEL
 62
   250
420
  1316376
370
     9
100
AcDbLine
 10
813.3406613969286
 20
-295.8441298621346
 30
0.0
 11
812.5080925011895
 21
-295.293787710714
 31
0.0
  0
SPLINE
  5
287
330
1F
100
AcDbEntity
  8
FISHER & PAYKEL
 62
   250
420
  1316376
370
     9
100
AcDbSpline
210
0.0
220
0.0
230
1.0
 70
     8
 71
     3
 72
     8
 73
     4
 74
     0
 42
0.000000001
 43
0.0000000001
 40
5.404640541397528
 40
5.404640541397528
 40
5.404640541397528
 40
5.404640541397528
 40
6.404640541397528
 40
6.404640541397528
 40
6.404640541397528
 40
6.404640541397528
 10
812.5080925011895
 20
-295.293787710714
 30
0.0
 10
813.8098633593576
 20
-293.3252561690942
 30
0.0
 10
815.1998300751249
 20
-292.1222646714379
 30
0.0
 10
817.8280666315883
 20
-292.1222646714379
 30
0.0
  0
SPLINE
  5
288
330
1F
100
AcDbEntity
  8
FISHER & PAYKEL
 62
   250
420
  1316376
370
     9
100
AcDbSpline
210
0.0
220
0.0
230
1.0
 70
     8
 71
     3
 72
     8
 73
     4
 74
     0
 42
0.000000001
 43
0.0000000001
 40
6.404640541397528
 40
6.404640541397528
 40
6.404640541397528
 40
6.404640541397528
 40
7.404640541397528
 40
7.404640541397528
 40
7.404640541397528
 40
7.404640541397528
 10
817.8280666315883
 20
-292.1222646714379
 30
0.0
 10
820.3681073304523
 20
-292.1222646714379
 30
0.0
 10
822.2731378546003
 20
-293.8755983205148
 30
0.0
 10
822.2731378546003
 20
-296.1828019553165
 30
0.0
  0
LINE
  5
289
330
1F
100
AcDbEntity
  8
FISHER & PAYKEL
 62
   250
420
  1316376
370
     9
100
AcDbLine
 10
822.2731378546003
 20
-296.1828019553165
 30
0.0
 11
822.2731378546003
 21
-296.2251359669642
 31
0.0
  0
SPLINE
  5
28A
330
1F
100
AcDbEntity
  8
FISHER & PAYKEL
 62
   250
420
  1316376
370
     9
100
AcDbSpline
210
0.0
220
0.0
230
1.0
 70
     8
 71
     3
 72
     8
 73
     4
 74
     0
 42
0.000000001
 43
0.0000000001
 40
7.416640541397529
 40
7.416640541397529
 40
7.416640541397529
 40
7.416640541397529
 40
8.416640541397529
 40
8.416640541397529
 40
8.416640541397529
 40
8.416640541397529
 10
822.2731378546003
 20
-296.2251359669642
 30
0.0
 10
822.2731378546003
 20
-298.2571685260554
 30
0.0
 10
821.1618700488474
 20
-299.6083290644789
 30
0.0
 10
818.533633492384
 20
-301.9790337167521
 30
0.0
  0
LINE
  5
28B
330
1F
100
AcDbEntity
  8
FISHER & PAYKEL
 62
   250
420
  1316376
370
     9
100
AcDbLine
 10
818.533633492384
 20
-301.9790337167521
 30
0.0
 11
813.9615602344287
 21
-306.0854328465823
 31
0.0
  0
LINE
  5
28C
330
1F
100
AcDbEntity
  8
FISHER & PAYKEL
 62
   250
420
  1316376
370
     9
100
AcDbLine
 10
813.9615602344287
 20
-306.0854328465823
 30
0.0
 11
822.4248347296715
 21
-306.0854328465823
 31
0.0
  0
LINE
  5
28D
330
1F
100
AcDbEntity
  8
FISHER & PAYKEL
 62
   250
420
  1316376
370
     9
100
AcDbLine
 10
822.4248347296715
 20
-306.0854328465823
 30
0.0
 11
822.4248347296715
 21
-307.1367274691676
 31
0.0
  0
LINE
  5
28E
330
1F
100
AcDbEntity
  8
FISHER & PAYKEL
 62
   250
420
  1316376
370
     9
100
AcDbLine
 10
822.4248347296715
 20
-307.1367274691676
 30
0.0
 11
812.2082265853516
 21
-307.1367274691676
 31
0.0
  0
LINE
  5
28F
330
1F
100
AcDbEntity
  8
FISHER & PAYKEL
 62
   250
420
  1316376
370
     9
100
AcDbLine
 10
812.2082265853516
 20
-307.1367274691676
 30
0.0
 11
812.2082265853516
 21
-306.3147420763409
 31
0.0
  0
LINE
  5
290
330
1F
100
AcDbEntity
  8
FISHER & PAYKEL
 62
   250
420
  1316376
370
     9
100
AcDbLine
 10
579.6604449357402
 20
-299.7790762447914
 30
0.0
 11
579.6604449357402
 21
-299.7332143988398
 31
0.0
  0
SPLINE
  5
291
330
1F
100
AcDbEntity
  8
FISHER & PAYKEL
 62
   250
420
  1316376
370
     9
100
AcDbSpline
210
0.0
220
0.0
230
1.0
 70
     8
 71
     3
 72
     8
 73
     4
 74
     0
 42
0.000000001
 43
0.0000000001
 40
0.0129999999999768
 40
0.0129999999999768
 40
0.0129999999999768
 40
0.0129999999999768
 40
1.012999999999977
 40
1.012999999999977
 40
1.012999999999977
 40
1.012999999999977
 10
579.6604449357402
 20
-299.7332143988398
 30
0.0
 10
579.6604449357402
 20
-296.2865202838533
 30
0.0
 10
577.6954412284246
 20
-293.0726632329294
 30
0.0
 10
574.594474875228
 20
-293.0726632329294
 30
0.0
  0
SPLINE
  5
292
330
1F
100
AcDbEntity
  8
FISHER & PAYKEL
 62
   250
420
  1316376
370
     9
100
AcDbSpline
210
0.0
220
0.0
230
1.0
 70
     8
 71
     3
 72
     8
 73
     4
 74
     0
 42
0.000000001
 43
0.0000000001
 40
1.012999999999977
 40
1.012999999999977
 40
1.012999999999977
 40
1.012999999999977
 40
2.012999999999977
 40
2.012999999999977
 40
2.012999999999977
 40
2.012999999999977
 10
574.594474875228
 20
-293.0726632329294
 30
0.0
 10
571.4970363563353
 20
-293.0726632329294
 30
0.0
 10
569.5743666606676
 20
-296.2441862722055
 30
0.0
 10
569.5743666606676
 20
-299.6944082214961
 30
0.0
  0
LINE
  5
293
330
1F
100
AcDbEntity
  8
FISHER & PAYKEL
 62
   250
420
  1316376
370
     9
100
AcDbLine
 10
569.5743666606676
 20
-299.6944082214961
 30
0.0
 11
569.5743666606676
 21
-299.7332143988398
 31
0.0
  0
SPLINE
  5
294
330
1F
100
AcDbEntity
  8
FISHER & PAYKEL
 62
   250
420
  1316376
370
     9
100
AcDbSpline
210
0.0
220
0.0
230
1.0
 70
     8
 71
     3
 72
     8
 73
     4
 74
     0
 42
0.000000001
 43
0.0000000001
 40
2.024000000000001
 40
2.024000000000001
 40
2.024000000000001
 40
2.024000000000001
 40
3.024000000000001
 40
3.024000000000001
 40
3.024000000000001
 40
3.024000000000001
 10
569.5743666606676
 20
-299.7332143988398
 30
0.0
 10
569.5743666606676
 20
-303.1622693423062
 30
0.0
 10
571.5393703679832
 20
-306.400821233358
 30
0.0
 10
574.6403367211796
 20
-306.400821233358
 30
0.0
  0
SPLINE
  5
295
330
1F
100
AcDbEntity
  8
FISHER & PAYKEL
 62
   250
420
  1316376
370
     9
100
AcDbSpline
210
0.0
220
0.0
230
1.0
 70
     8
 71
     3
 72
     8
 73
     4
 74
     0
 42
0.000000001
 43
0.0000000001
 40
3.024000000000001
 40
3.024000000000001
 40
3.024000000000001
 40
3.024000000000001
 40
4.024000000000001
 40
4.024000000000001
 40
4.024000000000001
 40
4.024000000000001
 10
574.6403367211796
 20
-306.400821233358
 30
0.0
 10
577.7377752400722
 20
-306.400821233358
 30
0.0
 10
579.6604449357402
 20
-303.204603353954
 30
0.0
 10
579.6604449357402
 20
-299.7790762447914
 30
0.0
  0
LINE
  5
296
330
1F
100
AcDbEntity
  8
FISHER & PAYKEL
 62
   250
420
  1316376
370
     9
100
AcDbLine
 10
568.4172370089628
 20
-299.7790762447914
 30
0.0
 11
568.4172370089628
 21
-299.7332143988398
 31
0.0
  0
SPLINE
  5
297
330
1F
100
AcDbEntity
  8
FISHER & PAYKEL
 62
   250
420
  1316376
370
     9
100
AcDbSpline
210
0.0
220
0.0
230
1.0
 70
     8
 71
     3
 72
     8
 73
     4
 74
     0
 42
0.000000001
 43
0.0000000001
 40
2.012999999999977
 40
2.012999999999977
 40
2.012999999999977
 40
2.012999999999977
 40
3.012999999999977
 40
3.012999999999977
 40
3.012999999999977
 40
3.012999999999977
 10
568.4172370089628
 20
-299.7332143988398
 30
0.0
 10
568.4172370089628
 20
-295.6515101091374
 30
0.0
 10
570.8338035071876
 20
-292.0742861249038
 30
0.0
 10
574.6403367211796
 20
-292.0742861249038
 30
0.0
  0
SPLINE
  5
298
330
1F
100
AcDbEntity
  8
FISHER & PAYKEL
 62
   250
420
  1316376
370
     9
100
AcDbSpline
210
0.0
220
0.0
230
1.0
 70
     8
 71
     3
 72
     8
 73
     4
 74
     0
 42
0.000000001
 43
0.0000000001
 40
3.012999999999977
 40
3.012999999999977
 40
3.012999999999977
 40
3.012999999999977
 40
4.012999999999977
 40
4.012999999999977
 40
4.012999999999977
 40
4.012999999999977
 10
574.6403367211796
 20
-292.0742861249038
 30
0.0
 10
578.4433421008677
 20
-292.0742861249038
 30
0.0
 10
580.8140467531408
 20
-295.6091760974898
 30
0.0
 10
580.8140467531408
 20
-299.6944082214961
 30
0.0
  0
LINE
  5
299
330
1F
100
AcDbEntity
  8
FISHER & PAYKEL
 62
   250
420
  1316376
370
     9
100
AcDbLine
 10
580.8140467531408
 20
-299.6944082214961
 30
0.0
 11
580.8140467531408
 21
-299.7332143988398
 31
0.0
  0
SPLINE
  5
29A
330
1F
100
AcDbEntity
  8
FISHER & PAYKEL
 62
   250
420
  1316376
370
     9
100
AcDbSpline
210
0.0
220
0.0
230
1.0
 70
     8
 71
     3
 72
     8
 73
     4
 74
     0
 42
0.000000001
 43
0.0000000001
 40
4.024000000000001
 40
4.024000000000001
 40
4.024000000000001
 40
4.024000000000001
 40
5.024000000000001
 40
5.024000000000001
 40
5.024000000000001
 40
5.024000000000001
 10
580.8140467531408
 20
-299.7332143988398
 30
0.0
 10
580.8140467531408
 20
-303.8184465228459
 30
0.0
 10
578.40100808922
 20
-307.3921426727756
 30
0.0
 10
574.594474875228
 20
-307.3921426727756
 30
0.0
  0
SPLINE
  5
29B
330
1F
100
AcDbEntity
  8
FISHER & PAYKEL
 62
   250
420
  1316376
370
     9
100
AcDbSpline
210
0.0
220
0.0
230
1.0
 70
     8
 71
     3
 72
     8
 73
     4
 74
     0
 42
0.000000001
 43
0.0000000001
 40
5.024000000000001
 40
5.024000000000001
 40
5.024000000000001
 40
5.024000000000001
 40
6.024000000000001
 40
6.024000000000001
 40
6.024000000000001
 40
6.024000000000001
 10
574.594474875228
 20
-307.3921426727756
 30
0.0
 10
570.7914694955399
 20
-307.3921426727756
 30
0.0
 10
568.4172370089628
 20
-303.8607805344938
 30
0.0
 10
568.4172370089628
 20
-299.7790762447914
 30
0.0
  0
POLYLINE
  5
29C
330
1F
100
AcDbEntity
  8
FISHER & PAYKEL
 62
   250
420
  1316376
370
     9
100
AcDb2dPolyline
 66
     1
 10
0.0
 20
0.0
 30
0.0
 70
     1
  0
VERTEX
  5
29D
330
29C
100
AcDbEntity
  8
FISHER & PAYKEL
 62
   250
420
  1316376
370
     9
100
AcDbVertex
100
AcDb2dVertex
 10
563.7248646012416
 20
-293.3675901807421
 30
0.0
  0
VERTEX
  5
29E
330
29C
100
AcDbEntity
  8
FISHER & PAYKEL
 62
   250
420
  1316376
370
     9
100
AcDbVertex
100
AcDb2dVertex
 10
560.8390961405879
 20
-294.3412724486399
 30
0.0
  0
VERTEX
  5
29F
330
29C
100
AcDbEntity
  8
FISHER & PAYKEL
 62
   250
420
  1316376
370
     9
100
AcDbVertex
100
AcDb2dVertex
 10
560.5392302247498
 20
-293.4734252098612
 30
0.0
  0
VERTEX
  5
2A0
330
29C
100
AcDbEntity
  8
FISHER & PAYKEL
 62
   250
420
  1316376
370
     9
100
AcDbVertex
100
AcDb2dVertex
 10
563.9577016653042
 20
-292.2245718662531
 30
0.0
  0
VERTEX
  5
2A1
330
29C
100
AcDbEntity
  8
FISHER & PAYKEL
 62
   250
420
  1316376
370
     9
100
AcDbVertex
100
AcDb2dVertex
 10
564.814965401171
 20
-292.2245718662531
 30
0.0
  0
VERTEX
  5
2A2
330
29C
100
AcDbEntity
  8
FISHER & PAYKEL
 62
   250
420
  1316376
370
     9
100
AcDbVertex
100
AcDb2dVertex
 10
564.814965401171
 20
-307.1367274691676
 30
0.0
  0
VERTEX
  5
2A3
330
29C
100
AcDbEntity
  8
FISHER & PAYKEL
 62
   250
420
  1316376
370
     9
100
AcDbVertex
100
AcDb2dVertex
 10
563.7248646012416
 20
-307.1367274691676
 30
0.0
  0
SEQEND
  5
2A4
330
29C
100
AcDbEntity
  8
FISHER & PAYKEL
 62
   250
420
  1316376
370
     9
  0
LINE
  5
2A5
330
1F
100
AcDbEntity
  8
FISHER & PAYKEL
 62
   250
420
  1316376
370
     9
100
AcDbLine
 10
438.8021351968042
 20
-305.0020349318308
 30
0.0
 11
439.592370080895
 21
-304.2188557163476
 31
0.0
  0
SPLINE
  5
2A6
330
1F
100
AcDbEntity
  8
FISHER & PAYKEL
 62
   250
420
  1316376
370
     9
100
AcDbSpline
210
0.0
220
0.0
230
1.0
 70
     8
 71
     3
 72
     8
 73
     4
 74
     0
 42
0.000000001
 43
0.0000000001
 40
0.3153727952756245
 40
0.3153727952756245
 40
0.3153727952756245
 40
0.3153727952756245
 40
1.315372795275624
 40
1.315372795275624
 40
1.315372795275624
 40
1.315372795275624
 10
439.592370080895
 20
-304.2188557163476
 30
0.0
 10
440.9400027850145
 20
-305.5523770832512
 30
0.0
 10
442.4993055473728
 20
-306.3990573162059
 30
0.0
 10
444.0797753155549
 20
-306.3990573162059
 30
0.0
  0
SPLINE
  5
2A7
330
1F
100
AcDbEntity
  8
FISHER & PAYKEL
 62
   250
420
  1316376
370
     9
100
AcDbSpline
210
0.0
220
0.0
230
1.0
 70
     8
 71
     3
 72
     8
 73
     4
 74
     0
 42
0.000000001
 43
0.0000000001
 40
1.315372795275624
 40
1.315372795275624
 40
1.315372795275624
 40
1.315372795275624
 40
2.315372795275624
 40
2.315372795275624
 40
2.315372795275624
 40
2.315372795275624
 10
444.0797753155549
 20
-306.3990573162059
 30
0.0
 10
446.4540078021319
 20
-306.3990573162059
 30
0.0
 10
448.0979785877856
 20
-304.7480308619442
 30
0.0
 10
448.0979785877856
 20
-302.6771921255094
 30
0.0
  0
LINE
  5
2A8
330
1F
100
AcDbEntity
  8
FISHER & PAYKEL
 62
   250
420
  1316376
370
     9
100
AcDbLine
 10
448.0979785877856
 20
-302.6771921255094
 30
0.0
 11
448.0979785877856
 21
-302.6313302795574
 31
0.0
  0
SPLINE
  5
2A9
330
1F
100
AcDbEntity
  8
FISHER & PAYKEL
 62
   250
420
  1316376
370
     9
100
AcDbSpline
210
0.0
220
0.0
230
1.0
 70
     8
 71
     3
 72
     8
 73
     4
 74
     0
 42
0.000000001
 43
0.0000000001
 40
2.328372795275658
 40
2.328372795275658
 40
2.328372795275658
 40
2.328372795275658
 40
3.328372795275658
 40
3.328372795275658
 40
3.328372795275658
 40
3.328372795275658
 10
448.0979785877856
 20
-302.6313302795574
 30
0.0
 10
448.0979785877856
 20
-300.5816585489465
 30
0.0
 10
446.4116737904843
 20
-299.1211351470997
 30
0.0
 10
443.9951072922594
 20
-299.1211351470997
 30
0.0
  0
SPLINE
  5
2AA
330
1F
100
AcDbEntity
  8
FISHER & PAYKEL
 62
   250
420
  1316376
370
     9
100
AcDbSpline
210
0.0
220
0.0
230
1.0
 70
     8
 71
     3
 72
     8
 73
     4
 74
     0
 42
0.000000001
 43
0.0000000001
 40
3.328372795275658
 40
3.328372795275658
 40
3.328372795275658
 40
3.328372795275658
 40
4.328372795275659
 40
4.328372795275659
 40
4.328372795275659
 40
4.328372795275659
 10
443.9951072922594
 20
-299.1211351470997
 30
0.0
 10
442.6051405764921
 20
-299.1211351470997
 30
0.0
 10
441.5609016225147
 20
-299.5444752635769
 30
0.0
 10
440.6189698633524
 20
-300.0560112376538
 30
0.0
  0
LINE
  5
2AB
330
1F
100
AcDbEntity
  8
FISHER & PAYKEL
 62
   250
420
  1316376
370
     9
100
AcDbLine
 10
440.6189698633524
 20
-300.0560112376538
 30
0.0
 11
439.7617061274859
 21
-299.5021412519292
 31
0.0
  0
LINE
  5
2AC
330
1F
100
AcDbEntity
  8
FISHER & PAYKEL
 62
   250
420
  1316376
370
     9
100
AcDbLine
 10
439.7617061274859
 20
-299.5021412519292
 30
0.0
 11
440.1921019125713
 21
-292.3300541119424
 31
0.0
  0
LINE
  5
2AD
330
1F
100
AcDbEntity
  8
FISHER & PAYKEL
 62
   250
420
  1316376
370
     9
100
AcDbLine
 10
440.1921019125713
 20
-292.3300541119424
 30
0.0
 11
448.5883475560386
 21
-292.3300541119424
 31
0.0
  0
LINE
  5
2AE
330
1F
100
AcDbEntity
  8
FISHER & PAYKEL
 62
   250
420
  1316376
370
     9
100
AcDbLine
 10
448.5883475560386
 20
-292.3300541119424
 30
0.0
 11
448.5883475560386
 21
-293.3884044031358
 31
0.0
  0
LINE
  5
2AF
330
1F
100
AcDbEntity
  8
FISHER & PAYKEL
 62
   250
420
  1316376
370
     9
100
AcDbLine
 10
448.5883475560386
 20
-293.3884044031358
 30
0.0
 11
441.1728398490771
 21
-293.3884044031358
 31
0.0
  0
LINE
  5
2B0
330
1F
100
AcDbEntity
  8
FISHER & PAYKEL
 62
   250
420
  1316376
370
     9
100
AcDbLine
 10
441.1728398490771
 20
-293.3884044031358
 30
0.0
 11
440.8094729157673
 21
-298.9306320946848
 31
0.0
  0
SPLINE
  5
2B1
330
1F
100
AcDbEntity
  8
FISHER & PAYKEL
 62
   250
420
  1316376
370
     9
100
AcDbSpline
210
0.0
220
0.0
230
1.0
 70
     8
 71
     3
 72
     8
 73
     4
 74
     0
 42
0.000000001
 43
0.0000000001
 40
13.01070906300447
 40
13.01070906300447
 40
13.01070906300447
 40
13.01070906300447
 40
14.01070906300447
 40
14.01070906300447
 40
14.01070906300447
 40
14.01070906300447
 10
440.8094729157673
 20
-298.9306320946848
 30
0.0
 10
441.7725716807534
 20
-298.4649579665597
 30
0.0
 10
442.7356704457392
 20
-298.1262858733778
 30
0.0
 10
444.1221093272026
 20
-298.1262858733778
 30
0.0
  0
SPLINE
  5
2B2
330
1F
100
AcDbEntity
  8
FISHER & PAYKEL
 62
   250
420
  1316376
370
     9
100
AcDbSpline
210
0.0
220
0.0
230
1.0
 70
     8
 71
     3
 72
     8
 73
     4
 74
     0
 42
0.000000001
 43
0.0000000001
 40
14.01070906300447
 40
14.01070906300447
 40
14.01070906300447
 40
14.01070906300447
 40
15.01070906300447
 40
15.01070906300447
 40
15.01070906300447
 40
15.01070906300447
 10
444.1221093272026
 20
-298.1262858733778
 30
0.0
 10
447.0078777878564
 20
-298.1262858733778
 30
0.0
 10
449.2515804051863
 20
-299.9466483742305
 30
0.0
 10
449.2515804051863
 20
-302.5889962679097
 30
0.0
  0
LINE
  5
2B3
330
1F
100
AcDbEntity
  8
FISHER & PAYKEL
 62
   250
420
  1316376
370
     9
100
AcDbLine
 10
449.2515804051863
 20
-302.5889962679097
 30
0.0
 11
449.2515804051863
 21
-302.6313302795574
 31
0.0
  0
SPLINE
  5
2B4
330
1F
100
AcDbEntity
  8
FISHER & PAYKEL
 62
   250
420
  1316376
370
     9
100
AcDbSpline
210
0.0
220
0.0
230
1.0
 70
     8
 71
     3
 72
     8
 73
     4
 74
     0
 42
0.000000001
 43
0.0000000001
 40
15.02270906300447
 40
15.02270906300447
 40
15.02270906300447
 40
15.02270906300447
 40
16.02270906300447
 40
16.02270906300447
 40
16.02270906300447
 40
16.02270906300447
 10
449.2515804051863
 20
-302.6313302795574
 30
0.0
 10
449.2515804051863
 20
-305.425375048308
 30
0.0
 10
447.0502117995041
 20
-307.3939065899276
 30
0.0
 10
444.0374413039072
 20
-307.3939065899276
 30
0.0
  0
SPLINE
  5
2B5
330
1F
100
AcDbEntity
  8
FISHER & PAYKEL
 62
   250
420
  1316376
370
     9
100
AcDbSpline
210
0.0
220
0.0
230
1.0
 70
     8
 71
     3
 72
     8
 73
     4
 74
     0
 42
0.000000001
 43
0.0000000001
 40
16.02270906300447
 40
16.02270906300447
 40
16.02270906300447
 40
16.02270906300447
 40
17.02270906300447
 40
17.02270906300447
 40
17.02270906300447
 40
17.02270906300447
 10
444.0374413039072
 20
-307.3939065899276
 30
0.0
 10
442.008937062753
 20
-307.3939065899276
 30
0.0
 10
440.107434795983
 20
-306.3143898076643
 30
0.0
 10
438.8021351968042
 20
-305.0020349318308
 30
0.0
  0
LINE
  5
2B6
330
1F
100
AcDbEntity
  8
FISHER & PAYKEL
  6
Continuous
 62
     1
420
 16711680
100
AcDbLine
 10
327.0399925453
 20
845.2616796662318
 30
0.0
 11
327.0399925453
 21
1385.261679666232
 31
0.0
  0
LINE
  5
2B7
330
1F
100
AcDbEntity
  8
FISHER & PAYKEL
  6
Continuous
 62
     3
420
    65280
100
AcDbLine
 10
335.0399925453
 20
847.2616796662318
 30
0.0
 11
335.0399925453
 21
1373.261679666232
 31
0.0
  0
LINE
  5
2B8
330
1F
100
AcDbEntity
  8
FISHER & PAYKEL
  6
Continuous
 62
    18
420
        0
100
AcDbLine
 10
337.0399925453
 20
1373.261679666232
 30
0.0
 11
337.0399925453
 21
847.2616796662318
 31
0.0
  0
LINE
  5
2B9
330
1F
100
AcDbEntity
  8
FISHER & PAYKEL
  6
Continuous
 62
     3
420
    65280
100
AcDbLine
 10
356.0399925453
 20
1364.761679666232
 30
0.0
 11
356.0399925453
 21
855.7616796662318
 31
0.0
  0
LINE
  5
2BA
330
1F
100
AcDbEntity
  8
FISHER & PAYKEL
  6
Continuous
 62
    18
420
        0
100
AcDbLine
 10
387.0399925453
 20
1350.761679666232
 30
0.0
 11
387.0399925453
 21
1348.261679666232
 31
0.0
  0
LINE
  5
2BB
330
1F
100
AcDbEntity
  8
FISHER & PAYKEL
  6
Continuous
 62
    18
420
        0
100
AcDbLine
 10
387.0399925453
 20
1161.761679666232
 30
0.0
 11
387.0399925453
 21
1159.261679666232
 31
0.0
  0
LINE
  5
2BC
330
1F
100
AcDbEntity
  8
FISHER & PAYKEL
  6
Continuous
 62
    18
420
        0
100
AcDbLine
 10
387.0399925453
 20
972.7616796662318
 30
0.0
 11
387.0399925453
 21
970.2616796662318
 31
0.0
  0
LINE
  5
2BD
330
1F
100
AcDbEntity
  8
FISHER & PAYKEL
  6
Continuous
 62
     3
420
    65280
100
AcDbLine
 10
1235.0399925453
 20
843.2616796662318
 30
0.0
 11
339.0399925453
 21
843.2616796662318
 31
0.0
  0
LINE
  5
2BE
330
1F
100
AcDbEntity
  8
FISHER & PAYKEL
  6
Continuous
 62
    18
420
        0
100
AcDbLine
 10
339.0399925453
 20
845.2616796662318
 30
0.0
 11
1235.0399925453
 21
845.2616796662318
 31
0.0
  0
LINE
  5
2BF
330
1F
100
AcDbEntity
  8
FISHER & PAYKEL
  6
Continuous
 62
     3
420
    65280
100
AcDbLine
 10
356.0399925453
 20
855.7616796662318
 30
0.0
 11
1218.0399925453
 21
855.7616796662318
 31
0.0
  0
LINE
  5
2C0
330
1F
100
AcDbEntity
  8
FISHER & PAYKEL
  6
Continuous
 62
    18
420
        0
100
AcDbLine
 10
720.0399925453
 20
871.2616796662318
 30
0.0
 11
854.0399925453
 21
871.2616796662318
 31
0.0
  0
LINE
  5
2C1
330
1F
100
AcDbEntity
  8
FISHER & PAYKEL
  6
Continuous
 62
    18
420
        0
100
AcDbLine
 10
619.0399925453
 20
970.2616796662318
 30
0.0
 11
619.0399925453
 21
972.7616796662318
 31
0.0
  0
LINE
  5
2C2
330
1F
100
AcDbEntity
  8
FISHER & PAYKEL
  6
Continuous
 62
    18
420
        0
100
AcDbLine
 10
619.0399925453
 20
1159.261679666232
 30
0.0
 11
619.0399925453
 21
1161.761679666232
 31
0.0
  0
LINE
  5
2C3
330
1F
100
AcDbEntity
  8
FISHER & PAYKEL
  6
Continuous
 62
    18
420
        0
100
AcDbLine
 10
619.0399925453
 20
1348.261679666232
 30
0.0
 11
619.0399925453
 21
1350.761679666232
 31
0.0
  0
LINE
  5
2C4
330
1F
100
AcDbEntity
  8
FISHER & PAYKEL
  6
Continuous
 62
    18
420
        0
100
AcDbLine
 10
854.0399925453
 20
933.2616796662318
 30
0.0
 11
720.0399925453
 21
933.2616796662318
 31
0.0
  0
LINE
  5
2C5
330
1F
100
AcDbEntity
  8
FISHER & PAYKEL
  6
Continuous
 62
    18
420
        0
100
AcDbLine
 10
387.0399925453
 20
970.2616796662318
 30
0.0
 11
619.0399925453
 21
970.2616796662318
 31
0.0
  0
LINE
  5
2C6
330
1F
100
AcDbEntity
  8
FISHER & PAYKEL
  6
Continuous
 62
    18
420
        0
100
AcDbLine
 10
955.0399925453
 20
970.2616796662318
 30
0.0
 11
1187.0399925453
 21
970.2616796662318
 31
0.0
  0
LINE
  5
2C7
330
1F
100
AcDbEntity
  8
FISHER & PAYKEL
  6
Continuous
 62
    18
420
        0
100
AcDbLine
 10
1187.0399925453
 20
972.7616796662318
 30
0.0
 11
955.0399925453
 21
972.7616796662318
 31
0.0
  0
LINE
  5
2C8
330
1F
100
AcDbEntity
  8
FISHER & PAYKEL
  6
Continuous
 62
    18
420
        0
100
AcDbLine
 10
619.0399925453
 20
972.7616796662318
 30
0.0
 11
387.0399925453
 21
972.7616796662318
 31
0.0
  0
LINE
  5
2C9
330
1F
100
AcDbEntity
  8
FISHER & PAYKEL
  6
Continuous
 62
    18
420
        0
100
AcDbLine
 10
720.0399925453
 20
933.2616796662318
 30
0.0
 11
720.0399925453
 21
871.2616796662318
 31
0.0
  0
LINE
  5
2CA
330
1F
100
AcDbEntity
  8
FISHER & PAYKEL
  6
Continuous
 62
    18
420
        0
100
AcDbLine
 10
854.0399925453
 20
871.2616796662318
 30
0.0
 11
854.0399925453
 21
933.2616796662318
 31
0.0
  0
LINE
  5
2CB
330
1F
100
AcDbEntity
  8
FISHER & PAYKEL
  6
Continuous
 62
    18
420
        0
100
AcDbLine
 10
387.0399925453
 20
1159.261679666232
 30
0.0
 11
619.0399925453
 21
1159.261679666232
 31
0.0
  0
LINE
  5
2CC
330
1F
100
AcDbEntity
  8
FISHER & PAYKEL
  6
Continuous
 62
    18
420
        0
100
AcDbLine
 10
955.0399925453
 20
1159.261679666232
 30
0.0
 11
1187.0399925453
 21
1159.261679666232
 31
0.0
  0
LINE
  5
2CD
330
1F
100
AcDbEntity
  8
FISHER & PAYKEL
  6
Continuous
 62
    18
420
        0
100
AcDbLine
 10
1187.0399925453
 20
1161.761679666232
 30
0.0
 11
955.0399925453
 21
1161.761679666232
 31
0.0
  0
LINE
  5
2CE
330
1F
100
AcDbEntity
  8
FISHER & PAYKEL
  6
Continuous
 62
    18
420
        0
100
AcDbLine
 10
619.0399925453
 20
1161.761679666232
 30
0.0
 11
387.0399925453
 21
1161.761679666232
 31
0.0
  0
LINE
  5
2CF
330
1F
100
AcDbEntity
  8
FISHER & PAYKEL
  6
Continuous
 62
    18
420
        0
100
AcDbLine
 10
955.0399925453
 20
1350.761679666232
 30
0.0
 11
955.0399925453
 21
1348.261679666232
 31
0.0
  0
LINE
  5
2D0
330
1F
100
AcDbEntity
  8
FISHER & PAYKEL
  6
Continuous
 62
    18
420
        0
100
AcDbLine
 10
955.0399925453
 20
1161.761679666232
 30
0.0
 11
955.0399925453
 21
1159.261679666232
 31
0.0
  0
LINE
  5
2D1
330
1F
100
AcDbEntity
  8
FISHER & PAYKEL
  6
Continuous
 62
    18
420
        0
100
AcDbLine
 10
955.0399925453
 20
972.7616796662318
 30
0.0
 11
955.0399925453
 21
970.2616796662318
 31
0.0
  0
LINE
  5
2D2
330
1F
100
AcDbEntity
  8
FISHER & PAYKEL
  6
Continuous
 62
    18
420
        0
100
AcDbLine
 10
387.0399925453
 20
1348.261679666232
 30
0.0
 11
619.0399925453
 21
1348.261679666232
 31
0.0
  0
LINE
  5
2D3
330
1F
100
AcDbEntity
  8
FISHER & PAYKEL
  6
Continuous
 62
    18
420
        0
100
AcDbLine
 10
955.0399925453
 20
1348.261679666232
 30
0.0
 11
1187.0399925453
 21
1348.261679666232
 31
0.0
  0
LINE
  5
2D4
330
1F
100
AcDbEntity
  8
FISHER & PAYKEL
  6
Continuous
 62
    18
420
        0
100
AcDbLine
 10
1187.0399925453
 20
1350.761679666232
 30
0.0
 11
955.0399925453
 21
1350.761679666232
 31
0.0
  0
LINE
  5
2D5
330
1F
100
AcDbEntity
  8
FISHER & PAYKEL
  6
Continuous
 62
    18
420
        0
100
AcDbLine
 10
619.0399925453
 20
1350.761679666232
 30
0.0
 11
387.0399925453
 21
1350.761679666232
 31
0.0
  0
LINE
  5
2D6
330
1F
100
AcDbEntity
  8
FISHER & PAYKEL
  6
Continuous
 62
     3
420
    65280
100
AcDbLine
 10
1218.0399925453
 20
1364.761679666232
 30
0.0
 11
356.0399925453
 21
1364.761679666232
 31
0.0
  0
LINE
  5
2D7
330
1F
100
AcDbEntity
  8
FISHER & PAYKEL
  6
Continuous
 62
    18
420
        0
100
AcDbLine
 10
1235.0399925453
 20
1375.261679666232
 30
0.0
 11
339.0399925453
 21
1375.261679666232
 31
0.0
  0
LINE
  5
2D8
330
1F
100
AcDbEntity
  8
FISHER & PAYKEL
  6
Continuous
 62
     3
420
    65280
100
AcDbLine
 10
339.0399925453
 20
1377.261679666232
 30
0.0
 11
1235.0399925453
 21
1377.261679666232
 31
0.0
  0
LINE
  5
2D9
330
1F
100
AcDbEntity
  8
FISHER & PAYKEL
  6
Continuous
 62
     1
420
 16711680
100
AcDbLine
 10
327.0399925453
 20
1385.261679666232
 30
0.0
 11
1247.0399925453
 21
1385.261679666232
 31
0.0
  0
LINE
  5
2DA
330
1F
100
AcDbEntity
  8
FISHER & PAYKEL
  6
Continuous
 62
    18
420
        0
100
AcDbLine
 10
1187.0399925453
 20
970.2616796662318
 30
0.0
 11
1187.0399925453
 21
972.7616796662318
 31
0.0
  0
LINE
  5
2DB
330
1F
100
AcDbEntity
  8
FISHER & PAYKEL
  6
Continuous
 62
    18
420
        0
100
AcDbLine
 10
1187.0399925453
 20
1159.261679666232
 30
0.0
 11
1187.0399925453
 21
1161.761679666232
 31
0.0
  0
LINE
  5
2DC
330
1F
100
AcDbEntity
  8
FISHER & PAYKEL
  6
Continuous
 62
    18
420
        0
100
AcDbLine
 10
1187.0399925453
 20
1348.261679666232
 30
0.0
 11
1187.0399925453
 21
1350.761679666232
 31
0.0
  0
LINE
  5
2DD
330
1F
100
AcDbEntity
  8
FISHER & PAYKEL
  6
Continuous
 62
     3
420
    65280
100
AcDbLine
 10
1218.0399925453
 20
855.7616796662318
 30
0.0
 11
1218.0399925453
 21
1364.761679666232
 31
0.0
  0
LINE
  5
2DE
330
1F
100
AcDbEntity
  8
FISHER & PAYKEL
  6
Continuous
 62
    18
420
        0
100
AcDbLine
 10
1237.0399925453
 20
847.2616796662318
 30
0.0
 11
1237.0399925453
 21
1373.261679666232
 31
0.0
  0
LINE
  5
2DF
330
1F
100
AcDbEntity
  8
FISHER & PAYKEL
  6
Continuous
 62
     3
420
    65280
100
AcDbLine
 10
1239.0399925453
 20
1373.261679666232
 30
0.0
 11
1239.0399925453
 21
847.2616796662318
 31
0.0
  0
CIRCLE
  5
2E0
330
1F
100
AcDbEntity
  8
FISHER & PAYKEL
  6
Continuous
 62
    18
420
        0
100
AcDbCircle
 10
787.0399925453
 20
1160.261679666232
 30
0.0
 40
143.25
  0
CIRCLE
  5
2E1
330
1F
100
AcDbEntity
  8
FISHER & PAYKEL
  6
Continuous
 62
    18
420
        0
100
AcDbCircle
 10
787.0399925453
 20
1160.261679666232
 30
0.0
 40
140.75
  0
CIRCLE
  5
2E2
330
1F
100
AcDbEntity
  8
FISHER & PAYKEL
  6
Continuous
 62
    18
420
        0
100
AcDbCircle
 10
787.0399925453
 20
1160.261679666232
 30
0.0
 40
100.25
  0
CIRCLE
  5
2E3
330
1F
100
AcDbEntity
  8
FISHER & PAYKEL
  6
Continuous
 62
    18
420
        0
100
AcDbCircle
 10
787.0399925453
 20
1160.261679666232
 30
0.0
 40
97.75
  0
ARC
  5
2E4
330
1F
100
AcDbEntity
  8
FISHER & PAYKEL
  6
Continuous
 62
     3
420
    65280
100
AcDbCircle
 10
339.0399925453
 20
1373.261679666232
 30
0.0
 40
4.0
100
AcDbArc
 50
90.0
 51
180.0
  0
ARC
  5
2E5
330
1F
100
AcDbEntity
  8
FISHER & PAYKEL
  6
Continuous
 62
     3
420
    65280
100
AcDbCircle
 10
339.0399925453
 20
847.2616796662318
 30
0.0
 40
4.0
100
AcDbArc
 50
180.0
 51
270.0
  0
ARC
  5
2E6
330
1F
100
AcDbEntity
  8
FISHER & PAYKEL
  6
Continuous
 62
     3
420
    65280
100
AcDbCircle
 10
1235.0399925453
 20
847.2616796662318
 30
0.0
 40
4.0
100
AcDbArc
 50
270.0
 51
0.0
  0
ARC
  5
2E8
330
1F
100
AcDbEntity
  8
FISHER & PAYKEL
  6
DASHED
 62
     3
420
    65280
100
AcDbCircle
 10
1235.0399925453
 20
1373.261679666232
 30
0.0
 40
4.0
100
AcDbArc
 50
0.0
 51
90.0
  0
ARC
  5
2E9
330
1F
100
AcDbEntity
  8
FISHER & PAYKEL
  6
Continuous
 62
    18
420
        0
100
AcDbCircle
 10
339.0399925453
 20
1373.261679666232
 30
0.0
 40
2.0
100
AcDbArc
 50
90.0
 51
180.0
  0
ARC
  5
2EA
330
1F
100
AcDbEntity
  8
FISHER & PAYKEL
  6
Continuous
 62
    18
420
        0
100
AcDbCircle
 10
1235.0399925453
 20
1373.261679666232
 30
0.0
 40
2.0
100
AcDbArc
 50
0.0
 51
90.0
  0
ARC
  5
2EB
330
1F
100
AcDbEntity
  8
FISHER & PAYKEL
  6
Continuous
 62
    18
420
        0
100
AcDbCircle
 10
1235.0399925453
 20
847.2616796662318
 30
0.0
 40
2.0
100
AcDbArc
 50
270.0
 51
0.0
  0
ARC
  5
2EC
330
1F
100
AcDbEntity
  8
FISHER & PAYKEL
  6
Continuous
 62
    18
420
        0
100
AcDbCircle
 10
339.0399925453
 20
847.2616796662318
 30
0.0
 40
2.0
100
AcDbArc
 50
180.0
 51
270.0
  0
LINE
  5
2ED
330
1F
100
AcDbEntity
  8
FISHER & PAYKEL
  6
Continuous
 62
     1
420
 16711680
100
AcDbLine
 10
1247.0399925453
 20
1385.261679666232
 30
0.0
 11
1247.0399925453
 21
845.2616796662318
 31
0.0
  0
ENDSEC
  0
SECTION
  2
OBJECTS
  0
DICTIONARY
  5
C
330
0
100
AcDbDictionary
281
     1
  3
ACAD_DETAILVIEWSTYLE
350
331
  3
ACAD_GROUP
350
D
  3
ACAD_LAYOUT
350
1A
  3
ACAD_MATERIAL
350
43
  3
ACAD_MLEADERSTYLE
350
6B
  3
ACAD_MLINESTYLE
350
17
  3
ACAD_PLOTSETTINGS
350
19
  3
ACAD_PLOTSTYLENAME
350
E
  3
ACAD_SCALELIST
350
47
  3
ACAD_SECTIONVIEWSTYLE
350
332
  3
ACAD_TABLESTYLE
350
69
  3
ACAD_VISUALSTYLE
350
2A
  3
ACDB_RECOMPOSE_DATA
350
32E
  3
AcDbVariableDictionary
350
2F6
  0
SUN
  5
6D
330
29
100
AcDbSun
 90
        1
290
     0
 63
     7
421
 16777215
 40
1.0
291
     1
 91
  2455826
 92
 54000000
292
     0
 70
     2
 71
   256
280
     1
  0
DICTIONARY
  5
331
102
{ACAD_REACTORS
330
C
102
}
330
C
100
AcDbDictionary
281
     1
  0
DICTIONARY
  5
D
102
{ACAD_REACTORS
330
C
102
}
330
C
100
AcDbDictionary
281
     1
  0
DICTIONARY
  5
1A
102
{ACAD_REACTORS
330
C
102
}
330
C
100
AcDbDictionary
281
     1
  3
Layout1
350
1E
  3
Layout2
350
26
  3
Model
350
22
  0
DICTIONARY
  5
43
102
{ACAD_REACTORS
330
C
102
}
330
C
100
AcDbDictionary
281
     1
  3
ByBlock
350
45
  3
ByLayer
350
44
  3
Global
350
46
  0
DICTIONARY
  5
6B
102
{ACAD_REACTORS
330
C
102
}
330
C
100
AcDbDictionary
281
     1
  3
Standard
350
6C
  0
DICTIONARY
  5
17
102
{ACAD_REACTORS
330
C
102
}
330
C
100
AcDbDictionary
281
     1
  3
Standard
350
18
  0
DICTIONARY
  5
19
102
{ACAD_REACTORS
330
C
102
}
330
C
100
AcDbDictionary
281
     1
  0
ACDBDICTIONARYWDFLT
  5
E
102
{ACAD_REACTORS
330
C
102
}
330
C
100
AcDbDictionary
281
     1
  3
Normal
350
F
100
AcDbDictionaryWithDefault
340
F
  0
DICTIONARY
  5
47
102
{ACAD_REACTORS
330
C
102
}
330
C
100
AcDbDictionary
281
     1
  3
A0
350
48
  3
A1
350
49
  3
A2
350
4A
  3
A3
350
4B
  3
A4
350
4C
  3
A5
350
4D
  3
A6
350
4E
  3
A7
350
4F
  3
A8
350
50
  3
A9
350
51
  3
B0
350
52
  3
B1
350
53
  3
B2
350
54
  3
B3
350
55
  3
B4
350
56
  3
B5
350
57
  3
B6
350
58
  3
B7
350
59
  3
B8
350
5A
  3
B9
350
5B
  3
C0
350
5C
  3
C1
350
5D
  3
C2
350
5E
  3
C3
350
5F
  3
C4
350
60
  3
C5
350
61
  3
C6
350
62
  3
C7
350
63
  3
C8
350
64
  3
C9
350
65
  3
D0
350
66
  3
D1
350
67
  3
D2
350
68
  0
DICTIONARY
  5
332
102
{ACAD_REACTORS
330
C
102
}
330
C
100
AcDbDictionary
281
     1
  0
DICTIONARY
  5
69
102
{ACAD_REACTORS
330
C
102
}
330
C
100
AcDbDictionary
281
     1
  3
Standard
350
6A
  0
DICTIONARY
  5
2A
102
{ACAD_REACTORS
330
C
102
}
330
C
100
AcDbDictionary
281
     1
  3
2dWireframe
350
2F
  3
Basic
350
32
  3
Brighten
350
36
  3
ColorChange
350
3A
  3
Conceptual
350
34
  3
Dim
350
35
  3
EdgeColorOff
350
3D
  3
Facepattern
350
39
  3
Flat
350
2B
  3
FlatWithEdges
350
2C
  3
Gouraud
350
2D
  3
GouraudWithEdges
350
2E
  3
Hidden
350
31
  3
JitterOff
350
3B
  3
Linepattern
350
38
  3
OverhangOff
350
3C
  3
Realistic
350
33
  3
Shaded
350
42
  3
Shaded with edges
350
41
  3
Shades of Gray
350
3E
  3
Sketchy
350
3F
  3
Thicken
350
37
  3
Wireframe
350
30
  3
X-Ray
350
40
  0
XRECORD
  5
32E
102
{ACAD_REACTORS
330
C
102
}
330
C
100
AcDbXrecord
280
     1
 90
        1
330
6A
  0
DICTIONARY
  5
2F6
102
{ACAD_REACTORS
330
C
102
}
330
C
100
AcDbDictionary
281
     1
  3
CANNOSCALE
350
2F7
  3
CMLEADERSTYLE
350
330
  3
CTABLESTYLE
350
32F
  3
XCLIPFRAME
350
2F8
  0
LAYOUT
  5
1E
102
{ACAD_REACTORS
330
1A
102
}
330
1A
100
AcDbPlotSettings
  1

  2
none_device
  4

  6

 40
0.0
 41
0.0
 42
0.0
 43
0.0
 44
0.0
 45
0.0
 46
0.0
 47
0.0
 48
0.0
 49
0.0
140
0.0
141
0.0
142
1.0
143
1.0
 70
   688
 72
     0
 73
     0
 74
     5
  7

 75
    16
 76
     0
 77
     2
 78
   300
147
1.0
148
0.0
149
0.0
100
AcDbLayout
  1
Layout1
 70
     1
 71
     1
 10
0.0
 20
0.0
 11
12.0
 21
9.0
 12
0.0
 22
0.0
 32
0.0
 14
1.000000000000000E+20
 24
1.000000000000000E+20
 34
1.000000000000000E+20
 15
-1.000000000000000E+20
 25
-1.000000000000000E+20
 35
-1.000000000000000E+20
146
0.0
 13
0.0
 23
0.0
 33
0.0
 16
1.0
 26
0.0
 36
0.0
 17
0.0
 27
1.0
 37
0.0
 76
     0
330
1B
  0
LAYOUT
  5
26
102
{ACAD_REACTORS
330
1A
102
}
330
1A
100
AcDbPlotSettings
  1

  2
none_device
  4

  6

 40
0.0
 41
0.0
 42
0.0
 43
0.0
 44
0.0
 45
0.0
 46
0.0
 47
0.0
 48
0.0
 49
0.0
140
0.0
141
0.0
142
1.0
143
1.0
 70
   688
 72
     0
 73
     0
 74
     5
  7

 75
    16
 76
     0
 77
     2
 78
   300
147
1.0
148
0.0
149
0.0
100
AcDbLayout
  1
Layout2
 70
     1
 71
     2
 10
0.0
 20
0.0
 11
0.0
 21
0.0
 12
0.0
 22
0.0
 32
0.0
 14
0.0
 24
0.0
 34
0.0
 15
0.0
 25
0.0
 35
0.0
146
0.0
 13
0.0
 23
0.0
 33
0.0
 16
1.0
 26
0.0
 36
0.0
 17
0.0
 27
1.0
 37
0.0
 76
     0
330
23
  0
LAYOUT
  5
22
102
{ACAD_REACTORS
330
1A
102
}
330
1A
100
AcDbPlotSettings
  1

  2
none_device
  4
Letter_(8.50_x_11.00_Inches)
  6

 40
6.35
 41
6.35
 42
6.35000508
 43
6.35000508
 44
215.9
 45
279.4
 46
0.0
 47
0.0
 48
0.0
 49
0.0
140
0.0
141
0.0
142
1.0
143
1.0
 70
  1712
 72
     0
 73
     0
 74
     0
  7

 75
     0
 76
     0
 77
     2
 78
   300
147
1.0
148
0.0
149
0.0
100
AcDbLayout
  1
Model
 70
     1
 71
     0
 10
0.0
 20
0.0
 11
12.0
 21
9.0
 12
0.0
 22
0.0
 32
0.0
 14
1.000000000000000E+20
 24
1.000000000000000E+20
 34
1.000000000000000E+20
 15
-1.000000000000000E+20
 25
-1.000000000000000E+20
 35
-1.000000000000000E+20
146
0.0
 13
0.0
 23
0.0
 33
0.0
 16
1.0
 26
0.0
 36
0.0
 17
0.0
 27
1.0
 37
0.0
 76
     0
330
1F
331
29
  0
MATERIAL
  5
45
102
{ACAD_REACTORS
330
43
102
}
330
43
100
AcDbMaterial
  1
ByBlock
 72
     1
 94
      127
  0
MATERIAL
  5
44
102
{ACAD_REACTORS
330
43
102
}
330
43
100
AcDbMaterial
  1
ByLayer
 72
     1
 94
      127
  0
MATERIAL
  5
46
102
{ACAD_REACTORS
330
43
102
}
330
43
100
AcDbMaterial
  1
Global
 72
     1
 94
      127
  0
MLEADERSTYLE
  5
6C
102
{ACAD_REACTORS
330
6B
102
}
102
{ACAD_XDICTIONARY
360
32C
102
}
330
6B
100
AcDbMLeaderStyle
170
     2
171
     1
172
     0
 90
        2
 40
0.0
 41
0.0
173
     1
 91
-1056964608
340
14
 92
       -2
290
     1
 42
0.09
291
     1
 43
0.36
  3
Standard
341
0
 44
0.18
300

342
11
174
     1
178
     6
175
     1
176
     0
 93
-1056964608
 45
0.18
292
     0
297
     0
 46
0.18
343
0
 94
-1056964608
 47
1.0
 49
1.0
140
1.0
293
     1
141
0.0
294
     1
177
     0
142
1.0
295
     0
296
     0
143
0.125
1001
ACAD_MLEADERVER
1070
     2
  0
MLINESTYLE
  5
18
102
{ACAD_REACTORS
330
17
102
}
330
17
100
AcDbMlineStyle
  2
Standard
 70
     0
  3

 62
   256
 51
90.0
 52
90.0
 71
     2
 49
0.5
 62
   256
  6
BYLAYER
 49
-0.5
 62
   256
  6
BYLAYER
  0
ACDBPLACEHOLDER
  5
F
102
{ACAD_REACTORS
330
E
102
}
330
E
  0
SCALE
  5
48
102
{ACAD_REACTORS
330
47
102
}
330
47
100
AcDbScale
 70
     0
300
1:1
140
1.0
141
1.0
290
     1
  0
SCALE
  5
49
102
{ACAD_REACTORS
330
47
102
}
330
47
100
AcDbScale
 70
     0
300
1:2
140
1.0
141
2.0
290
     0
  0
SCALE
  5
4A
102
{ACAD_REACTORS
330
47
102
}
330
47
100
AcDbScale
 70
     0
300
1:4
140
1.0
141
4.0
290
     0
  0
SCALE
  5
4B
102
{ACAD_REACTORS
330
47
102
}
330
47
100
AcDbScale
 70
     0
300
1:5
140
1.0
141
5.0
290
     0
  0
SCALE
  5
4C
102
{ACAD_REACTORS
330
47
102
}
330
47
100
AcDbScale
 70
     0
300
1:8
140
1.0
141
8.0
290
     0
  0
SCALE
  5
4D
102
{ACAD_REACTORS
330
47
102
}
330
47
100
AcDbScale
 70
     0
300
1:10
140
1.0
141
10.0
290
     0
  0
SCALE
  5
4E
102
{ACAD_REACTORS
330
47
102
}
330
47
100
AcDbScale
 70
     0
300
1:16
140
1.0
141
16.0
290
     0
  0
SCALE
  5
4F
102
{ACAD_REACTORS
330
47
102
}
330
47
100
AcDbScale
 70
     0
300
1:20
140
1.0
141
20.0
290
     0
  0
SCALE
  5
50
102
{ACAD_REACTORS
330
47
102
}
330
47
100
AcDbScale
 70
     0
300
1:30
140
1.0
141
30.0
290
     0
  0
SCALE
  5
51
102
{ACAD_REACTORS
330
47
102
}
330
47
100
AcDbScale
 70
     0
300
1:40
140
1.0
141
40.0
290
     0
  0
SCALE
  5
52
102
{ACAD_REACTORS
330
47
102
}
330
47
100
AcDbScale
 70
     0
300
1:50
140
1.0
141
50.0
290
     0
  0
SCALE
  5
53
102
{ACAD_REACTORS
330
47
102
}
330
47
100
AcDbScale
 70
     0
300
1:100
140
1.0
141
100.0
290
     0
  0
SCALE
  5
54
102
{ACAD_REACTORS
330
47
102
}
330
47
100
AcDbScale
 70
     0
300
2:1
140
2.0
141
1.0
290
     0
  0
SCALE
  5
55
102
{ACAD_REACTORS
330
47
102
}
330
47
100
AcDbScale
 70
     0
300
4:1
140
4.0
141
1.0
290
     0
  0
SCALE
  5
56
102
{ACAD_REACTORS
330
47
102
}
330
47
100
AcDbScale
 70
     0
300
8:1
140
8.0
141
1.0
290
     0
  0
SCALE
  5
57
102
{ACAD_REACTORS
330
47
102
}
330
47
100
AcDbScale
 70
     0
300
10:1
140
10.0
141
1.0
290
     0
  0
SCALE
  5
58
102
{ACAD_REACTORS
330
47
102
}
330
47
100
AcDbScale
 70
     0
300
100:1
140
100.0
141
1.0
290
     0
  0
SCALE
  5
59
102
{ACAD_REACTORS
330
47
102
}
330
47
100
AcDbScale
 70
     0
300
1/128" = 1'-0"
140
0.0078125
141
12.0
290
     0
  0
SCALE
  5
5A
102
{ACAD_REACTORS
330
47
102
}
330
47
100
AcDbScale
 70
     0
300
1/64" = 1'-0"
140
0.015625
141
12.0
290
     0
  0
SCALE
  5
5B
102
{ACAD_REACTORS
330
47
102
}
330
47
100
AcDbScale
 70
     0
300
1/32" = 1'-0"
140
0.03125
141
12.0
290
     0
  0
SCALE
  5
5C
102
{ACAD_REACTORS
330
47
102
}
330
47
100
AcDbScale
 70
     0
300
1/16" = 1'-0"
140
0.0625
141
12.0
290
     0
  0
SCALE
  5
5D
102
{ACAD_REACTORS
330
47
102
}
330
47
100
AcDbScale
 70
     0
300
3/32" = 1'-0"
140
0.09375
141
12.0
290
     0
  0
SCALE
  5
5E
102
{ACAD_REACTORS
330
47
102
}
330
47
100
AcDbScale
 70
     0
300
1/8" = 1'-0"
140
0.125
141
12.0
290
     0
  0
SCALE
  5
5F
102
{ACAD_REACTORS
330
47
102
}
330
47
100
AcDbScale
 70
     0
300
3/16" = 1'-0"
140
0.1875
141
12.0
290
     0
  0
SCALE
  5
60
102
{ACAD_REACTORS
330
47
102
}
330
47
100
AcDbScale
 70
     0
300
1/4" = 1'-0"
140
0.25
141
12.0
290
     0
  0
SCALE
  5
61
102
{ACAD_REACTORS
330
47
102
}
330
47
100
AcDbScale
 70
     0
300
3/8" = 1'-0"
140
0.375
141
12.0
290
     0
  0
SCALE
  5
62
102
{ACAD_REACTORS
330
47
102
}
330
47
100
AcDbScale
 70
     0
300
1/2" = 1'-0"
140
0.5
141
12.0
290
     0
  0
SCALE
  5
63
102
{ACAD_REACTORS
330
47
102
}
330
47
100
AcDbScale
 70
     0
300
3/4" = 1'-0"
140
0.75
141
12.0
290
     0
  0
SCALE
  5
64
102
{ACAD_REACTORS
330
47
102
}
330
47
100
AcDbScale
 70
     0
300
1" = 1'-0"
140
1.0
141
12.0
290
     0
  0
SCALE
  5
65
102
{ACAD_REACTORS
330
47
102
}
330
47
100
AcDbScale
 70
     0
300
1-1/2" = 1'-0"
140
1.5
141
12.0
290
     0
  0
SCALE
  5
66
102
{ACAD_REACTORS
330
47
102
}
330
47
100
AcDbScale
 70
     0
300
3" = 1'-0"
140
3.0
141
12.0
290
     0
  0
SCALE
  5
67
102
{ACAD_REACTORS
330
47
102
}
330
47
100
AcDbScale
 70
     0
300
6" = 1'-0"
140
6.0
141
12.0
290
     0
  0
SCALE
  5
68
102
{ACAD_REACTORS
330
47
102
}
330
47
100
AcDbScale
 70
     0
300
1'-0" = 1'-0"
140
12.0
141
12.0
290
     0
  0
TABLESTYLE
  5
6A
102
{ACAD_REACTORS
330
69
102
}
102
{ACAD_XDICTIONARY
360
329
102
}
330
69
100
AcDbTableStyle
  3
Standard
 70
     0
 71
     0
 40
0.06
 41
0.06
280
     0
281
     0
  7
Standard
140
0.18
170
     2
 62
     0
 63
   257
283
     0
 90
        4
 91
        0
  1

274
    -2
284
     1
 64
     0
275
    -2
285
     1
 65
     0
276
    -2
286
     1
 66
     0
277
    -2
287
     1
 67
     0
278
    -2
288
     1
 68
     0
279
    -2
289
     1
 69
     0
  7
Standard
140
0.25
170
     5
 62
     0
 63
   257
283
     0
 90
        4
 91
        0
  1

274
    -2
284
     1
 64
     0
275
    -2
285
     1
 65
     0
276
    -2
286
     1
 66
     0
277
    -2
287
     1
 67
     0
278
    -2
288
     1
 68
     0
279
    -2
289
     1
 69
     0
  7
Standard
140
0.18
170
     5
 62
     0
 63
   257
283
     0
 90
        4
 91
        0
  1

274
    -2
284
     1
 64
     0
275
    -2
285
     1
 65
     0
276
    -2
286
     1
 66
     0
277
    -2
287
     1
 67
     0
278
    -2
288
     1
 68
     0
279
    -2
289
     1
 69
     0
  0
VISUALSTYLE
  5
2F
102
{ACAD_REACTORS
330
2A
102
}
102
{ACAD_XDICTIONARY
360
301
102
}
330
2A
100
AcDbVisualStyle
  2
2dWireframe
 70
     4
 71
     0
 72
     2
 73
     0
 90
        0
 40
0.6
 41
30.0
 62
     5
 63
     7
421
 16777215
 74
     1
 91
        4
 64
     7
 65
   257
 75
     1
175
     1
 42
1.0
 92
        0
 66
   257
 43
1.0
 76
     1
 77
     6
 78
     2
 67
     7
 79
     5
170
     0
171
     0
290
     0
174
     0
 93
        1
 44
0.0
173
     0
291
     0
 45
0.0
  0
VISUALSTYLE
  5
32
102
{ACAD_REACTORS
330
2A
102
}
102
{ACAD_XDICTIONARY
360
307
102
}
330
2A
100
AcDbVisualStyle
  2
Basic
 70
     7
 71
     1
 72
     0
 73
     1
 90
        0
 40
0.6
 41
30.0
 62
     5
 63
     7
421
 16777215
 74
     0
 91
        4
 64
     7
 65
   257
 75
     1
175
     1
 42
1.0
 92
        8
 66
     7
 43
1.0
 76
     1
 77
     6
 78
     2
 67
     7
 79
     5
170
     0
171
     0
290
     0
174
     0
 93
        1
 44
0.0
173
     0
291
     1
 45
0.0
  0
VISUALSTYLE
  5
36
102
{ACAD_REACTORS
330
2A
102
}
102
{ACAD_XDICTIONARY
360
30F
102
}
330
2A
100
AcDbVisualStyle
  2
Brighten
 70
    12
 71
     2
 72
     2
 73
     0
 90
        0
 40
0.6
 41
30.0
 62
     5
 63
     7
421
 16777215
 74
     1
 91
        4
 64
     7
 65
   257
 75
     1
175
     1
 42
1.0
 92
        8
 66
     7
 43
1.0
 76
     1
 77
     6
 78
     2
 67
     7
 79
     5
170
     0
171
     0
290
     0
174
     0
 93
        1
 44
50.0
173
     0
291
     1
 45
0.0
  0
VISUALSTYLE
  5
3A
102
{ACAD_REACTORS
330
2A
102
}
102
{ACAD_XDICTIONARY
360
317
102
}
330
2A
100
AcDbVisualStyle
  2
ColorChange
 70
    16
 71
     2
 72
     2
 73
     3
 90
        0
 40
0.6
 41
30.0
 62
     5
 63
     8
421
  8421504
 74
     1
 91
        4
 64
     7
 65
   257
 75
     1
175
     1
 42
1.0
 92
        8
 66
     8
424
  8421504
 43
1.0
 76
     1
 77
     6
 78
     2
 67
     7
 79
     5
170
     0
171
     0
290
     0
174
     0
 93
        1
 44
0.0
173
     0
291
     1
 45
0.0
  0
VISUALSTYLE
  5
34
102
{ACAD_REACTORS
330
2A
102
}
102
{ACAD_XDICTIONARY
360
30B
102
}
330
2A
100
AcDbVisualStyle
  2
Conceptual
 70
     9
 71
     3
 72
     2
 73
     0
 90
        0
 40
0.6
 41
30.0
 62
     5
 63
     7
421
 16777215
 74
     2
 91
        2
 64
     7
 65
   257
 75
     1
175
     1
 42
179.0
 92
        8
 66
     7
 43
1.0
 76
     1
 77
     6
 78
     2
 67
     7
 79
     3
170
     0
171
     0
290
     0
174
     0
 93
        1
 44
0.0
173
     0
291
     0
 45
0.0
  0
VISUALSTYLE
  5
35
102
{ACAD_REACTORS
330
2A
102
}
102
{ACAD_XDICTIONARY
360
30D
102
}
330
2A
100
AcDbVisualStyle
  2
Dim
 70
    11
 71
     2
 72
     2
 73
     0
 90
        0
 40
0.6
 41
30.0
 62
     5
 63
     7
421
 16777215
 74
     1
 91
        4
 64
     7
 65
   257
 75
     1
175
     1
 42
1.0
 92
        8
 66
     7
 43
1.0
 76
     1
 77
     6
 78
     2
 67
     7
 79
     5
170
     0
171
     0
290
     0
174
     0
 93
        1
 44
-50.0
173
     0
291
     1
 45
0.0
  0
VISUALSTYLE
  5
3D
102
{ACAD_REACTORS
330
2A
102
}
102
{ACAD_XDICTIONARY
360
31D
102
}
330
2A
100
AcDbVisualStyle
  2
EdgeColorOff
 70
    22
 71
     2
 72
     2
 73
     0
 90
        0
 40
0.6
 41
30.0
 62
     5
 63
     7
421
 16777215
 74
     1
 91
        4
 64
     7
 65
   257
 75
     1
175
     1
 42
1.0
 92
        8
 66
     7
 43
1.0
 76
     1
 77
     6
 78
     2
 67
     7
 79
     5
170
     0
171
     0
290
     0
174
     0
 93
        1
 44
0.0
173
     0
291
     1
 45
0.0
  0
VISUALSTYLE
  5
39
102
{ACAD_REACTORS
330
2A
102
}
102
{ACAD_XDICTIONARY
360
315
102
}
330
2A
100
AcDbVisualStyle
  2
Facepattern
 70
    15
 71
     2
 72
     2
 73
     0
 90
        0
 40
0.6
 41
30.0
 62
     5
 63
     7
421
 16777215
 74
     1
 91
        4
 64
     7
 65
   257
 75
     1
175
     1
 42
1.0
 92
        8
 66
     7
 43
1.0
 76
     1
 77
     6
 78
     2
 67
     7
 79
     5
170
     0
171
     0
290
     0
174
     0
 93
        1
 44
0.0
173
     0
291
     1
 45
0.0
  0
VISUALSTYLE
  5
2B
102
{ACAD_REACTORS
330
2A
102
}
102
{ACAD_XDICTIONARY
360
2F9
102
}
330
2A
100
AcDbVisualStyle
  2
Flat
 70
     0
 71
     2
 72
     1
 73
     1
 90
        2
 40
0.6
 41
30.0
 62
     5
 63
     7
421
 16777215
 74
     0
 91
        0
 64
     7
 65
   257
 75
     1
175
     1
 42
1.0
 92
        8
 66
     7
 43
1.0
 76
     1
 77
     6
 78
     2
 67
     7
 79
     5
170
     0
171
     0
290
     0
174
     0
 93
       13
 44
0.0
173
     0
291
     1
 45
0.0
  0
VISUALSTYLE
  5
2C
102
{ACAD_REACTORS
330
2A
102
}
102
{ACAD_XDICTIONARY
360
2FB
102
}
330
2A
100
AcDbVisualStyle
  2
FlatWithEdges
 70
     1
 71
     2
 72
     1
 73
     1
 90
        2
 40
0.6
 41
30.0
 62
     5
 63
     7
421
 16777215
 74
     1
 91
        0
 64
     7
 65
   257
 75
     1
175
     1
 42
1.0
 92
        0
 66
   257
 43
1.0
 76
     1
 77
     6
 78
     2
 67
     7
 79
     5
170
     0
171
     0
290
     0
174
     0
 93
       13
 44
0.0
173
     0
291
     1
 45
0.0
  0
VISUALSTYLE
  5
2D
102
{ACAD_REACTORS
330
2A
102
}
102
{ACAD_XDICTIONARY
360
2FD
102
}
330
2A
100
AcDbVisualStyle
  2
Gouraud
 70
     2
 71
     2
 72
     2
 73
     1
 90
        2
 40
0.6
 41
30.0
 62
     5
 63
     7
421
 16777215
 74
     0
 91
        0
 64
     7
 65
   257
 75
     1
175
     1
 42
1.0
 92
        0
 66
     7
 43
1.0
 76
     1
 77
     6
 78
     2
 67
     7
 79
     5
170
     0
171
     0
290
     0
174
     0
 93
       13
 44
0.0
173
     0
291
     1
 45
0.0
  0
VISUALSTYLE
  5
2E
102
{ACAD_REACTORS
330
2A
102
}
102
{ACAD_XDICTIONARY
360
2FF
102
}
330
2A
100
AcDbVisualStyle
  2
GouraudWithEdges
 70
     3
 71
     2
 72
     2
 73
     1
 90
        2
 40
0.6
 41
30.0
 62
     5
 63
     7
421
 16777215
 74
     1
 91
        0
 64
     7
 65
   257
 75
     1
175
     1
 42
1.0
 92
        0
 66
   257
 43
1.0
 76
     1
 77
     6
 78
     2
 67
     7
 79
     5
170
     0
171
     0
290
     0
174
     0
 93
       13
 44
0.0
173
     0
291
     1
 45
0.0
  0
VISUALSTYLE
  5
31
102
{ACAD_REACTORS
330
2A
102
}
102
{ACAD_XDICTIONARY
360
305
102
}
330
2A
100
AcDbVisualStyle
  2
Hidden
 70
     6
 71
     1
 72
     2
 73
     2
 90
        0
 40
0.6
 41
30.0
 62
     5
 63
     7
421
 16777215
 74
     2
 91
        2
 64
     7
 65
   257
 75
     2
175
     1
 42
40.0
 92
        0
 66
   257
 43
1.0
 76
     1
 77
     6
 78
     2
 67
     7
 79
     3
170
     0
171
     0
290
     0
174
     0
 93
        1
 44
0.0
173
     0
291
     0
 45
0.0
  0
VISUALSTYLE
  5
3B
102
{ACAD_REACTORS
330
2A
102
}
102
{ACAD_XDICTIONARY
360
319
102
}
330
2A
100
AcDbVisualStyle
  2
JitterOff
 70
    20
 71
     2
 72
     2
 73
     0
 90
        0
 40
0.6
 41
30.0
 62
     5
 63
     7
421
 16777215
 74
     1
 91
        4
 64
     7
 65
   257
 75
     1
175
     1
 42
1.0
 92
       10
 66
     7
 43
1.0
 76
     1
 77
     6
 78
     2
 67
     7
 79
     5
170
     0
171
     0
290
     0
174
     0
 93
        1
 44
0.0
173
     0
291
     1
 45
0.0
  0
VISUALSTYLE
  5
38
102
{ACAD_REACTORS
330
2A
102
}
102
{ACAD_XDICTIONARY
360
313
102
}
330
2A
100
AcDbVisualStyle
  2
Linepattern
 70
    14
 71
     2
 72
     2
 73
     0
 90
        0
 40
0.6
 41
30.0
 62
     5
 63
     7
421
 16777215
 74
     1
 91
        4
 64
     7
 65
   257
 75
     7
175
     7
 42
1.0
 92
        8
 66
     7
 43
1.0
 76
     1
 77
     6
 78
     2
 67
     7
 79
     5
170
     0
171
     0
290
     0
174
     0
 93
        1
 44
0.0
173
     0
291
     1
 45
0.0
  0
VISUALSTYLE
  5
3C
102
{ACAD_REACTORS
330
2A
102
}
102
{ACAD_XDICTIONARY
360
31B
102
}
330
2A
100
AcDbVisualStyle
  2
OverhangOff
 70
    21
 71
     2
 72
     2
 73
     0
 90
        0
 40
0.6
 41
30.0
 62
     5
 63
     7
421
 16777215
 74
     1
 91
        4
 64
     7
 65
   257
 75
     1
175
     1
 42
1.0
 92
        9
 66
     7
 43
1.0
 76
     1
 77
     6
 78
     2
 67
     7
 79
     5
170
     0
171
     0
290
     0
174
     0
 93
        1
 44
0.0
173
     0
291
     1
 45
0.0
  0
VISUALSTYLE
  5
33
102
{ACAD_REACTORS
330
2A
102
}
102
{ACAD_XDICTIONARY
360
309
102
}
330
2A
100
AcDbVisualStyle
  2
Realistic
 70
     8
 71
     2
 72
     3
 73
     0
 90
        2
 40
0.6
 41
30.0
 62
     5
 63
     7
421
 16777215
 74
     0
 91
        0
 64
     7
 65
   257
 75
     1
175
     1
 42
1.0
 92
        8
 66
   257
 43
1.0
 76
     1
 77
     6
 78
     2
 67
     7
 79
     3
170
     0
171
     0
290
     0
174
     0
 93
       13
 44
0.0
173
     0
291
     0
 45
0.0
  0
VISUALSTYLE
  5
42
102
{ACAD_REACTORS
330
2A
102
}
102
{ACAD_XDICTIONARY
360
327
102
}
330
2A
100
AcDbVisualStyle
  2
Shaded
 70
    27
 71
     2
 72
     2
 73
     1
 90
        2
 40
0.6
 41
30.0
 62
     5
 63
     7
421
 16777215
 74
     0
 91
        4
 64
     7
 65
   257
 75
     1
175
     1
 42
1.0
 92
        8
 66
   257
 43
1.0
 76
     1
 77
     6
 78
     2
 67
     8
425
  7895160
 79
     3
170
     0
171
     0
290
     0
174
     0
 93
        5
 44
0.0
173
     0
291
     0
 45
0.0
  0
VISUALSTYLE
  5
41
102
{ACAD_REACTORS
330
2A
102
}
102
{ACAD_XDICTIONARY
360
325
102
}
330
2A
100
AcDbVisualStyle
  2
Shaded with edges
 70
    26
 71
     2
 72
     2
 73
     1
 90
        2
 40
0.6
 41
30.0
 62
     5
 63
     7
421
 16777215
 74
     1
 91
       10
 64
     7
 65
   257
 75
     2
175
     1
 42
1.0
 92
        8
 66
   257
 43
1.0
 76
     1
 77
     6
 78
     2
 67
     7
 79
     3
170
     0
171
     0
290
     0
174
     0
 93
        5
 44
0.0
173
     0
291
     0
 45
0.0
  0
VISUALSTYLE
  5
3E
102
{ACAD_REACTORS
330
2A
102
}
102
{ACAD_XDICTIONARY
360
31F
102
}
330
2A
100
AcDbVisualStyle
  2
Shades of Gray
 70
    23
 71
     2
 72
     2
 73
     3
 90
        0
 40
0.6
 41
30.0
 62
     5
 63
     7
421
 16777215
 74
     2
 91
        2
 64
     7
 65
     7
 75
     1
175
     1
 42
40.0
 92
        8
 66
     7
 43
1.0
 76
     1
 77
     6
 78
     2
 67
     7
 79
     3
170
     0
171
     0
290
     0
174
     0
 93
        1
 44
0.0
173
     0
291
     0
 45
0.0
  0
VISUALSTYLE
  5
3F
102
{ACAD_REACTORS
330
2A
102
}
102
{ACAD_XDICTIONARY
360
321
102
}
330
2A
100
AcDbVisualStyle
  2
Sketchy
 70
    24
 71
     1
 72
     2
 73
     2
 90
        0
 40
0.6
 41
30.0
 62
     5
 63
     7
421
 16777215
 74
     2
 91
        2
 64
     7
 65
     7
 75
     1
175
     1
 42
40.0
 92
       11
 66
     7
 43
1.0
 76
     1
 77
     6
 78
     2
 67
     7
 79
     6
170
     0
171
     0
290
     0
174
     0
 93
        1
 44
0.0
173
     0
291
     0
 45
0.0
  0
VISUALSTYLE
  5
37
102
{ACAD_REACTORS
330
2A
102
}
102
{ACAD_XDICTIONARY
360
311
102
}
330
2A
100
AcDbVisualStyle
  2
Thicken
 70
    13
 71
     2
 72
     2
 73
     0
 90
        0
 40
0.6
 41
30.0
 62
     5
 63
     7
421
 16777215
 74
     1
 91
        4
 64
     7
 65
   257
 75
     1
175
     1
 42
1.0
 92
       12
 66
     7
 43
1.0
 76
     1
 77
     6
 78
     2
 67
     7
 79
     5
170
     0
171
     0
290
     0
174
     0
 93
        1
 44
0.0
173
     0
291
     1
 45
0.0
  0
VISUALSTYLE
  5
30
102
{ACAD_REACTORS
330
2A
102
}
102
{ACAD_XDICTIONARY
360
303
102
}
330
2A
100
AcDbVisualStyle
  2
Wireframe
 70
     5
 71
     0
 72
     2
 73
     0
 90
        0
 40
0.6
 41
30.0
 62
     5
 63
     7
421
 16777215
 74
     1
 91
        4
 64
     7
 65
   257
 75
     1
175
     1
 42
1.0
 92
        0
 66
   257
 43
1.0
 76
     1
 77
     6
 78
     2
 67
     7
 79
     3
170
     0
171
     0
290
     0
174
     0
 93
        1
 44
0.0
173
     0
291
     0
 45
0.0
  0
VISUALSTYLE
  5
40
102
{ACAD_REACTORS
330
2A
102
}
102
{ACAD_XDICTIONARY
360
323
102
}
330
2A
100
AcDbVisualStyle
  2
X-Ray
 70
    25
 71
     2
 72
     2
 73
     1
 90
        1
 40
0.5
 41
30.0
 62
     5
 63
     7
421
 16777215
 74
     1
 91
        0
 64
     7
 65
   257
 75
     1
175
     1
 42
1.0
 92
        8
 66
     7
 43
1.0
 76
     1
 77
     6
 78
     2
 67
     7
 79
     3
170
     0
171
     0
290
     0
174
     0
 93
       13
 44
0.0
173
     0
291
     0
 45
0.0
  0
DICTIONARYVAR
  5
2F7
102
{ACAD_REACTORS
330
2F6
102
}
330
2F6
100
DictionaryVariables
280
     0
  1
1:1
  0
DICTIONARYVAR
  5
330
102
{ACAD_REACTORS
330
2F6
102
}
330
2F6
100
DictionaryVariables
280
     0
  1
Standard
  0
DICTIONARYVAR
  5
32F
102
{ACAD_REACTORS
330
2F6
102
}
330
2F6
100
DictionaryVariables
280
     0
  1
Standard
  0
DICTIONARYVAR
  5
2F8
102
{ACAD_REACTORS
330
2F6
102
}
330
2F6
100
DictionaryVariables
280
     0
  1
2
  0
DICTIONARY
  5
32C
330
6C
100
AcDbDictionary
280
     1
281
     1
  3
ACAD_XREC_ROUNDTRIP
360
32D
  0
DICTIONARY
  5
329
330
6A
100
AcDbDictionary
280
     1
281
     1
  3
ACAD_ROUNDTRIP_2008_TABLESTYLE_CELLSTYLEMAP
360
32A
  0
DICTIONARY
  5
301
330
2F
100
AcDbDictionary
280
     1
281
     1
  3
ACAD_XREC_ROUNDTRIP
360
302
  0
DICTIONARY
  5
307
330
32
100
AcDbDictionary
280
     1
281
     1
  3
ACAD_XREC_ROUNDTRIP
360
308
  0
DICTIONARY
  5
30F
330
36
100
AcDbDictionary
280
     1
281
     1
  3
ACAD_XREC_ROUNDTRIP
360
310
  0
DICTIONARY
  5
317
330
3A
100
AcDbDictionary
280
     1
281
     1
  3
ACAD_XREC_ROUNDTRIP
360
318
  0
DICTIONARY
  5
30B
330
34
100
AcDbDictionary
280
     1
281
     1
  3
ACAD_XREC_ROUNDTRIP
360
30C
  0
DICTIONARY
  5
30D
330
35
100
AcDbDictionary
280
     1
281
     1
  3
ACAD_XREC_ROUNDTRIP
360
30E
  0
DICTIONARY
  5
31D
330
3D
100
AcDbDictionary
280
     1
281
     1
  3
ACAD_XREC_ROUNDTRIP
360
31E
  0
DICTIONARY
  5
315
330
39
100
AcDbDictionary
280
     1
281
     1
  3
ACAD_XREC_ROUNDTRIP
360
316
  0
DICTIONARY
  5
2F9
330
2B
100
AcDbDictionary
280
     1
281
     1
  3
ACAD_XREC_ROUNDTRIP
360
2FA
  0
DICTIONARY
  5
2FB
330
2C
100
AcDbDictionary
280
     1
281
     1
  3
ACAD_XREC_ROUNDTRIP
360
2FC
  0
DICTIONARY
  5
2FD
330
2D
100
AcDbDictionary
280
     1
281
     1
  3
ACAD_XREC_ROUNDTRIP
360
2FE
  0
DICTIONARY
  5
2FF
330
2E
100
AcDbDictionary
280
     1
281
     1
  3
ACAD_XREC_ROUNDTRIP
360
300
  0
DICTIONARY
  5
305
330
31
100
AcDbDictionary
280
     1
281
     1
  3
ACAD_XREC_ROUNDTRIP
360
306
  0
DICTIONARY
  5
319
330
3B
100
AcDbDictionary
280
     1
281
     1
  3
ACAD_XREC_ROUNDTRIP
360
31A
  0
DICTIONARY
  5
313
330
38
100
AcDbDictionary
280
     1
281
     1
  3
ACAD_XREC_ROUNDTRIP
360
314
  0
DICTIONARY
  5
31B
330
3C
100
AcDbDictionary
280
     1
281
     1
  3
ACAD_XREC_ROUNDTRIP
360
31C
  0
DICTIONARY
  5
309
330
33
100
AcDbDictionary
280
     1
281
     1
  3
ACAD_XREC_ROUNDTRIP
360
30A
  0
DICTIONARY
  5
327
330
42
100
AcDbDictionary
280
     1
281
     1
  3
ACAD_XREC_ROUNDTRIP
360
328
  0
DICTIONARY
  5
325
330
41
100
AcDbDictionary
280
     1
281
     1
  3
ACAD_XREC_ROUNDTRIP
360
326
  0
DICTIONARY
  5
31F
330
3E
100
AcDbDictionary
280
     1
281
     1
  3
ACAD_XREC_ROUNDTRIP
360
320
  0
DICTIONARY
  5
321
330
3F
100
AcDbDictionary
280
     1
281
     1
  3
ACAD_XREC_ROUNDTRIP
360
322
  0
DICTIONARY
  5
311
330
37
100
AcDbDictionary
280
     1
281
     1
  3
ACAD_XREC_ROUNDTRIP
360
312
  0
DICTIONARY
  5
303
330
30
100
AcDbDictionary
280
     1
281
     1
  3
ACAD_XREC_ROUNDTRIP
360
304
  0
DICTIONARY
  5
323
330
40
100
AcDbDictionary
280
     1
281
     1
  3
ACAD_XREC_ROUNDTRIP
360
324
  0
XRECORD
  5
32D
102
{ACAD_REACTORS
330
32C
102
}
330
32C
100
AcDbXrecord
280
     1
102
ACAD_ROUNDTRIP_2010_MLEADER_STYLE
  0
CELLSTYLEMAP
  5
32A
102
{ACAD_REACTORS
330
329
102
}
330
329
100
AcDbCellStyleMap
 90
        3
300
CELLSTYLE
  1
TABLEFORMAT_BEGIN
 90
        5
170
     1
 91
        0
 92
    32768
 62
   257
 93
        1
300
CONTENTFORMAT
  1
CONTENTFORMAT_BEGIN
 90
        0
 91
        0
 92
        4
 93
        0
300

 40
0.0
140
1.0
 94
        5
 62
     0
340
11
144
0.25
309
CONTENTFORMAT_END
171
     1
301
MARGIN
  1
CELLMARGIN_BEGIN
 40
0.06
 40
0.06
 40
0.06
 40
0.06
 40
0.06
 40
0.06
309
CELLMARGIN_END
 94
        6
 95
        1
302
GRIDFORMAT
  1
GRIDFORMAT_BEGIN
 90
        0
 91
        1
 62
     0
 92
       -2
340
14
 93
        0
 40
0.045
309
GRIDFORMAT_END
 95
        2
302
GRIDFORMAT
  1
GRIDFORMAT_BEGIN
 90
        0
 91
        1
 62
     0
 92
       -2
340
14
 93
        0
 40
0.045
309
GRIDFORMAT_END
 95
        4
302
GRIDFORMAT
  1
GRIDFORMAT_BEGIN
 90
        0
 91
        1
 62
     0
 92
       -2
340
14
 93
        0
 40
0.045
309
GRIDFORMAT_END
 95
        8
302
GRIDFORMAT
  1
GRIDFORMAT_BEGIN
 90
        0
 91
        1
 62
     0
 92
       -2
340
14
 93
        0
 40
0.045
309
GRIDFORMAT_END
 95
       16
302
GRIDFORMAT
  1
GRIDFORMAT_BEGIN
 90
        0
 91
        1
 62
     0
 92
       -2
340
14
 93
        0
 40
0.045
309
GRIDFORMAT_END
 95
       32
302
GRIDFORMAT
  1
GRIDFORMAT_BEGIN
 90
        0
 91
        1
 62
     0
 92
       -2
340
14
 93
        0
 40
0.045
309
GRIDFORMAT_END
309
TABLEFORMAT_END
  1
CELLSTYLE_BEGIN
 90
        1
 91
        1
300
_TITLE
309
CELLSTYLE_END
300
CELLSTYLE
  1
TABLEFORMAT_BEGIN
 90
        5
170
     1
 91
        0
 92
        0
 62
   257
 93
        1
300
CONTENTFORMAT
  1
CONTENTFORMAT_BEGIN
 90
        0
 91
        0
 92
        4
 93
        0
300

 40
0.0
140
1.0
 94
        5
 62
     0
340
11
144
0.18
309
CONTENTFORMAT_END
171
     1
301
MARGIN
  1
CELLMARGIN_BEGIN
 40
0.06
 40
0.06
 40
0.06
 40
0.06
 40
0.06
 40
0.06
309
CELLMARGIN_END
 94
        6
 95
        1
302
GRIDFORMAT
  1
GRIDFORMAT_BEGIN
 90
        0
 91
        1
 62
     0
 92
       -2
340
14
 93
        0
 40
0.045
309
GRIDFORMAT_END
 95
        2
302
GRIDFORMAT
  1
GRIDFORMAT_BEGIN
 90
        0
 91
        1
 62
     0
 92
       -2
340
14
 93
        0
 40
0.045
309
GRIDFORMAT_END
 95
        4
302
GRIDFORMAT
  1
GRIDFORMAT_BEGIN
 90
        0
 91
        1
 62
     0
 92
       -2
340
14
 93
        0
 40
0.045
309
GRIDFORMAT_END
 95
        8
302
GRIDFORMAT
  1
GRIDFORMAT_BEGIN
 90
        0
 91
        1
 62
     0
 92
       -2
340
14
 93
        0
 40
0.045
309
GRIDFORMAT_END
 95
       16
302
GRIDFORMAT
  1
GRIDFORMAT_BEGIN
 90
        0
 91
        1
 62
     0
 92
       -2
340
14
 93
        0
 40
0.045
309
GRIDFORMAT_END
 95
       32
302
GRIDFORMAT
  1
GRIDFORMAT_BEGIN
 90
        0
 91
        1
 62
     0
 92
       -2
340
14
 93
        0
 40
0.045
309
GRIDFORMAT_END
309
TABLEFORMAT_END
  1
CELLSTYLE_BEGIN
 90
        2
 91
        1
300
_HEADER
309
CELLSTYLE_END
300
CELLSTYLE
  1
TABLEFORMAT_BEGIN
 90
        5
170
     1
 91
        0
 92
        0
 62
   257
 93
        1
300
CONTENTFORMAT
  1
CONTENTFORMAT_BEGIN
 90
        0
 91
        0
 92
        4
 93
        0
300

 40
0.0
140
1.0
 94
        2
 62
     0
340
11
144
0.18
309
CONTENTFORMAT_END
171
     1
301
MARGIN
  1
CELLMARGIN_BEGIN
 40
0.06
 40
0.06
 40
0.06
 40
0.06
 40
0.06
 40
0.06
309
CELLMARGIN_END
 94
        6
 95
        1
302
GRIDFORMAT
  1
GRIDFORMAT_BEGIN
 90
        0
 91
        1
 62
     0
 92
       -2
340
14
 93
        0
 40
0.045
309
GRIDFORMAT_END
 95
        2
302
GRIDFORMAT
  1
GRIDFORMAT_BEGIN
 90
        0
 91
        1
 62
     0
 92
       -2
340
14
 93
        0
 40
0.045
309
GRIDFORMAT_END
 95
        4
302
GRIDFORMAT
  1
GRIDFORMAT_BEGIN
 90
        0
 91
        1
 62
     0
 92
       -2
340
14
 93
        0
 40
0.045
309
GRIDFORMAT_END
 95
        8
302
GRIDFORMAT
  1
GRIDFORMAT_BEGIN
 90
        0
 91
        1
 62
     0
 92
       -2
340
14
 93
        0
 40
0.045
309
GRIDFORMAT_END
 95
       16
302
GRIDFORMAT
  1
GRIDFORMAT_BEGIN
 90
        0
 91
        1
 62
     0
 92
       -2
340
14
 93
        0
 40
0.045
309
GRIDFORMAT_END
 95
       32
302
GRIDFORMAT
  1
GRIDFORMAT_BEGIN
 90
        0
 91
        1
 62
     0
 92
       -2
340
14
 93
        0
 40
0.045
309
GRIDFORMAT_END
309
TABLEFORMAT_END
  1
CELLSTYLE_BEGIN
 90
        3
 91
        2
300
_DATA
309
CELLSTYLE_END
  0
XRECORD
  5
302
102
{ACAD_REACTORS
330
301
102
}
330
301
100
AcDbXrecord
280
     1
102
RTVSPropertyOp0
 70
     1
102
RTVSPropertyOp1
 70
     1
102
RTVSPropertyOp2
 70
     1
102
RTVSPropertyOp3
 70
     1
102
RTVSPropertyOp4
 70
     1
102
RTVSPropertyOp5
 70
     1
102
RTVSPropertyOp6
 70
     1
102
RTVSPropertyOp7
 70
     1
102
RTVSPropertyOp8
 70
     1
102
RTVSPropertyOp9
 70
     1
102
RTVSPropertyOp10
 70
     1
102
RTVSPropertyOp11
 70
     1
102
RTVSPropertyOp12
 70
     1
102
RTVSPropertyOp13
 70
     1
102
RTVSPropertyOp14
 70
     1
102
RTVSPropertyOp15
 70
     1
102
RTVSPropertyOp16
 70
     1
102
RTVSPropertyOp17
 70
     1
102
RTVSPropertyOp18
 70
     1
102
RTVSPropertyOp19
 70
     1
102
RTVSPropertyOp20
 70
     1
102
RTVSPropertyOp21
 70
     1
102
RTVSPropertyOp22
 70
     1
102
RTVSPropertyOp23
 70
     1
102
RTVSPropertyOp24
 70
     1
102
RTVSPropertyOp25
 70
     1
102
RTVSPropertyOp26
 70
     1
102
RTVSPropertyOp27
 70
     1
102
RTVSPropertyOp28
 70
     1
102
RTVSPropertyOp29
 70
     1
102
RTVSPropertyOp30
 70
     1
102
RTVSPropertyOp31
 70
     1
102
RTVSPropertyOp32
 70
     1
102
RTVSPropertyOp33
 70
     1
102
RTVSPropertyOp34
 70
     1
102
RTVSPropertyOp35
 70
     1
102
RTVSPropertyOp36
 70
     1
102
RTVSPropertyOp37
 70
     1
102
RTVSPropertyOp38
 70
     1
102
RTVSPropertyOp39
 70
     1
102
RTVSPropertyOp40
 70
     1
102
RTVSPropertyOp41
 70
     1
102
RTVSPropertyOp42
 70
     1
102
RTVSPropertyOp43
 70
     1
102
RTVSPropertyOp44
 70
     1
102
RTVSPropertyOp45
 70
     1
102
RTVSPropertyOp46
 70
     1
102
RTVSPropertyOp47
 70
     1
102
RTVSPropertyOp48
 70
     1
102
RTVSPropertyOp49
 70
     1
102
RTVSPropertyOp50
 70
     1
102
RTVSPropertyOp51
 70
     0
102
RTVSPropertyOp52
 70
     0
102
RTVSPropertyOp53
 70
     1
102
RTVSPropertyOp54
 70
     1
102
RTVSPropertyOp55
 70
     1
102
RTVSPropertyOp56
 70
     1
102
RTVSPropertyOp57
 70
     1
102
RTVSPost2010Prop28
280
     1
102
RTVSPost2010PropOp28
 70
     1
102
RTVSPost2010Prop29
280
     1
102
RTVSPost2010PropOp29
 70
     1
102
RTVSPost2010Prop30
280
     0
102
RTVSPost2010PropOp30
 70
     1
102
RTVSPost2010Prop31
280
     0
102
RTVSPost2010PropOp31
 70
     1
102
RTVSPost2010Prop32
280
     0
102
RTVSPost2010PropOp32
 70
     1
102
RTVSPost2010Prop33
280
     0
102
RTVSPost2010PropOp33
 70
     1
102
RTVSPost2010Prop34
280
     0
102
RTVSPost2010PropOp34
 70
     1
102
RTVSPost2010Prop35
280
     0
102
RTVSPost2010PropOp35
 70
     1
102
RTVSPost2010Prop36
280
     0
102
RTVSPost2010PropOp36
 70
     1
102
RTVSPost2010Prop37
 90
       50
102
RTVSPost2010PropOp37
 70
     1
102
RTVSPost2010Prop38
140
0.0
102
RTVSPost2010PropOp38
 70
     1
102
RTVSPost2010Prop39
140
1.0
102
RTVSPost2010PropOp39
 70
     1
102
RTVSPost2010Prop40
 90
        0
102
RTVSPost2010PropOp40
 70
     1
102
RTVSPost2010Prop41ColorIndex
 90
       18
102
RTVSPost2010Prop41ColorRGB
 90
        0
102
RTVSPost2010PropOp41
 70
     1
102
RTVSPost2010Prop42
 90
       50
102
RTVSPost2010PropOp42
 70
     1
102
RTVSPost2010Prop43
 90
        3
102
RTVSPost2010PropOp43
 70
     1
102
RTVSPost2010Prop44ColorIndex
 90
        5
102
RTVSPost2010Prop44ColorRGB
 90
      255
102
RTVSPost2010PropOp44
 70
     1
102
RTVSPost2010Prop45
280
     0
102
RTVSPost2010PropOp45
 70
     1
102
RTVSPost2010Prop46
 90
       50
102
RTVSPost2010PropOp46
 70
     1
102
RTVSPost2010Prop47
 90
       50
102
RTVSPost2010PropOp47
 70
     1
102
RTVSPost2010Prop48
 90
       50
102
RTVSPost2010PropOp48
 70
     1
102
RTVSPost2010Prop49
280
     0
102
RTVSPost2010PropOp49
 70
     1
102
RTVSPost2010Prop50
 90
       50
102
RTVSPost2010PropOp50
 70
     1
102
RTVSPost2010Prop51ColorIndex
 90
      256
102
RTVSPost2010Prop51ColorRGB
 90
-16777216
102
RTVSPost2010PropOp51
 70
     0
102
RTVSPost2010Prop52
140
1.0
102
RTVSPost2010PropOp52
 70
     0
102
RTVSPost2010Prop53
 90
        2
102
RTVSPost2010PropOp53
 70
     1
102
RTVSPost2010Prop54
  1
strokes_ogs.tif
102
RTVSPost2010PropOp54
 70
     1
102
RTVSPost2010Prop55
280
     0
102
RTVSPost2010PropOp55
 70
     1
102
RTVSPost2010Prop56
140
1.0
102
RTVSPost2010PropOp56
 70
     1
102
RTVSPost2010Prop57
140
1.0
102
RTVSPost2010PropOp57
 70
     1
  0
XRECORD
  5
308
102
{ACAD_REACTORS
330
307
102
}
330
307
100
AcDbXrecord
280
     1
102
RTVSPropertyOp0
 70
     1
102
RTVSPropertyOp1
 70
     1
102
RTVSPropertyOp2
 70
     1
102
RTVSPropertyOp3
 70
     1
102
RTVSPropertyOp4
 70
     1
102
RTVSPropertyOp5
 70
     1
102
RTVSPropertyOp6
 70
     1
102
RTVSPropertyOp7
 70
     1
102
RTVSPropertyOp8
 70
     1
102
RTVSPropertyOp9
 70
     1
102
RTVSPropertyOp10
 70
     1
102
RTVSPropertyOp11
 70
     1
102
RTVSPropertyOp12
 70
     1
102
RTVSPropertyOp13
 70
     1
102
RTVSPropertyOp14
 70
     1
102
RTVSPropertyOp15
 70
     1
102
RTVSPropertyOp16
 70
     1
102
RTVSPropertyOp17
 70
     1
102
RTVSPropertyOp18
 70
     1
102
RTVSPropertyOp19
 70
     1
102
RTVSPropertyOp20
 70
     1
102
RTVSPropertyOp21
 70
     1
102
RTVSPropertyOp22
 70
     1
102
RTVSPropertyOp23
 70
     1
102
RTVSPropertyOp24
 70
     1
102
RTVSPropertyOp25
 70
     1
102
RTVSPropertyOp26
 70
     1
102
RTVSPropertyOp27
 70
     1
102
RTVSPropertyOp28
 70
     1
102
RTVSPropertyOp29
 70
     1
102
RTVSPropertyOp30
 70
     1
102
RTVSPropertyOp31
 70
     1
102
RTVSPropertyOp32
 70
     1
102
RTVSPropertyOp33
 70
     1
102
RTVSPropertyOp34
 70
     1
102
RTVSPropertyOp35
 70
     1
102
RTVSPropertyOp36
 70
     1
102
RTVSPropertyOp37
 70
     1
102
RTVSPropertyOp38
 70
     1
102
RTVSPropertyOp39
 70
     1
102
RTVSPropertyOp40
 70
     1
102
RTVSPropertyOp41
 70
     1
102
RTVSPropertyOp42
 70
     1
102
RTVSPropertyOp43
 70
     1
102
RTVSPropertyOp44
 70
     1
102
RTVSPropertyOp45
 70
     1
102
RTVSPropertyOp46
 70
     1
102
RTVSPropertyOp47
 70
     1
102
RTVSPropertyOp48
 70
     1
102
RTVSPropertyOp49
 70
     1
102
RTVSPropertyOp50
 70
     1
102
RTVSPropertyOp51
 70
     0
102
RTVSPropertyOp52
 70
     0
102
RTVSPropertyOp53
 70
     1
102
RTVSPropertyOp54
 70
     1
102
RTVSPropertyOp55
 70
     1
102
RTVSPropertyOp56
 70
     1
102
RTVSPropertyOp57
 70
     1
102
RTVSPost2010Prop28
280
     0
102
RTVSPost2010PropOp28
 70
     1
102
RTVSPost2010Prop29
280
     1
102
RTVSPost2010PropOp29
 70
     1
102
RTVSPost2010Prop30
280
     1
102
RTVSPost2010PropOp30
 70
     1
102
RTVSPost2010Prop31
280
     0
102
RTVSPost2010PropOp31
 70
     1
102
RTVSPost2010Prop32
280
     0
102
RTVSPost2010PropOp32
 70
     1
102
RTVSPost2010Prop33
280
     0
102
RTVSPost2010PropOp33
 70
     1
102
RTVSPost2010Prop34
280
     0
102
RTVSPost2010PropOp34
 70
     1
102
RTVSPost2010Prop35
280
     0
102
RTVSPost2010PropOp35
 70
     1
102
RTVSPost2010Prop36
280
     0
102
RTVSPost2010PropOp36
 70
     1
102
RTVSPost2010Prop37
 90
       50
102
RTVSPost2010PropOp37
 70
     1
102
RTVSPost2010Prop38
140
0.0
102
RTVSPost2010PropOp38
 70
     1
102
RTVSPost2010Prop39
140
1.0
102
RTVSPost2010PropOp39
 70
     1
102
RTVSPost2010Prop40
 90
        0
102
RTVSPost2010PropOp40
 70
     1
102
RTVSPost2010Prop41ColorIndex
 90
       18
102
RTVSPost2010Prop41ColorRGB
 90
        0
102
RTVSPost2010PropOp41
 70
     1
102
RTVSPost2010Prop42
 90
       50
102
RTVSPost2010PropOp42
 70
     1
102
RTVSPost2010Prop43
 90
        3
102
RTVSPost2010PropOp43
 70
     1
102
RTVSPost2010Prop44ColorIndex
 90
        5
102
RTVSPost2010Prop44ColorRGB
 90
      255
102
RTVSPost2010PropOp44
 70
     1
102
RTVSPost2010Prop45
280
     0
102
RTVSPost2010PropOp45
 70
     1
102
RTVSPost2010Prop46
 90
       50
102
RTVSPost2010PropOp46
 70
     1
102
RTVSPost2010Prop47
 90
       50
102
RTVSPost2010PropOp47
 70
     1
102
RTVSPost2010Prop48
 90
       50
102
RTVSPost2010PropOp48
 70
     1
102
RTVSPost2010Prop49
280
     0
102
RTVSPost2010PropOp49
 70
     1
102
RTVSPost2010Prop50
 90
       50
102
RTVSPost2010PropOp50
 70
     1
102
RTVSPost2010Prop51ColorIndex
 90
      256
102
RTVSPost2010Prop51ColorRGB
 90
-16777216
102
RTVSPost2010PropOp51
 70
     0
102
RTVSPost2010Prop52
140
1.0
102
RTVSPost2010PropOp52
 70
     0
102
RTVSPost2010Prop53
 90
        2
102
RTVSPost2010PropOp53
 70
     1
102
RTVSPost2010Prop54
  1
strokes_ogs.tif
102
RTVSPost2010PropOp54
 70
     1
102
RTVSPost2010Prop55
280
     0
102
RTVSPost2010PropOp55
 70
     1
102
RTVSPost2010Prop56
140
1.0
102
RTVSPost2010PropOp56
 70
     1
102
RTVSPost2010Prop57
140
1.0
102
RTVSPost2010PropOp57
 70
     1
  0
XRECORD
  5
310
102
{ACAD_REACTORS
330
30F
102
}
330
30F
100
AcDbXrecord
280
     1
102
RTVSPropertyOp0
 70
     1
102
RTVSPropertyOp1
 70
     1
102
RTVSPropertyOp2
 70
     1
102
RTVSPropertyOp3
 70
     1
102
RTVSPropertyOp4
 70
     1
102
RTVSPropertyOp5
 70
     1
102
RTVSPropertyOp6
 70
     1
102
RTVSPropertyOp7
 70
     1
102
RTVSPropertyOp8
 70
     1
102
RTVSPropertyOp9
 70
     1
102
RTVSPropertyOp10
 70
     1
102
RTVSPropertyOp11
 70
     1
102
RTVSPropertyOp12
 70
     1
102
RTVSPropertyOp13
 70
     1
102
RTVSPropertyOp14
 70
     1
102
RTVSPropertyOp15
 70
     1
102
RTVSPropertyOp16
 70
     1
102
RTVSPropertyOp17
 70
     1
102
RTVSPropertyOp18
 70
     1
102
RTVSPropertyOp19
 70
     1
102
RTVSPropertyOp20
 70
     1
102
RTVSPropertyOp21
 70
     1
102
RTVSPropertyOp22
 70
     1
102
RTVSPropertyOp23
 70
     1
102
RTVSPropertyOp24
 70
     1
102
RTVSPropertyOp25
 70
     1
102
RTVSPropertyOp26
 70
     1
102
RTVSPropertyOp27
 70
     1
102
RTVSPropertyOp28
 70
     1
102
RTVSPropertyOp29
 70
     1
102
RTVSPropertyOp30
 70
     1
102
RTVSPropertyOp31
 70
     1
102
RTVSPropertyOp32
 70
     1
102
RTVSPropertyOp33
 70
     1
102
RTVSPropertyOp34
 70
     1
102
RTVSPropertyOp35
 70
     1
102
RTVSPropertyOp36
 70
     1
102
RTVSPropertyOp37
 70
     1
102
RTVSPropertyOp38
 70
     1
102
RTVSPropertyOp39
 70
     1
102
RTVSPropertyOp40
 70
     1
102
RTVSPropertyOp41
 70
     1
102
RTVSPropertyOp42
 70
     1
102
RTVSPropertyOp43
 70
     1
102
RTVSPropertyOp44
 70
     1
102
RTVSPropertyOp45
 70
     1
102
RTVSPropertyOp46
 70
     1
102
RTVSPropertyOp47
 70
     1
102
RTVSPropertyOp48
 70
     1
102
RTVSPropertyOp49
 70
     1
102
RTVSPropertyOp50
 70
     1
102
RTVSPropertyOp51
 70
     0
102
RTVSPropertyOp52
 70
     0
102
RTVSPropertyOp53
 70
     1
102
RTVSPropertyOp54
 70
     1
102
RTVSPropertyOp55
 70
     1
102
RTVSPropertyOp56
 70
     1
102
RTVSPropertyOp57
 70
     1
102
RTVSPost2010Prop28
280
     0
102
RTVSPost2010PropOp28
 70
     1
102
RTVSPost2010Prop29
280
     1
102
RTVSPost2010PropOp29
 70
     1
102
RTVSPost2010Prop30
280
     1
102
RTVSPost2010PropOp30
 70
     1
102
RTVSPost2010Prop31
280
     0
102
RTVSPost2010PropOp31
 70
     1
102
RTVSPost2010Prop32
280
     0
102
RTVSPost2010PropOp32
 70
     1
102
RTVSPost2010Prop33
280
     0
102
RTVSPost2010PropOp33
 70
     1
102
RTVSPost2010Prop34
280
     0
102
RTVSPost2010PropOp34
 70
     1
102
RTVSPost2010Prop35
280
     0
102
RTVSPost2010PropOp35
 70
     1
102
RTVSPost2010Prop36
280
     0
102
RTVSPost2010PropOp36
 70
     1
102
RTVSPost2010Prop37
 90
       50
102
RTVSPost2010PropOp37
 70
     1
102
RTVSPost2010Prop38
140
0.0
102
RTVSPost2010PropOp38
 70
     1
102
RTVSPost2010Prop39
140
1.0
102
RTVSPost2010PropOp39
 70
     1
102
RTVSPost2010Prop40
 90
        0
102
RTVSPost2010PropOp40
 70
     1
102
RTVSPost2010Prop41ColorIndex
 90
       18
102
RTVSPost2010Prop41ColorRGB
 90
        0
102
RTVSPost2010PropOp41
 70
     1
102
RTVSPost2010Prop42
 90
       50
102
RTVSPost2010PropOp42
 70
     1
102
RTVSPost2010Prop43
 90
        3
102
RTVSPost2010PropOp43
 70
     1
102
RTVSPost2010Prop44ColorIndex
 90
        5
102
RTVSPost2010Prop44ColorRGB
 90
      255
102
RTVSPost2010PropOp44
 70
     1
102
RTVSPost2010Prop45
280
     0
102
RTVSPost2010PropOp45
 70
     1
102
RTVSPost2010Prop46
 90
       50
102
RTVSPost2010PropOp46
 70
     1
102
RTVSPost2010Prop47
 90
       50
102
RTVSPost2010PropOp47
 70
     1
102
RTVSPost2010Prop48
 90
       50
102
RTVSPost2010PropOp48
 70
     1
102
RTVSPost2010Prop49
280
     0
102
RTVSPost2010PropOp49
 70
     1
102
RTVSPost2010Prop50
 90
       50
102
RTVSPost2010PropOp50
 70
     1
102
RTVSPost2010Prop51ColorIndex
 90
      256
102
RTVSPost2010Prop51ColorRGB
 90
-16777216
102
RTVSPost2010PropOp51
 70
     0
102
RTVSPost2010Prop52
140
1.0
102
RTVSPost2010PropOp52
 70
     0
102
RTVSPost2010Prop53
 90
        2
102
RTVSPost2010PropOp53
 70
     1
102
RTVSPost2010Prop54
  1
strokes_ogs.tif
102
RTVSPost2010PropOp54
 70
     1
102
RTVSPost2010Prop55
280
     0
102
RTVSPost2010PropOp55
 70
     1
102
RTVSPost2010Prop56
140
1.0
102
RTVSPost2010PropOp56
 70
     1
102
RTVSPost2010Prop57
140
1.0
102
RTVSPost2010PropOp57
 70
     1
  0
XRECORD
  5
318
102
{ACAD_REACTORS
330
317
102
}
330
317
100
AcDbXrecord
280
     1
102
RTVSPropertyOp0
 70
     1
102
RTVSPropertyOp1
 70
     1
102
RTVSPropertyOp2
 70
     1
102
RTVSPropertyOp3
 70
     1
102
RTVSPropertyOp4
 70
     1
102
RTVSPropertyOp5
 70
     1
102
RTVSPropertyOp6
 70
     1
102
RTVSPropertyOp7
 70
     1
102
RTVSPropertyOp8
 70
     1
102
RTVSPropertyOp9
 70
     1
102
RTVSPropertyOp10
 70
     1
102
RTVSPropertyOp11
 70
     1
102
RTVSPropertyOp12
 70
     1
102
RTVSPropertyOp13
 70
     1
102
RTVSPropertyOp14
 70
     1
102
RTVSPropertyOp15
 70
     1
102
RTVSPropertyOp16
 70
     1
102
RTVSPropertyOp17
 70
     1
102
RTVSPropertyOp18
 70
     1
102
RTVSPropertyOp19
 70
     1
102
RTVSPropertyOp20
 70
     1
102
RTVSPropertyOp21
 70
     1
102
RTVSPropertyOp22
 70
     1
102
RTVSPropertyOp23
 70
     1
102
RTVSPropertyOp24
 70
     1
102
RTVSPropertyOp25
 70
     1
102
RTVSPropertyOp26
 70
     1
102
RTVSPropertyOp27
 70
     1
102
RTVSPropertyOp28
 70
     1
102
RTVSPropertyOp29
 70
     1
102
RTVSPropertyOp30
 70
     1
102
RTVSPropertyOp31
 70
     1
102
RTVSPropertyOp32
 70
     1
102
RTVSPropertyOp33
 70
     1
102
RTVSPropertyOp34
 70
     1
102
RTVSPropertyOp35
 70
     1
102
RTVSPropertyOp36
 70
     1
102
RTVSPropertyOp37
 70
     1
102
RTVSPropertyOp38
 70
     1
102
RTVSPropertyOp39
 70
     1
102
RTVSPropertyOp40
 70
     1
102
RTVSPropertyOp41
 70
     1
102
RTVSPropertyOp42
 70
     1
102
RTVSPropertyOp43
 70
     1
102
RTVSPropertyOp44
 70
     1
102
RTVSPropertyOp45
 70
     1
102
RTVSPropertyOp46
 70
     1
102
RTVSPropertyOp47
 70
     1
102
RTVSPropertyOp48
 70
     1
102
RTVSPropertyOp49
 70
     1
102
RTVSPropertyOp50
 70
     1
102
RTVSPropertyOp51
 70
     0
102
RTVSPropertyOp52
 70
     0
102
RTVSPropertyOp53
 70
     1
102
RTVSPropertyOp54
 70
     1
102
RTVSPropertyOp55
 70
     1
102
RTVSPropertyOp56
 70
     1
102
RTVSPropertyOp57
 70
     1
102
RTVSPost2010Prop28
280
     0
102
RTVSPost2010PropOp28
 70
     1
102
RTVSPost2010Prop29
280
     1
102
RTVSPost2010PropOp29
 70
     1
102
RTVSPost2010Prop30
280
     1
102
RTVSPost2010PropOp30
 70
     1
102
RTVSPost2010Prop31
280
     0
102
RTVSPost2010PropOp31
 70
     1
102
RTVSPost2010Prop32
280
     0
102
RTVSPost2010PropOp32
 70
     1
102
RTVSPost2010Prop33
280
     0
102
RTVSPost2010PropOp33
 70
     1
102
RTVSPost2010Prop34
280
     0
102
RTVSPost2010PropOp34
 70
     1
102
RTVSPost2010Prop35
280
     0
102
RTVSPost2010PropOp35
 70
     1
102
RTVSPost2010Prop36
280
     0
102
RTVSPost2010PropOp36
 70
     1
102
RTVSPost2010Prop37
 90
       50
102
RTVSPost2010PropOp37
 70
     1
102
RTVSPost2010Prop38
140
0.0
102
RTVSPost2010PropOp38
 70
     1
102
RTVSPost2010Prop39
140
1.0
102
RTVSPost2010PropOp39
 70
     1
102
RTVSPost2010Prop40
 90
        0
102
RTVSPost2010PropOp40
 70
     1
102
RTVSPost2010Prop41ColorIndex
 90
       18
102
RTVSPost2010Prop41ColorRGB
 90
        0
102
RTVSPost2010PropOp41
 70
     1
102
RTVSPost2010Prop42
 90
       50
102
RTVSPost2010PropOp42
 70
     1
102
RTVSPost2010Prop43
 90
        3
102
RTVSPost2010PropOp43
 70
     1
102
RTVSPost2010Prop44ColorIndex
 90
        5
102
RTVSPost2010Prop44ColorRGB
 90
      255
102
RTVSPost2010PropOp44
 70
     1
102
RTVSPost2010Prop45
280
     0
102
RTVSPost2010PropOp45
 70
     1
102
RTVSPost2010Prop46
 90
       50
102
RTVSPost2010PropOp46
 70
     1
102
RTVSPost2010Prop47
 90
       50
102
RTVSPost2010PropOp47
 70
     1
102
RTVSPost2010Prop48
 90
       50
102
RTVSPost2010PropOp48
 70
     1
102
RTVSPost2010Prop49
280
     0
102
RTVSPost2010PropOp49
 70
     1
102
RTVSPost2010Prop50
 90
       50
102
RTVSPost2010PropOp50
 70
     1
102
RTVSPost2010Prop51ColorIndex
 90
      256
102
RTVSPost2010Prop51ColorRGB
 90
-16777216
102
RTVSPost2010PropOp51
 70
     0
102
RTVSPost2010Prop52
140
1.0
102
RTVSPost2010PropOp52
 70
     0
102
RTVSPost2010Prop53
 90
        2
102
RTVSPost2010PropOp53
 70
     1
102
RTVSPost2010Prop54
  1
strokes_ogs.tif
102
RTVSPost2010PropOp54
 70
     1
102
RTVSPost2010Prop55
280
     0
102
RTVSPost2010PropOp55
 70
     1
102
RTVSPost2010Prop56
140
1.0
102
RTVSPost2010PropOp56
 70
     1
102
RTVSPost2010Prop57
140
1.0
102
RTVSPost2010PropOp57
 70
     1
  0
XRECORD
  5
30C
102
{ACAD_REACTORS
330
30B
102
}
330
30B
100
AcDbXrecord
280
     1
102
RTVSPropertyOp0
 70
     1
102
RTVSPropertyOp1
 70
     1
102
RTVSPropertyOp2
 70
     1
102
RTVSPropertyOp3
 70
     1
102
RTVSPropertyOp4
 70
     1
102
RTVSPropertyOp5
 70
     1
102
RTVSPropertyOp6
 70
     1
102
RTVSPropertyOp7
 70
     1
102
RTVSPropertyOp8
 70
     1
102
RTVSPropertyOp9
 70
     1
102
RTVSPropertyOp10
 70
     1
102
RTVSPropertyOp11
 70
     1
102
RTVSPropertyOp12
 70
     1
102
RTVSPropertyOp13
 70
     1
102
RTVSPropertyOp14
 70
     1
102
RTVSPropertyOp15
 70
     1
102
RTVSPropertyOp16
 70
     1
102
RTVSPropertyOp17
 70
     1
102
RTVSPropertyOp18
 70
     1
102
RTVSPropertyOp19
 70
     1
102
RTVSPropertyOp20
 70
     1
102
RTVSPropertyOp21
 70
     1
102
RTVSPropertyOp22
 70
     1
102
RTVSPropertyOp23
 70
     1
102
RTVSPropertyOp24
 70
     1
102
RTVSPropertyOp25
 70
     1
102
RTVSPropertyOp26
 70
     1
102
RTVSPropertyOp27
 70
     1
102
RTVSPropertyOp28
 70
     1
102
RTVSPropertyOp29
 70
     1
102
RTVSPropertyOp30
 70
     1
102
RTVSPropertyOp31
 70
     1
102
RTVSPropertyOp32
 70
     1
102
RTVSPropertyOp33
 70
     1
102
RTVSPropertyOp34
 70
     1
102
RTVSPropertyOp35
 70
     1
102
RTVSPropertyOp36
 70
     1
102
RTVSPropertyOp37
 70
     1
102
RTVSPropertyOp38
 70
     1
102
RTVSPropertyOp39
 70
     1
102
RTVSPropertyOp40
 70
     1
102
RTVSPropertyOp41
 70
     1
102
RTVSPropertyOp42
 70
     1
102
RTVSPropertyOp43
 70
     1
102
RTVSPropertyOp44
 70
     1
102
RTVSPropertyOp45
 70
     1
102
RTVSPropertyOp46
 70
     1
102
RTVSPropertyOp47
 70
     1
102
RTVSPropertyOp48
 70
     1
102
RTVSPropertyOp49
 70
     1
102
RTVSPropertyOp50
 70
     1
102
RTVSPropertyOp51
 70
     0
102
RTVSPropertyOp52
 70
     0
102
RTVSPropertyOp53
 70
     1
102
RTVSPropertyOp54
 70
     1
102
RTVSPropertyOp55
 70
     1
102
RTVSPropertyOp56
 70
     1
102
RTVSPropertyOp57
 70
     1
102
RTVSPost2010Prop28
280
     0
102
RTVSPost2010PropOp28
 70
     1
102
RTVSPost2010Prop29
280
     1
102
RTVSPost2010PropOp29
 70
     1
102
RTVSPost2010Prop30
280
     1
102
RTVSPost2010PropOp30
 70
     1
102
RTVSPost2010Prop31
280
     0
102
RTVSPost2010PropOp31
 70
     1
102
RTVSPost2010Prop32
280
     0
102
RTVSPost2010PropOp32
 70
     1
102
RTVSPost2010Prop33
280
     0
102
RTVSPost2010PropOp33
 70
     1
102
RTVSPost2010Prop34
280
     0
102
RTVSPost2010PropOp34
 70
     1
102
RTVSPost2010Prop35
280
     0
102
RTVSPost2010PropOp35
 70
     1
102
RTVSPost2010Prop36
280
     0
102
RTVSPost2010PropOp36
 70
     1
102
RTVSPost2010Prop37
 90
       50
102
RTVSPost2010PropOp37
 70
     1
102
RTVSPost2010Prop38
140
0.0
102
RTVSPost2010PropOp38
 70
     1
102
RTVSPost2010Prop39
140
1.0
102
RTVSPost2010PropOp39
 70
     1
102
RTVSPost2010Prop40
 90
        0
102
RTVSPost2010PropOp40
 70
     1
102
RTVSPost2010Prop41ColorIndex
 90
       18
102
RTVSPost2010Prop41ColorRGB
 90
        0
102
RTVSPost2010PropOp41
 70
     1
102
RTVSPost2010Prop42
 90
       50
102
RTVSPost2010PropOp42
 70
     1
102
RTVSPost2010Prop43
 90
        3
102
RTVSPost2010PropOp43
 70
     1
102
RTVSPost2010Prop44ColorIndex
 90
        5
102
RTVSPost2010Prop44ColorRGB
 90
      255
102
RTVSPost2010PropOp44
 70
     1
102
RTVSPost2010Prop45
280
     0
102
RTVSPost2010PropOp45
 70
     1
102
RTVSPost2010Prop46
 90
       50
102
RTVSPost2010PropOp46
 70
     1
102
RTVSPost2010Prop47
 90
       50
102
RTVSPost2010PropOp47
 70
     1
102
RTVSPost2010Prop48
 90
       50
102
RTVSPost2010PropOp48
 70
     1
102
RTVSPost2010Prop49
280
     0
102
RTVSPost2010PropOp49
 70
     1
102
RTVSPost2010Prop50
 90
       50
102
RTVSPost2010PropOp50
 70
     1
102
RTVSPost2010Prop51ColorIndex
 90
      256
102
RTVSPost2010Prop51ColorRGB
 90
-16777216
102
RTVSPost2010PropOp51
 70
     0
102
RTVSPost2010Prop52
140
1.0
102
RTVSPost2010PropOp52
 70
     0
102
RTVSPost2010Prop53
 90
        2
102
RTVSPost2010PropOp53
 70
     1
102
RTVSPost2010Prop54
  1
strokes_ogs.tif
102
RTVSPost2010PropOp54
 70
     1
102
RTVSPost2010Prop55
280
     0
102
RTVSPost2010PropOp55
 70
     1
102
RTVSPost2010Prop56
140
1.0
102
RTVSPost2010PropOp56
 70
     1
102
RTVSPost2010Prop57
140
1.0
102
RTVSPost2010PropOp57
 70
     1
  0
XRECORD
  5
30E
102
{ACAD_REACTORS
330
30D
102
}
330
30D
100
AcDbXrecord
280
     1
102
RTVSPropertyOp0
 70
     1
102
RTVSPropertyOp1
 70
     1
102
RTVSPropertyOp2
 70
     1
102
RTVSPropertyOp3
 70
     1
102
RTVSPropertyOp4
 70
     1
102
RTVSPropertyOp5
 70
     1
102
RTVSPropertyOp6
 70
     1
102
RTVSPropertyOp7
 70
     1
102
RTVSPropertyOp8
 70
     1
102
RTVSPropertyOp9
 70
     1
102
RTVSPropertyOp10
 70
     1
102
RTVSPropertyOp11
 70
     1
102
RTVSPropertyOp12
 70
     1
102
RTVSPropertyOp13
 70
     1
102
RTVSPropertyOp14
 70
     1
102
RTVSPropertyOp15
 70
     1
102
RTVSPropertyOp16
 70
     1
102
RTVSPropertyOp17
 70
     1
102
RTVSPropertyOp18
 70
     1
102
RTVSPropertyOp19
 70
     1
102
RTVSPropertyOp20
 70
     1
102
RTVSPropertyOp21
 70
     1
102
RTVSPropertyOp22
 70
     1
102
RTVSPropertyOp23
 70
     1
102
RTVSPropertyOp24
 70
     1
102
RTVSPropertyOp25
 70
     1
102
RTVSPropertyOp26
 70
     1
102
RTVSPropertyOp27
 70
     1
102
RTVSPropertyOp28
 70
     1
102
RTVSPropertyOp29
 70
     1
102
RTVSPropertyOp30
 70
     1
102
RTVSPropertyOp31
 70
     1
102
RTVSPropertyOp32
 70
     1
102
RTVSPropertyOp33
 70
     1
102
RTVSPropertyOp34
 70
     1
102
RTVSPropertyOp35
 70
     1
102
RTVSPropertyOp36
 70
     1
102
RTVSPropertyOp37
 70
     1
102
RTVSPropertyOp38
 70
     1
102
RTVSPropertyOp39
 70
     1
102
RTVSPropertyOp40
 70
     1
102
RTVSPropertyOp41
 70
     1
102
RTVSPropertyOp42
 70
     1
102
RTVSPropertyOp43
 70
     1
102
RTVSPropertyOp44
 70
     1
102
RTVSPropertyOp45
 70
     1
102
RTVSPropertyOp46
 70
     1
102
RTVSPropertyOp47
 70
     1
102
RTVSPropertyOp48
 70
     1
102
RTVSPropertyOp49
 70
     1
102
RTVSPropertyOp50
 70
     1
102
RTVSPropertyOp51
 70
     0
102
RTVSPropertyOp52
 70
     0
102
RTVSPropertyOp53
 70
     1
102
RTVSPropertyOp54
 70
     1
102
RTVSPropertyOp55
 70
     1
102
RTVSPropertyOp56
 70
     1
102
RTVSPropertyOp57
 70
     1
102
RTVSPost2010Prop28
280
     0
102
RTVSPost2010PropOp28
 70
     1
102
RTVSPost2010Prop29
280
     1
102
RTVSPost2010PropOp29
 70
     1
102
RTVSPost2010Prop30
280
     1
102
RTVSPost2010PropOp30
 70
     1
102
RTVSPost2010Prop31
280
     0
102
RTVSPost2010PropOp31
 70
     1
102
RTVSPost2010Prop32
280
     0
102
RTVSPost2010PropOp32
 70
     1
102
RTVSPost2010Prop33
280
     0
102
RTVSPost2010PropOp33
 70
     1
102
RTVSPost2010Prop34
280
     0
102
RTVSPost2010PropOp34
 70
     1
102
RTVSPost2010Prop35
280
     0
102
RTVSPost2010PropOp35
 70
     1
102
RTVSPost2010Prop36
280
     0
102
RTVSPost2010PropOp36
 70
     1
102
RTVSPost2010Prop37
 90
       50
102
RTVSPost2010PropOp37
 70
     1
102
RTVSPost2010Prop38
140
0.0
102
RTVSPost2010PropOp38
 70
     1
102
RTVSPost2010Prop39
140
1.0
102
RTVSPost2010PropOp39
 70
     1
102
RTVSPost2010Prop40
 90
        0
102
RTVSPost2010PropOp40
 70
     1
102
RTVSPost2010Prop41ColorIndex
 90
       18
102
RTVSPost2010Prop41ColorRGB
 90
        0
102
RTVSPost2010PropOp41
 70
     1
102
RTVSPost2010Prop42
 90
       50
102
RTVSPost2010PropOp42
 70
     1
102
RTVSPost2010Prop43
 90
        3
102
RTVSPost2010PropOp43
 70
     1
102
RTVSPost2010Prop44ColorIndex
 90
        5
102
RTVSPost2010Prop44ColorRGB
 90
      255
102
RTVSPost2010PropOp44
 70
     1
102
RTVSPost2010Prop45
280
     0
102
RTVSPost2010PropOp45
 70
     1
102
RTVSPost2010Prop46
 90
       50
102
RTVSPost2010PropOp46
 70
     1
102
RTVSPost2010Prop47
 90
       50
102
RTVSPost2010PropOp47
 70
     1
102
RTVSPost2010Prop48
 90
       50
102
RTVSPost2010PropOp48
 70
     1
102
RTVSPost2010Prop49
280
     0
102
RTVSPost2010PropOp49
 70
     1
102
RTVSPost2010Prop50
 90
       50
102
RTVSPost2010PropOp50
 70
     1
102
RTVSPost2010Prop51ColorIndex
 90
      256
102
RTVSPost2010Prop51ColorRGB
 90
-16777216
102
RTVSPost2010PropOp51
 70
     0
102
RTVSPost2010Prop52
140
1.0
102
RTVSPost2010PropOp52
 70
     0
102
RTVSPost2010Prop53
 90
        2
102
RTVSPost2010PropOp53
 70
     1
102
RTVSPost2010Prop54
  1
strokes_ogs.tif
102
RTVSPost2010PropOp54
 70
     1
102
RTVSPost2010Prop55
280
     0
102
RTVSPost2010PropOp55
 70
     1
102
RTVSPost2010Prop56
140
1.0
102
RTVSPost2010PropOp56
 70
     1
102
RTVSPost2010Prop57
140
1.0
102
RTVSPost2010PropOp57
 70
     1
  0
XRECORD
  5
31E
102
{ACAD_REACTORS
330
31D
102
}
330
31D
100
AcDbXrecord
280
     1
102
RTVSPropertyOp0
 70
     0
102
RTVSPropertyOp1
 70
     0
102
RTVSPropertyOp2
 70
     0
102
RTVSPropertyOp3
 70
     0
102
RTVSPropertyOp4
 70
     0
102
RTVSPropertyOp5
 70
     0
102
RTVSPropertyOp6
 70
     0
102
RTVSPropertyOp7
 70
     0
102
RTVSPropertyOp8
 70
     0
102
RTVSPropertyOp9
 70
     0
102
RTVSPropertyOp10
 70
     0
102
RTVSPropertyOp11
 70
     0
102
RTVSPropertyOp12
 70
     0
102
RTVSPropertyOp13
 70
     0
102
RTVSPropertyOp14
 70
     2
102
RTVSPropertyOp15
 70
     0
102
RTVSPropertyOp16
 70
     0
102
RTVSPropertyOp17
 70
     0
102
RTVSPropertyOp18
 70
     0
102
RTVSPropertyOp19
 70
     0
102
RTVSPropertyOp20
 70
     0
102
RTVSPropertyOp21
 70
     0
102
RTVSPropertyOp22
 70
     0
102
RTVSPropertyOp23
 70
     0
102
RTVSPropertyOp24
 70
     0
102
RTVSPropertyOp25
 70
     0
102
RTVSPropertyOp26
 70
     0
102
RTVSPropertyOp27
 70
     0
102
RTVSPropertyOp28
 70
     0
102
RTVSPropertyOp29
 70
     0
102
RTVSPropertyOp30
 70
     0
102
RTVSPropertyOp31
 70
     0
102
RTVSPropertyOp32
 70
     0
102
RTVSPropertyOp33
 70
     0
102
RTVSPropertyOp34
 70
     0
102
RTVSPropertyOp35
 70
     0
102
RTVSPropertyOp36
 70
     0
102
RTVSPropertyOp37
 70
     0
102
RTVSPropertyOp38
 70
     0
102
RTVSPropertyOp39
 70
     0
102
RTVSPropertyOp40
 70
     0
102
RTVSPropertyOp41
 70
     0
102
RTVSPropertyOp42
 70
     0
102
RTVSPropertyOp43
 70
     0
102
RTVSPropertyOp44
 70
     0
102
RTVSPropertyOp45
 70
     0
102
RTVSPropertyOp46
 70
     0
102
RTVSPropertyOp47
 70
     0
102
RTVSPropertyOp48
 70
     0
102
RTVSPropertyOp49
 70
     0
102
RTVSPropertyOp50
 70
     0
102
RTVSPropertyOp51
 70
     0
102
RTVSPropertyOp52
 70
     0
102
RTVSPropertyOp53
 70
     0
102
RTVSPropertyOp54
 70
     0
102
RTVSPropertyOp55
 70
     0
102
RTVSPropertyOp56
 70
     0
102
RTVSPropertyOp57
 70
     0
102
RTVSPost2010Prop28
280
     0
102
RTVSPost2010PropOp28
 70
     0
102
RTVSPost2010Prop29
280
     1
102
RTVSPost2010PropOp29
 70
     0
102
RTVSPost2010Prop30
280
     1
102
RTVSPost2010PropOp30
 70
     0
102
RTVSPost2010Prop31
280
     0
102
RTVSPost2010PropOp31
 70
     0
102
RTVSPost2010Prop32
280
     0
102
RTVSPost2010PropOp32
 70
     0
102
RTVSPost2010Prop33
280
     0
102
RTVSPost2010PropOp33
 70
     0
102
RTVSPost2010Prop34
280
     0
102
RTVSPost2010PropOp34
 70
     0
102
RTVSPost2010Prop35
280
     0
102
RTVSPost2010PropOp35
 70
     0
102
RTVSPost2010Prop36
280
     0
102
RTVSPost2010PropOp36
 70
     0
102
RTVSPost2010Prop37
 90
       50
102
RTVSPost2010PropOp37
 70
     0
102
RTVSPost2010Prop38
140
0.0
102
RTVSPost2010PropOp38
 70
     0
102
RTVSPost2010Prop39
140
1.0
102
RTVSPost2010PropOp39
 70
     0
102
RTVSPost2010Prop40
 90
        0
102
RTVSPost2010PropOp40
 70
     0
102
RTVSPost2010Prop41ColorIndex
 90
       18
102
RTVSPost2010Prop41ColorRGB
 90
        0
102
RTVSPost2010PropOp41
 70
     0
102
RTVSPost2010Prop42
 90
       50
102
RTVSPost2010PropOp42
 70
     0
102
RTVSPost2010Prop43
 90
        3
102
RTVSPost2010PropOp43
 70
     0
102
RTVSPost2010Prop44ColorIndex
 90
        5
102
RTVSPost2010Prop44ColorRGB
 90
      255
102
RTVSPost2010PropOp44
 70
     0
102
RTVSPost2010Prop45
280
     0
102
RTVSPost2010PropOp45
 70
     0
102
RTVSPost2010Prop46
 90
       50
102
RTVSPost2010PropOp46
 70
     0
102
RTVSPost2010Prop47
 90
       50
102
RTVSPost2010PropOp47
 70
     0
102
RTVSPost2010Prop48
 90
       50
102
RTVSPost2010PropOp48
 70
     0
102
RTVSPost2010Prop49
280
     0
102
RTVSPost2010PropOp49
 70
     0
102
RTVSPost2010Prop50
 90
       50
102
RTVSPost2010PropOp50
 70
     0
102
RTVSPost2010Prop51ColorIndex
 90
      256
102
RTVSPost2010Prop51ColorRGB
 90
-16777216
102
RTVSPost2010PropOp51
 70
     0
102
RTVSPost2010Prop52
140
1.0
102
RTVSPost2010PropOp52
 70
     0
102
RTVSPost2010Prop53
 90
        2
102
RTVSPost2010PropOp53
 70
     0
102
RTVSPost2010Prop54
  1
strokes_ogs.tif
102
RTVSPost2010PropOp54
 70
     0
102
RTVSPost2010Prop55
280
     0
102
RTVSPost2010PropOp55
 70
     0
102
RTVSPost2010Prop56
140
1.0
102
RTVSPost2010PropOp56
 70
     0
102
RTVSPost2010Prop57
140
1.0
102
RTVSPost2010PropOp57
 70
     0
  0
XRECORD
  5
316
102
{ACAD_REACTORS
330
315
102
}
330
315
100
AcDbXrecord
280
     1
102
RTVSPropertyOp0
 70
     1
102
RTVSPropertyOp1
 70
     1
102
RTVSPropertyOp2
 70
     1
102
RTVSPropertyOp3
 70
     1
102
RTVSPropertyOp4
 70
     1
102
RTVSPropertyOp5
 70
     1
102
RTVSPropertyOp6
 70
     1
102
RTVSPropertyOp7
 70
     1
102
RTVSPropertyOp8
 70
     1
102
RTVSPropertyOp9
 70
     1
102
RTVSPropertyOp10
 70
     1
102
RTVSPropertyOp11
 70
     1
102
RTVSPropertyOp12
 70
     1
102
RTVSPropertyOp13
 70
     1
102
RTVSPropertyOp14
 70
     1
102
RTVSPropertyOp15
 70
     1
102
RTVSPropertyOp16
 70
     1
102
RTVSPropertyOp17
 70
     1
102
RTVSPropertyOp18
 70
     1
102
RTVSPropertyOp19
 70
     1
102
RTVSPropertyOp20
 70
     1
102
RTVSPropertyOp21
 70
     1
102
RTVSPropertyOp22
 70
     1
102
RTVSPropertyOp23
 70
     1
102
RTVSPropertyOp24
 70
     1
102
RTVSPropertyOp25
 70
     1
102
RTVSPropertyOp26
 70
     1
102
RTVSPropertyOp27
 70
     1
102
RTVSPropertyOp28
 70
     1
102
RTVSPropertyOp29
 70
     1
102
RTVSPropertyOp30
 70
     1
102
RTVSPropertyOp31
 70
     1
102
RTVSPropertyOp32
 70
     1
102
RTVSPropertyOp33
 70
     1
102
RTVSPropertyOp34
 70
     1
102
RTVSPropertyOp35
 70
     1
102
RTVSPropertyOp36
 70
     1
102
RTVSPropertyOp37
 70
     1
102
RTVSPropertyOp38
 70
     1
102
RTVSPropertyOp39
 70
     1
102
RTVSPropertyOp40
 70
     1
102
RTVSPropertyOp41
 70
     1
102
RTVSPropertyOp42
 70
     1
102
RTVSPropertyOp43
 70
     1
102
RTVSPropertyOp44
 70
     1
102
RTVSPropertyOp45
 70
     1
102
RTVSPropertyOp46
 70
     1
102
RTVSPropertyOp47
 70
     1
102
RTVSPropertyOp48
 70
     1
102
RTVSPropertyOp49
 70
     1
102
RTVSPropertyOp50
 70
     1
102
RTVSPropertyOp51
 70
     0
102
RTVSPropertyOp52
 70
     0
102
RTVSPropertyOp53
 70
     1
102
RTVSPropertyOp54
 70
     1
102
RTVSPropertyOp55
 70
     1
102
RTVSPropertyOp56
 70
     1
102
RTVSPropertyOp57
 70
     1
102
RTVSPost2010Prop28
280
     0
102
RTVSPost2010PropOp28
 70
     1
102
RTVSPost2010Prop29
280
     1
102
RTVSPost2010PropOp29
 70
     1
102
RTVSPost2010Prop30
280
     1
102
RTVSPost2010PropOp30
 70
     1
102
RTVSPost2010Prop31
280
     0
102
RTVSPost2010PropOp31
 70
     1
102
RTVSPost2010Prop32
280
     0
102
RTVSPost2010PropOp32
 70
     1
102
RTVSPost2010Prop33
280
     0
102
RTVSPost2010PropOp33
 70
     1
102
RTVSPost2010Prop34
280
     0
102
RTVSPost2010PropOp34
 70
     1
102
RTVSPost2010Prop35
280
     0
102
RTVSPost2010PropOp35
 70
     1
102
RTVSPost2010Prop36
280
     0
102
RTVSPost2010PropOp36
 70
     1
102
RTVSPost2010Prop37
 90
       50
102
RTVSPost2010PropOp37
 70
     1
102
RTVSPost2010Prop38
140
0.0
102
RTVSPost2010PropOp38
 70
     1
102
RTVSPost2010Prop39
140
1.0
102
RTVSPost2010PropOp39
 70
     1
102
RTVSPost2010Prop40
 90
        0
102
RTVSPost2010PropOp40
 70
     1
102
RTVSPost2010Prop41ColorIndex
 90
       18
102
RTVSPost2010Prop41ColorRGB
 90
        0
102
RTVSPost2010PropOp41
 70
     1
102
RTVSPost2010Prop42
 90
       50
102
RTVSPost2010PropOp42
 70
     1
102
RTVSPost2010Prop43
 90
        3
102
RTVSPost2010PropOp43
 70
     1
102
RTVSPost2010Prop44ColorIndex
 90
        5
102
RTVSPost2010Prop44ColorRGB
 90
      255
102
RTVSPost2010PropOp44
 70
     1
102
RTVSPost2010Prop45
280
     0
102
RTVSPost2010PropOp45
 70
     1
102
RTVSPost2010Prop46
 90
       50
102
RTVSPost2010PropOp46
 70
     1
102
RTVSPost2010Prop47
 90
       50
102
RTVSPost2010PropOp47
 70
     1
102
RTVSPost2010Prop48
 90
       50
102
RTVSPost2010PropOp48
 70
     1
102
RTVSPost2010Prop49
280
     0
102
RTVSPost2010PropOp49
 70
     1
102
RTVSPost2010Prop50
 90
       50
102
RTVSPost2010PropOp50
 70
     1
102
RTVSPost2010Prop51ColorIndex
 90
      256
102
RTVSPost2010Prop51ColorRGB
 90
-16777216
102
RTVSPost2010PropOp51
 70
     0
102
RTVSPost2010Prop52
140
1.0
102
RTVSPost2010PropOp52
 70
     0
102
RTVSPost2010Prop53
 90
        2
102
RTVSPost2010PropOp53
 70
     1
102
RTVSPost2010Prop54
  1
strokes_ogs.tif
102
RTVSPost2010PropOp54
 70
     1
102
RTVSPost2010Prop55
280
     0
102
RTVSPost2010PropOp55
 70
     1
102
RTVSPost2010Prop56
140
1.0
102
RTVSPost2010PropOp56
 70
     1
102
RTVSPost2010Prop57
140
1.0
102
RTVSPost2010PropOp57
 70
     1
  0
XRECORD
  5
2FA
102
{ACAD_REACTORS
330
2F9
102
}
330
2F9
100
AcDbXrecord
280
     1
102
RTVSPropertyOp0
 70
     1
102
RTVSPropertyOp1
 70
     1
102
RTVSPropertyOp2
 70
     1
102
RTVSPropertyOp3
 70
     1
102
RTVSPropertyOp4
 70
     1
102
RTVSPropertyOp5
 70
     1
102
RTVSPropertyOp6
 70
     1
102
RTVSPropertyOp7
 70
     1
102
RTVSPropertyOp8
 70
     1
102
RTVSPropertyOp9
 70
     1
102
RTVSPropertyOp10
 70
     1
102
RTVSPropertyOp11
 70
     1
102
RTVSPropertyOp12
 70
     1
102
RTVSPropertyOp13
 70
     1
102
RTVSPropertyOp14
 70
     1
102
RTVSPropertyOp15
 70
     1
102
RTVSPropertyOp16
 70
     1
102
RTVSPropertyOp17
 70
     1
102
RTVSPropertyOp18
 70
     1
102
RTVSPropertyOp19
 70
     1
102
RTVSPropertyOp20
 70
     1
102
RTVSPropertyOp21
 70
     1
102
RTVSPropertyOp22
 70
     1
102
RTVSPropertyOp23
 70
     1
102
RTVSPropertyOp24
 70
     1
102
RTVSPropertyOp25
 70
     1
102
RTVSPropertyOp26
 70
     1
102
RTVSPropertyOp27
 70
     1
102
RTVSPropertyOp28
 70
     1
102
RTVSPropertyOp29
 70
     1
102
RTVSPropertyOp30
 70
     1
102
RTVSPropertyOp31
 70
     1
102
RTVSPropertyOp32
 70
     1
102
RTVSPropertyOp33
 70
     1
102
RTVSPropertyOp34
 70
     1
102
RTVSPropertyOp35
 70
     1
102
RTVSPropertyOp36
 70
     1
102
RTVSPropertyOp37
 70
     1
102
RTVSPropertyOp38
 70
     1
102
RTVSPropertyOp39
 70
     1
102
RTVSPropertyOp40
 70
     1
102
RTVSPropertyOp41
 70
     1
102
RTVSPropertyOp42
 70
     1
102
RTVSPropertyOp43
 70
     1
102
RTVSPropertyOp44
 70
     1
102
RTVSPropertyOp45
 70
     1
102
RTVSPropertyOp46
 70
     1
102
RTVSPropertyOp47
 70
     1
102
RTVSPropertyOp48
 70
     1
102
RTVSPropertyOp49
 70
     1
102
RTVSPropertyOp50
 70
     1
102
RTVSPropertyOp51
 70
     0
102
RTVSPropertyOp52
 70
     0
102
RTVSPropertyOp53
 70
     1
102
RTVSPropertyOp54
 70
     1
102
RTVSPropertyOp55
 70
     1
102
RTVSPropertyOp56
 70
     1
102
RTVSPropertyOp57
 70
     1
102
RTVSPost2010Prop28
280
     0
102
RTVSPost2010PropOp28
 70
     1
102
RTVSPost2010Prop29
280
     1
102
RTVSPost2010PropOp29
 70
     1
102
RTVSPost2010Prop30
280
     1
102
RTVSPost2010PropOp30
 70
     1
102
RTVSPost2010Prop31
280
     0
102
RTVSPost2010PropOp31
 70
     1
102
RTVSPost2010Prop32
280
     0
102
RTVSPost2010PropOp32
 70
     1
102
RTVSPost2010Prop33
280
     0
102
RTVSPost2010PropOp33
 70
     1
102
RTVSPost2010Prop34
280
     0
102
RTVSPost2010PropOp34
 70
     1
102
RTVSPost2010Prop35
280
     0
102
RTVSPost2010PropOp35
 70
     1
102
RTVSPost2010Prop36
280
     0
102
RTVSPost2010PropOp36
 70
     1
102
RTVSPost2010Prop37
 90
       50
102
RTVSPost2010PropOp37
 70
     1
102
RTVSPost2010Prop38
140
0.0
102
RTVSPost2010PropOp38
 70
     1
102
RTVSPost2010Prop39
140
1.0
102
RTVSPost2010PropOp39
 70
     1
102
RTVSPost2010Prop40
 90
        0
102
RTVSPost2010PropOp40
 70
     1
102
RTVSPost2010Prop41ColorIndex
 90
       18
102
RTVSPost2010Prop41ColorRGB
 90
        0
102
RTVSPost2010PropOp41
 70
     1
102
RTVSPost2010Prop42
 90
       50
102
RTVSPost2010PropOp42
 70
     1
102
RTVSPost2010Prop43
 90
        3
102
RTVSPost2010PropOp43
 70
     1
102
RTVSPost2010Prop44ColorIndex
 90
        5
102
RTVSPost2010Prop44ColorRGB
 90
      255
102
RTVSPost2010PropOp44
 70
     1
102
RTVSPost2010Prop45
280
     0
102
RTVSPost2010PropOp45
 70
     1
102
RTVSPost2010Prop46
 90
       50
102
RTVSPost2010PropOp46
 70
     1
102
RTVSPost2010Prop47
 90
       50
102
RTVSPost2010PropOp47
 70
     1
102
RTVSPost2010Prop48
 90
       50
102
RTVSPost2010PropOp48
 70
     1
102
RTVSPost2010Prop49
280
     0
102
RTVSPost2010PropOp49
 70
     1
102
RTVSPost2010Prop50
 90
       50
102
RTVSPost2010PropOp50
 70
     1
102
RTVSPost2010Prop51ColorIndex
 90
      256
102
RTVSPost2010Prop51ColorRGB
 90
-16777216
102
RTVSPost2010PropOp51
 70
     0
102
RTVSPost2010Prop52
140
1.0
102
RTVSPost2010PropOp52
 70
     0
102
RTVSPost2010Prop53
 90
        2
102
RTVSPost2010PropOp53
 70
     1
102
RTVSPost2010Prop54
  1
strokes_ogs.tif
102
RTVSPost2010PropOp54
 70
     1
102
RTVSPost2010Prop55
280
     0
102
RTVSPost2010PropOp55
 70
     1
102
RTVSPost2010Prop56
140
1.0
102
RTVSPost2010PropOp56
 70
     1
102
RTVSPost2010Prop57
140
1.0
102
RTVSPost2010PropOp57
 70
     1
  0
XRECORD
  5
2FC
102
{ACAD_REACTORS
330
2FB
102
}
330
2FB
100
AcDbXrecord
280
     1
102
RTVSPropertyOp0
 70
     1
102
RTVSPropertyOp1
 70
     1
102
RTVSPropertyOp2
 70
     1
102
RTVSPropertyOp3
 70
     1
102
RTVSPropertyOp4
 70
     1
102
RTVSPropertyOp5
 70
     1
102
RTVSPropertyOp6
 70
     1
102
RTVSPropertyOp7
 70
     1
102
RTVSPropertyOp8
 70
     1
102
RTVSPropertyOp9
 70
     1
102
RTVSPropertyOp10
 70
     1
102
RTVSPropertyOp11
 70
     1
102
RTVSPropertyOp12
 70
     1
102
RTVSPropertyOp13
 70
     1
102
RTVSPropertyOp14
 70
     1
102
RTVSPropertyOp15
 70
     1
102
RTVSPropertyOp16
 70
     1
102
RTVSPropertyOp17
 70
     1
102
RTVSPropertyOp18
 70
     1
102
RTVSPropertyOp19
 70
     1
102
RTVSPropertyOp20
 70
     1
102
RTVSPropertyOp21
 70
     1
102
RTVSPropertyOp22
 70
     1
102
RTVSPropertyOp23
 70
     1
102
RTVSPropertyOp24
 70
     1
102
RTVSPropertyOp25
 70
     1
102
RTVSPropertyOp26
 70
     1
102
RTVSPropertyOp27
 70
     1
102
RTVSPropertyOp28
 70
     1
102
RTVSPropertyOp29
 70
     1
102
RTVSPropertyOp30
 70
     1
102
RTVSPropertyOp31
 70
     1
102
RTVSPropertyOp32
 70
     1
102
RTVSPropertyOp33
 70
     1
102
RTVSPropertyOp34
 70
     1
102
RTVSPropertyOp35
 70
     1
102
RTVSPropertyOp36
 70
     1
102
RTVSPropertyOp37
 70
     1
102
RTVSPropertyOp38
 70
     1
102
RTVSPropertyOp39
 70
     1
102
RTVSPropertyOp40
 70
     1
102
RTVSPropertyOp41
 70
     1
102
RTVSPropertyOp42
 70
     1
102
RTVSPropertyOp43
 70
     1
102
RTVSPropertyOp44
 70
     1
102
RTVSPropertyOp45
 70
     1
102
RTVSPropertyOp46
 70
     1
102
RTVSPropertyOp47
 70
     1
102
RTVSPropertyOp48
 70
     1
102
RTVSPropertyOp49
 70
     1
102
RTVSPropertyOp50
 70
     1
102
RTVSPropertyOp51
 70
     0
102
RTVSPropertyOp52
 70
     0
102
RTVSPropertyOp53
 70
     1
102
RTVSPropertyOp54
 70
     1
102
RTVSPropertyOp55
 70
     1
102
RTVSPropertyOp56
 70
     1
102
RTVSPropertyOp57
 70
     1
102
RTVSPost2010Prop28
280
     0
102
RTVSPost2010PropOp28
 70
     1
102
RTVSPost2010Prop29
280
     1
102
RTVSPost2010PropOp29
 70
     1
102
RTVSPost2010Prop30
280
     1
102
RTVSPost2010PropOp30
 70
     1
102
RTVSPost2010Prop31
280
     0
102
RTVSPost2010PropOp31
 70
     1
102
RTVSPost2010Prop32
280
     0
102
RTVSPost2010PropOp32
 70
     1
102
RTVSPost2010Prop33
280
     0
102
RTVSPost2010PropOp33
 70
     1
102
RTVSPost2010Prop34
280
     0
102
RTVSPost2010PropOp34
 70
     1
102
RTVSPost2010Prop35
280
     0
102
RTVSPost2010PropOp35
 70
     1
102
RTVSPost2010Prop36
280
     0
102
RTVSPost2010PropOp36
 70
     1
102
RTVSPost2010Prop37
 90
       50
102
RTVSPost2010PropOp37
 70
     1
102
RTVSPost2010Prop38
140
0.0
102
RTVSPost2010PropOp38
 70
     1
102
RTVSPost2010Prop39
140
1.0
102
RTVSPost2010PropOp39
 70
     1
102
RTVSPost2010Prop40
 90
        0
102
RTVSPost2010PropOp40
 70
     1
102
RTVSPost2010Prop41ColorIndex
 90
       18
102
RTVSPost2010Prop41ColorRGB
 90
        0
102
RTVSPost2010PropOp41
 70
     1
102
RTVSPost2010Prop42
 90
       50
102
RTVSPost2010PropOp42
 70
     1
102
RTVSPost2010Prop43
 90
        3
102
RTVSPost2010PropOp43
 70
     1
102
RTVSPost2010Prop44ColorIndex
 90
        5
102
RTVSPost2010Prop44ColorRGB
 90
      255
102
RTVSPost2010PropOp44
 70
     1
102
RTVSPost2010Prop45
280
     0
102
RTVSPost2010PropOp45
 70
     1
102
RTVSPost2010Prop46
 90
       50
102
RTVSPost2010PropOp46
 70
     1
102
RTVSPost2010Prop47
 90
       50
102
RTVSPost2010PropOp47
 70
     1
102
RTVSPost2010Prop48
 90
       50
102
RTVSPost2010PropOp48
 70
     1
102
RTVSPost2010Prop49
280
     0
102
RTVSPost2010PropOp49
 70
     1
102
RTVSPost2010Prop50
 90
       50
102
RTVSPost2010PropOp50
 70
     1
102
RTVSPost2010Prop51ColorIndex
 90
      256
102
RTVSPost2010Prop51ColorRGB
 90
-16777216
102
RTVSPost2010PropOp51
 70
     0
102
RTVSPost2010Prop52
140
1.0
102
RTVSPost2010PropOp52
 70
     0
102
RTVSPost2010Prop53
 90
        2
102
RTVSPost2010PropOp53
 70
     1
102
RTVSPost2010Prop54
  1
strokes_ogs.tif
102
RTVSPost2010PropOp54
 70
     1
102
RTVSPost2010Prop55
280
     0
102
RTVSPost2010PropOp55
 70
     1
102
RTVSPost2010Prop56
140
1.0
102
RTVSPost2010PropOp56
 70
     1
102
RTVSPost2010Prop57
140
1.0
102
RTVSPost2010PropOp57
 70
     1
  0
XRECORD
  5
2FE
102
{ACAD_REACTORS
330
2FD
102
}
330
2FD
100
AcDbXrecord
280
     1
102
RTVSPropertyOp0
 70
     1
102
RTVSPropertyOp1
 70
     1
102
RTVSPropertyOp2
 70
     1
102
RTVSPropertyOp3
 70
     1
102
RTVSPropertyOp4
 70
     1
102
RTVSPropertyOp5
 70
     1
102
RTVSPropertyOp6
 70
     1
102
RTVSPropertyOp7
 70
     1
102
RTVSPropertyOp8
 70
     1
102
RTVSPropertyOp9
 70
     1
102
RTVSPropertyOp10
 70
     1
102
RTVSPropertyOp11
 70
     1
102
RTVSPropertyOp12
 70
     1
102
RTVSPropertyOp13
 70
     1
102
RTVSPropertyOp14
 70
     1
102
RTVSPropertyOp15
 70
     1
102
RTVSPropertyOp16
 70
     1
102
RTVSPropertyOp17
 70
     1
102
RTVSPropertyOp18
 70
     1
102
RTVSPropertyOp19
 70
     1
102
RTVSPropertyOp20
 70
     1
102
RTVSPropertyOp21
 70
     1
102
RTVSPropertyOp22
 70
     1
102
RTVSPropertyOp23
 70
     1
102
RTVSPropertyOp24
 70
     1
102
RTVSPropertyOp25
 70
     1
102
RTVSPropertyOp26
 70
     1
102
RTVSPropertyOp27
 70
     1
102
RTVSPropertyOp28
 70
     1
102
RTVSPropertyOp29
 70
     1
102
RTVSPropertyOp30
 70
     1
102
RTVSPropertyOp31
 70
     1
102
RTVSPropertyOp32
 70
     1
102
RTVSPropertyOp33
 70
     1
102
RTVSPropertyOp34
 70
     1
102
RTVSPropertyOp35
 70
     1
102
RTVSPropertyOp36
 70
     1
102
RTVSPropertyOp37
 70
     1
102
RTVSPropertyOp38
 70
     1
102
RTVSPropertyOp39
 70
     1
102
RTVSPropertyOp40
 70
     1
102
RTVSPropertyOp41
 70
     1
102
RTVSPropertyOp42
 70
     1
102
RTVSPropertyOp43
 70
     1
102
RTVSPropertyOp44
 70
     1
102
RTVSPropertyOp45
 70
     1
102
RTVSPropertyOp46
 70
     1
102
RTVSPropertyOp47
 70
     1
102
RTVSPropertyOp48
 70
     1
102
RTVSPropertyOp49
 70
     1
102
RTVSPropertyOp50
 70
     1
102
RTVSPropertyOp51
 70
     0
102
RTVSPropertyOp52
 70
     0
102
RTVSPropertyOp53
 70
     1
102
RTVSPropertyOp54
 70
     1
102
RTVSPropertyOp55
 70
     1
102
RTVSPropertyOp56
 70
     1
102
RTVSPropertyOp57
 70
     1
102
RTVSPost2010Prop28
280
     0
102
RTVSPost2010PropOp28
 70
     1
102
RTVSPost2010Prop29
280
     1
102
RTVSPost2010PropOp29
 70
     1
102
RTVSPost2010Prop30
280
     1
102
RTVSPost2010PropOp30
 70
     1
102
RTVSPost2010Prop31
280
     0
102
RTVSPost2010PropOp31
 70
     1
102
RTVSPost2010Prop32
280
     0
102
RTVSPost2010PropOp32
 70
     1
102
RTVSPost2010Prop33
280
     0
102
RTVSPost2010PropOp33
 70
     1
102
RTVSPost2010Prop34
280
     0
102
RTVSPost2010PropOp34
 70
     1
102
RTVSPost2010Prop35
280
     0
102
RTVSPost2010PropOp35
 70
     1
102
RTVSPost2010Prop36
280
     0
102
RTVSPost2010PropOp36
 70
     1
102
RTVSPost2010Prop37
 90
       50
102
RTVSPost2010PropOp37
 70
     1
102
RTVSPost2010Prop38
140
0.0
102
RTVSPost2010PropOp38
 70
     1
102
RTVSPost2010Prop39
140
1.0
102
RTVSPost2010PropOp39
 70
     1
102
RTVSPost2010Prop40
 90
        0
102
RTVSPost2010PropOp40
 70
     1
102
RTVSPost2010Prop41ColorIndex
 90
       18
102
RTVSPost2010Prop41ColorRGB
 90
        0
102
RTVSPost2010PropOp41
 70
     1
102
RTVSPost2010Prop42
 90
       50
102
RTVSPost2010PropOp42
 70
     1
102
RTVSPost2010Prop43
 90
        3
102
RTVSPost2010PropOp43
 70
     1
102
RTVSPost2010Prop44ColorIndex
 90
        5
102
RTVSPost2010Prop44ColorRGB
 90
      255
102
RTVSPost2010PropOp44
 70
     1
102
RTVSPost2010Prop45
280
     0
102
RTVSPost2010PropOp45
 70
     1
102
RTVSPost2010Prop46
 90
       50
102
RTVSPost2010PropOp46
 70
     1
102
RTVSPost2010Prop47
 90
       50
102
RTVSPost2010PropOp47
 70
     1
102
RTVSPost2010Prop48
 90
       50
102
RTVSPost2010PropOp48
 70
     1
102
RTVSPost2010Prop49
280
     0
102
RTVSPost2010PropOp49
 70
     1
102
RTVSPost2010Prop50
 90
       50
102
RTVSPost2010PropOp50
 70
     1
102
RTVSPost2010Prop51ColorIndex
 90
      256
102
RTVSPost2010Prop51ColorRGB
 90
-16777216
102
RTVSPost2010PropOp51
 70
     0
102
RTVSPost2010Prop52
140
1.0
102
RTVSPost2010PropOp52
 70
     0
102
RTVSPost2010Prop53
 90
        2
102
RTVSPost2010PropOp53
 70
     1
102
RTVSPost2010Prop54
  1
strokes_ogs.tif
102
RTVSPost2010PropOp54
 70
     1
102
RTVSPost2010Prop55
280
     0
102
RTVSPost2010PropOp55
 70
     1
102
RTVSPost2010Prop56
140
1.0
102
RTVSPost2010PropOp56
 70
     1
102
RTVSPost2010Prop57
140
1.0
102
RTVSPost2010PropOp57
 70
     1
  0
XRECORD
  5
300
102
{ACAD_REACTORS
330
2FF
102
}
330
2FF
100
AcDbXrecord
280
     1
102
RTVSPropertyOp0
 70
     1
102
RTVSPropertyOp1
 70
     1
102
RTVSPropertyOp2
 70
     1
102
RTVSPropertyOp3
 70
     1
102
RTVSPropertyOp4
 70
     1
102
RTVSPropertyOp5
 70
     1
102
RTVSPropertyOp6
 70
     1
102
RTVSPropertyOp7
 70
     1
102
RTVSPropertyOp8
 70
     1
102
RTVSPropertyOp9
 70
     1
102
RTVSPropertyOp10
 70
     1
102
RTVSPropertyOp11
 70
     1
102
RTVSPropertyOp12
 70
     1
102
RTVSPropertyOp13
 70
     1
102
RTVSPropertyOp14
 70
     1
102
RTVSPropertyOp15
 70
     1
102
RTVSPropertyOp16
 70
     1
102
RTVSPropertyOp17
 70
     1
102
RTVSPropertyOp18
 70
     1
102
RTVSPropertyOp19
 70
     1
102
RTVSPropertyOp20
 70
     1
102
RTVSPropertyOp21
 70
     1
102
RTVSPropertyOp22
 70
     1
102
RTVSPropertyOp23
 70
     1
102
RTVSPropertyOp24
 70
     1
102
RTVSPropertyOp25
 70
     1
102
RTVSPropertyOp26
 70
     1
102
RTVSPropertyOp27
 70
     1
102
RTVSPropertyOp28
 70
     1
102
RTVSPropertyOp29
 70
     1
102
RTVSPropertyOp30
 70
     1
102
RTVSPropertyOp31
 70
     1
102
RTVSPropertyOp32
 70
     1
102
RTVSPropertyOp33
 70
     1
102
RTVSPropertyOp34
 70
     1
102
RTVSPropertyOp35
 70
     1
102
RTVSPropertyOp36
 70
     1
102
RTVSPropertyOp37
 70
     1
102
RTVSPropertyOp38
 70
     1
102
RTVSPropertyOp39
 70
     1
102
RTVSPropertyOp40
 70
     1
102
RTVSPropertyOp41
 70
     1
102
RTVSPropertyOp42
 70
     1
102
RTVSPropertyOp43
 70
     1
102
RTVSPropertyOp44
 70
     1
102
RTVSPropertyOp45
 70
     1
102
RTVSPropertyOp46
 70
     1
102
RTVSPropertyOp47
 70
     1
102
RTVSPropertyOp48
 70
     1
102
RTVSPropertyOp49
 70
     1
102
RTVSPropertyOp50
 70
     1
102
RTVSPropertyOp51
 70
     0
102
RTVSPropertyOp52
 70
     0
102
RTVSPropertyOp53
 70
     1
102
RTVSPropertyOp54
 70
     1
102
RTVSPropertyOp55
 70
     1
102
RTVSPropertyOp56
 70
     1
102
RTVSPropertyOp57
 70
     1
102
RTVSPost2010Prop28
280
     0
102
RTVSPost2010PropOp28
 70
     1
102
RTVSPost2010Prop29
280
     1
102
RTVSPost2010PropOp29
 70
     1
102
RTVSPost2010Prop30
280
     1
102
RTVSPost2010PropOp30
 70
     1
102
RTVSPost2010Prop31
280
     0
102
RTVSPost2010PropOp31
 70
     1
102
RTVSPost2010Prop32
280
     0
102
RTVSPost2010PropOp32
 70
     1
102
RTVSPost2010Prop33
280
     0
102
RTVSPost2010PropOp33
 70
     1
102
RTVSPost2010Prop34
280
     0
102
RTVSPost2010PropOp34
 70
     1
102
RTVSPost2010Prop35
280
     0
102
RTVSPost2010PropOp35
 70
     1
102
RTVSPost2010Prop36
280
     0
102
RTVSPost2010PropOp36
 70
     1
102
RTVSPost2010Prop37
 90
       50
102
RTVSPost2010PropOp37
 70
     1
102
RTVSPost2010Prop38
140
0.0
102
RTVSPost2010PropOp38
 70
     1
102
RTVSPost2010Prop39
140
1.0
102
RTVSPost2010PropOp39
 70
     1
102
RTVSPost2010Prop40
 90
        0
102
RTVSPost2010PropOp40
 70
     1
102
RTVSPost2010Prop41ColorIndex
 90
       18
102
RTVSPost2010Prop41ColorRGB
 90
        0
102
RTVSPost2010PropOp41
 70
     1
102
RTVSPost2010Prop42
 90
       50
102
RTVSPost2010PropOp42
 70
     1
102
RTVSPost2010Prop43
 90
        3
102
RTVSPost2010PropOp43
 70
     1
102
RTVSPost2010Prop44ColorIndex
 90
        5
102
RTVSPost2010Prop44ColorRGB
 90
      255
102
RTVSPost2010PropOp44
 70
     1
102
RTVSPost2010Prop45
280
     0
102
RTVSPost2010PropOp45
 70
     1
102
RTVSPost2010Prop46
 90
       50
102
RTVSPost2010PropOp46
 70
     1
102
RTVSPost2010Prop47
 90
       50
102
RTVSPost2010PropOp47
 70
     1
102
RTVSPost2010Prop48
 90
       50
102
RTVSPost2010PropOp48
 70
     1
102
RTVSPost2010Prop49
280
     0
102
RTVSPost2010PropOp49
 70
     1
102
RTVSPost2010Prop50
 90
       50
102
RTVSPost2010PropOp50
 70
     1
102
RTVSPost2010Prop51ColorIndex
 90
      256
102
RTVSPost2010Prop51ColorRGB
 90
-16777216
102
RTVSPost2010PropOp51
 70
     0
102
RTVSPost2010Prop52
140
1.0
102
RTVSPost2010PropOp52
 70
     0
102
RTVSPost2010Prop53
 90
        2
102
RTVSPost2010PropOp53
 70
     1
102
RTVSPost2010Prop54
  1
strokes_ogs.tif
102
RTVSPost2010PropOp54
 70
     1
102
RTVSPost2010Prop55
280
     0
102
RTVSPost2010PropOp55
 70
     1
102
RTVSPost2010Prop56
140
1.0
102
RTVSPost2010PropOp56
 70
     1
102
RTVSPost2010Prop57
140
1.0
102
RTVSPost2010PropOp57
 70
     1
  0
XRECORD
  5
306
102
{ACAD_REACTORS
330
305
102
}
330
305
100
AcDbXrecord
280
     1
102
RTVSPropertyOp0
 70
     1
102
RTVSPropertyOp1
 70
     1
102
RTVSPropertyOp2
 70
     1
102
RTVSPropertyOp3
 70
     1
102
RTVSPropertyOp4
 70
     1
102
RTVSPropertyOp5
 70
     1
102
RTVSPropertyOp6
 70
     1
102
RTVSPropertyOp7
 70
     1
102
RTVSPropertyOp8
 70
     1
102
RTVSPropertyOp9
 70
     1
102
RTVSPropertyOp10
 70
     1
102
RTVSPropertyOp11
 70
     1
102
RTVSPropertyOp12
 70
     1
102
RTVSPropertyOp13
 70
     1
102
RTVSPropertyOp14
 70
     1
102
RTVSPropertyOp15
 70
     1
102
RTVSPropertyOp16
 70
     1
102
RTVSPropertyOp17
 70
     1
102
RTVSPropertyOp18
 70
     1
102
RTVSPropertyOp19
 70
     1
102
RTVSPropertyOp20
 70
     1
102
RTVSPropertyOp21
 70
     1
102
RTVSPropertyOp22
 70
     1
102
RTVSPropertyOp23
 70
     1
102
RTVSPropertyOp24
 70
     1
102
RTVSPropertyOp25
 70
     1
102
RTVSPropertyOp26
 70
     1
102
RTVSPropertyOp27
 70
     1
102
RTVSPropertyOp28
 70
     1
102
RTVSPropertyOp29
 70
     1
102
RTVSPropertyOp30
 70
     1
102
RTVSPropertyOp31
 70
     1
102
RTVSPropertyOp32
 70
     1
102
RTVSPropertyOp33
 70
     1
102
RTVSPropertyOp34
 70
     1
102
RTVSPropertyOp35
 70
     1
102
RTVSPropertyOp36
 70
     1
102
RTVSPropertyOp37
 70
     1
102
RTVSPropertyOp38
 70
     1
102
RTVSPropertyOp39
 70
     1
102
RTVSPropertyOp40
 70
     1
102
RTVSPropertyOp41
 70
     1
102
RTVSPropertyOp42
 70
     1
102
RTVSPropertyOp43
 70
     1
102
RTVSPropertyOp44
 70
     1
102
RTVSPropertyOp45
 70
     1
102
RTVSPropertyOp46
 70
     1
102
RTVSPropertyOp47
 70
     1
102
RTVSPropertyOp48
 70
     1
102
RTVSPropertyOp49
 70
     1
102
RTVSPropertyOp50
 70
     1
102
RTVSPropertyOp51
 70
     0
102
RTVSPropertyOp52
 70
     0
102
RTVSPropertyOp53
 70
     1
102
RTVSPropertyOp54
 70
     1
102
RTVSPropertyOp55
 70
     1
102
RTVSPropertyOp56
 70
     1
102
RTVSPropertyOp57
 70
     1
102
RTVSPost2010Prop28
280
     0
102
RTVSPost2010PropOp28
 70
     1
102
RTVSPost2010Prop29
280
     1
102
RTVSPost2010PropOp29
 70
     1
102
RTVSPost2010Prop30
280
     1
102
RTVSPost2010PropOp30
 70
     1
102
RTVSPost2010Prop31
280
     0
102
RTVSPost2010PropOp31
 70
     1
102
RTVSPost2010Prop32
280
     0
102
RTVSPost2010PropOp32
 70
     1
102
RTVSPost2010Prop33
280
     0
102
RTVSPost2010PropOp33
 70
     1
102
RTVSPost2010Prop34
280
     0
102
RTVSPost2010PropOp34
 70
     1
102
RTVSPost2010Prop35
280
     0
102
RTVSPost2010PropOp35
 70
     1
102
RTVSPost2010Prop36
280
     0
102
RTVSPost2010PropOp36
 70
     1
102
RTVSPost2010Prop37
 90
       50
102
RTVSPost2010PropOp37
 70
     1
102
RTVSPost2010Prop38
140
0.0
102
RTVSPost2010PropOp38
 70
     1
102
RTVSPost2010Prop39
140
1.0
102
RTVSPost2010PropOp39
 70
     1
102
RTVSPost2010Prop40
 90
        0
102
RTVSPost2010PropOp40
 70
     1
102
RTVSPost2010Prop41ColorIndex
 90
       18
102
RTVSPost2010Prop41ColorRGB
 90
        0
102
RTVSPost2010PropOp41
 70
     1
102
RTVSPost2010Prop42
 90
       50
102
RTVSPost2010PropOp42
 70
     1
102
RTVSPost2010Prop43
 90
        3
102
RTVSPost2010PropOp43
 70
     1
102
RTVSPost2010Prop44ColorIndex
 90
        5
102
RTVSPost2010Prop44ColorRGB
 90
      255
102
RTVSPost2010PropOp44
 70
     1
102
RTVSPost2010Prop45
280
     0
102
RTVSPost2010PropOp45
 70
     1
102
RTVSPost2010Prop46
 90
       50
102
RTVSPost2010PropOp46
 70
     1
102
RTVSPost2010Prop47
 90
       50
102
RTVSPost2010PropOp47
 70
     1
102
RTVSPost2010Prop48
 90
       50
102
RTVSPost2010PropOp48
 70
     1
102
RTVSPost2010Prop49
280
     0
102
RTVSPost2010PropOp49
 70
     1
102
RTVSPost2010Prop50
 90
       50
102
RTVSPost2010PropOp50
 70
     1
102
RTVSPost2010Prop51ColorIndex
 90
      256
102
RTVSPost2010Prop51ColorRGB
 90
-16777216
102
RTVSPost2010PropOp51
 70
     0
102
RTVSPost2010Prop52
140
1.0
102
RTVSPost2010PropOp52
 70
     0
102
RTVSPost2010Prop53
 90
        2
102
RTVSPost2010PropOp53
 70
     1
102
RTVSPost2010Prop54
  1
strokes_ogs.tif
102
RTVSPost2010PropOp54
 70
     1
102
RTVSPost2010Prop55
280
     0
102
RTVSPost2010PropOp55
 70
     1
102
RTVSPost2010Prop56
140
1.0
102
RTVSPost2010PropOp56
 70
     1
102
RTVSPost2010Prop57
140
1.0
102
RTVSPost2010PropOp57
 70
     1
  0
XRECORD
  5
31A
102
{ACAD_REACTORS
330
319
102
}
330
319
100
AcDbXrecord
280
     1
102
RTVSPropertyOp0
 70
     0
102
RTVSPropertyOp1
 70
     0
102
RTVSPropertyOp2
 70
     0
102
RTVSPropertyOp3
 70
     0
102
RTVSPropertyOp4
 70
     0
102
RTVSPropertyOp5
 70
     0
102
RTVSPropertyOp6
 70
     0
102
RTVSPropertyOp7
 70
     0
102
RTVSPropertyOp8
 70
     0
102
RTVSPropertyOp9
 70
     0
102
RTVSPropertyOp10
 70
     0
102
RTVSPropertyOp11
 70
     0
102
RTVSPropertyOp12
 70
     0
102
RTVSPropertyOp13
 70
     0
102
RTVSPropertyOp14
 70
     2
102
RTVSPropertyOp15
 70
     0
102
RTVSPropertyOp16
 70
     0
102
RTVSPropertyOp17
 70
     0
102
RTVSPropertyOp18
 70
     0
102
RTVSPropertyOp19
 70
     0
102
RTVSPropertyOp20
 70
     0
102
RTVSPropertyOp21
 70
     0
102
RTVSPropertyOp22
 70
     0
102
RTVSPropertyOp23
 70
     0
102
RTVSPropertyOp24
 70
     0
102
RTVSPropertyOp25
 70
     0
102
RTVSPropertyOp26
 70
     0
102
RTVSPropertyOp27
 70
     0
102
RTVSPropertyOp28
 70
     0
102
RTVSPropertyOp29
 70
     0
102
RTVSPropertyOp30
 70
     0
102
RTVSPropertyOp31
 70
     0
102
RTVSPropertyOp32
 70
     0
102
RTVSPropertyOp33
 70
     0
102
RTVSPropertyOp34
 70
     0
102
RTVSPropertyOp35
 70
     0
102
RTVSPropertyOp36
 70
     0
102
RTVSPropertyOp37
 70
     0
102
RTVSPropertyOp38
 70
     0
102
RTVSPropertyOp39
 70
     0
102
RTVSPropertyOp40
 70
     0
102
RTVSPropertyOp41
 70
     0
102
RTVSPropertyOp42
 70
     0
102
RTVSPropertyOp43
 70
     0
102
RTVSPropertyOp44
 70
     0
102
RTVSPropertyOp45
 70
     0
102
RTVSPropertyOp46
 70
     0
102
RTVSPropertyOp47
 70
     0
102
RTVSPropertyOp48
 70
     0
102
RTVSPropertyOp49
 70
     0
102
RTVSPropertyOp50
 70
     0
102
RTVSPropertyOp51
 70
     0
102
RTVSPropertyOp52
 70
     0
102
RTVSPropertyOp53
 70
     0
102
RTVSPropertyOp54
 70
     0
102
RTVSPropertyOp55
 70
     0
102
RTVSPropertyOp56
 70
     0
102
RTVSPropertyOp57
 70
     0
102
RTVSPost2010Prop28
280
     0
102
RTVSPost2010PropOp28
 70
     0
102
RTVSPost2010Prop29
280
     1
102
RTVSPost2010PropOp29
 70
     0
102
RTVSPost2010Prop30
280
     1
102
RTVSPost2010PropOp30
 70
     0
102
RTVSPost2010Prop31
280
     0
102
RTVSPost2010PropOp31
 70
     0
102
RTVSPost2010Prop32
280
     0
102
RTVSPost2010PropOp32
 70
     0
102
RTVSPost2010Prop33
280
     0
102
RTVSPost2010PropOp33
 70
     0
102
RTVSPost2010Prop34
280
     0
102
RTVSPost2010PropOp34
 70
     0
102
RTVSPost2010Prop35
280
     0
102
RTVSPost2010PropOp35
 70
     0
102
RTVSPost2010Prop36
280
     0
102
RTVSPost2010PropOp36
 70
     0
102
RTVSPost2010Prop37
 90
       50
102
RTVSPost2010PropOp37
 70
     0
102
RTVSPost2010Prop38
140
0.0
102
RTVSPost2010PropOp38
 70
     0
102
RTVSPost2010Prop39
140
1.0
102
RTVSPost2010PropOp39
 70
     0
102
RTVSPost2010Prop40
 90
        0
102
RTVSPost2010PropOp40
 70
     0
102
RTVSPost2010Prop41ColorIndex
 90
       18
102
RTVSPost2010Prop41ColorRGB
 90
        0
102
RTVSPost2010PropOp41
 70
     0
102
RTVSPost2010Prop42
 90
       50
102
RTVSPost2010PropOp42
 70
     0
102
RTVSPost2010Prop43
 90
        3
102
RTVSPost2010PropOp43
 70
     0
102
RTVSPost2010Prop44ColorIndex
 90
        5
102
RTVSPost2010Prop44ColorRGB
 90
      255
102
RTVSPost2010PropOp44
 70
     0
102
RTVSPost2010Prop45
280
     0
102
RTVSPost2010PropOp45
 70
     0
102
RTVSPost2010Prop46
 90
       50
102
RTVSPost2010PropOp46
 70
     0
102
RTVSPost2010Prop47
 90
       50
102
RTVSPost2010PropOp47
 70
     0
102
RTVSPost2010Prop48
 90
       50
102
RTVSPost2010PropOp48
 70
     0
102
RTVSPost2010Prop49
280
     0
102
RTVSPost2010PropOp49
 70
     0
102
RTVSPost2010Prop50
 90
       50
102
RTVSPost2010PropOp50
 70
     0
102
RTVSPost2010Prop51ColorIndex
 90
      256
102
RTVSPost2010Prop51ColorRGB
 90
-16777216
102
RTVSPost2010PropOp51
 70
     0
102
RTVSPost2010Prop52
140
1.0
102
RTVSPost2010PropOp52
 70
     0
102
RTVSPost2010Prop53
 90
        2
102
RTVSPost2010PropOp53
 70
     0
102
RTVSPost2010Prop54
  1
strokes_ogs.tif
102
RTVSPost2010PropOp54
 70
     0
102
RTVSPost2010Prop55
280
     0
102
RTVSPost2010PropOp55
 70
     0
102
RTVSPost2010Prop56
140
1.0
102
RTVSPost2010PropOp56
 70
     0
102
RTVSPost2010Prop57
140
1.0
102
RTVSPost2010PropOp57
 70
     0
  0
XRECORD
  5
314
102
{ACAD_REACTORS
330
313
102
}
330
313
100
AcDbXrecord
280
     1
102
RTVSPropertyOp0
 70
     1
102
RTVSPropertyOp1
 70
     1
102
RTVSPropertyOp2
 70
     1
102
RTVSPropertyOp3
 70
     1
102
RTVSPropertyOp4
 70
     1
102
RTVSPropertyOp5
 70
     1
102
RTVSPropertyOp6
 70
     1
102
RTVSPropertyOp7
 70
     1
102
RTVSPropertyOp8
 70
     1
102
RTVSPropertyOp9
 70
     1
102
RTVSPropertyOp10
 70
     1
102
RTVSPropertyOp11
 70
     1
102
RTVSPropertyOp12
 70
     1
102
RTVSPropertyOp13
 70
     1
102
RTVSPropertyOp14
 70
     1
102
RTVSPropertyOp15
 70
     1
102
RTVSPropertyOp16
 70
     1
102
RTVSPropertyOp17
 70
     1
102
RTVSPropertyOp18
 70
     1
102
RTVSPropertyOp19
 70
     1
102
RTVSPropertyOp20
 70
     1
102
RTVSPropertyOp21
 70
     1
102
RTVSPropertyOp22
 70
     1
102
RTVSPropertyOp23
 70
     1
102
RTVSPropertyOp24
 70
     1
102
RTVSPropertyOp25
 70
     1
102
RTVSPropertyOp26
 70
     1
102
RTVSPropertyOp27
 70
     1
102
RTVSPropertyOp28
 70
     1
102
RTVSPropertyOp29
 70
     1
102
RTVSPropertyOp30
 70
     1
102
RTVSPropertyOp31
 70
     1
102
RTVSPropertyOp32
 70
     1
102
RTVSPropertyOp33
 70
     1
102
RTVSPropertyOp34
 70
     1
102
RTVSPropertyOp35
 70
     1
102
RTVSPropertyOp36
 70
     1
102
RTVSPropertyOp37
 70
     1
102
RTVSPropertyOp38
 70
     1
102
RTVSPropertyOp39
 70
     1
102
RTVSPropertyOp40
 70
     1
102
RTVSPropertyOp41
 70
     1
102
RTVSPropertyOp42
 70
     1
102
RTVSPropertyOp43
 70
     1
102
RTVSPropertyOp44
 70
     1
102
RTVSPropertyOp45
 70
     1
102
RTVSPropertyOp46
 70
     1
102
RTVSPropertyOp47
 70
     1
102
RTVSPropertyOp48
 70
     1
102
RTVSPropertyOp49
 70
     1
102
RTVSPropertyOp50
 70
     1
102
RTVSPropertyOp51
 70
     0
102
RTVSPropertyOp52
 70
     0
102
RTVSPropertyOp53
 70
     1
102
RTVSPropertyOp54
 70
     1
102
RTVSPropertyOp55
 70
     1
102
RTVSPropertyOp56
 70
     1
102
RTVSPropertyOp57
 70
     1
102
RTVSPost2010Prop28
280
     0
102
RTVSPost2010PropOp28
 70
     1
102
RTVSPost2010Prop29
280
     1
102
RTVSPost2010PropOp29
 70
     1
102
RTVSPost2010Prop30
280
     1
102
RTVSPost2010PropOp30
 70
     1
102
RTVSPost2010Prop31
280
     0
102
RTVSPost2010PropOp31
 70
     1
102
RTVSPost2010Prop32
280
     0
102
RTVSPost2010PropOp32
 70
     1
102
RTVSPost2010Prop33
280
     0
102
RTVSPost2010PropOp33
 70
     1
102
RTVSPost2010Prop34
280
     0
102
RTVSPost2010PropOp34
 70
     1
102
RTVSPost2010Prop35
280
     0
102
RTVSPost2010PropOp35
 70
     1
102
RTVSPost2010Prop36
280
     0
102
RTVSPost2010PropOp36
 70
     1
102
RTVSPost2010Prop37
 90
       50
102
RTVSPost2010PropOp37
 70
     1
102
RTVSPost2010Prop38
140
0.0
102
RTVSPost2010PropOp38
 70
     1
102
RTVSPost2010Prop39
140
1.0
102
RTVSPost2010PropOp39
 70
     1
102
RTVSPost2010Prop40
 90
        0
102
RTVSPost2010PropOp40
 70
     1
102
RTVSPost2010Prop41ColorIndex
 90
       18
102
RTVSPost2010Prop41ColorRGB
 90
        0
102
RTVSPost2010PropOp41
 70
     1
102
RTVSPost2010Prop42
 90
       50
102
RTVSPost2010PropOp42
 70
     1
102
RTVSPost2010Prop43
 90
        3
102
RTVSPost2010PropOp43
 70
     1
102
RTVSPost2010Prop44ColorIndex
 90
        5
102
RTVSPost2010Prop44ColorRGB
 90
      255
102
RTVSPost2010PropOp44
 70
     1
102
RTVSPost2010Prop45
280
     0
102
RTVSPost2010PropOp45
 70
     1
102
RTVSPost2010Prop46
 90
       50
102
RTVSPost2010PropOp46
 70
     1
102
RTVSPost2010Prop47
 90
       50
102
RTVSPost2010PropOp47
 70
     1
102
RTVSPost2010Prop48
 90
       50
102
RTVSPost2010PropOp48
 70
     1
102
RTVSPost2010Prop49
280
     0
102
RTVSPost2010PropOp49
 70
     1
102
RTVSPost2010Prop50
 90
       50
102
RTVSPost2010PropOp50
 70
     1
102
RTVSPost2010Prop51ColorIndex
 90
      256
102
RTVSPost2010Prop51ColorRGB
 90
-16777216
102
RTVSPost2010PropOp51
 70
     0
102
RTVSPost2010Prop52
140
1.0
102
RTVSPost2010PropOp52
 70
     0
102
RTVSPost2010Prop53
 90
        2
102
RTVSPost2010PropOp53
 70
     1
102
RTVSPost2010Prop54
  1
strokes_ogs.tif
102
RTVSPost2010PropOp54
 70
     1
102
RTVSPost2010Prop55
280
     0
102
RTVSPost2010PropOp55
 70
     1
102
RTVSPost2010Prop56
140
1.0
102
RTVSPost2010PropOp56
 70
     1
102
RTVSPost2010Prop57
140
1.0
102
RTVSPost2010PropOp57
 70
     1
  0
XRECORD
  5
31C
102
{ACAD_REACTORS
330
31B
102
}
330
31B
100
AcDbXrecord
280
     1
102
RTVSPropertyOp0
 70
     0
102
RTVSPropertyOp1
 70
     0
102
RTVSPropertyOp2
 70
     0
102
RTVSPropertyOp3
 70
     0
102
RTVSPropertyOp4
 70
     0
102
RTVSPropertyOp5
 70
     0
102
RTVSPropertyOp6
 70
     0
102
RTVSPropertyOp7
 70
     0
102
RTVSPropertyOp8
 70
     0
102
RTVSPropertyOp9
 70
     0
102
RTVSPropertyOp10
 70
     0
102
RTVSPropertyOp11
 70
     0
102
RTVSPropertyOp12
 70
     0
102
RTVSPropertyOp13
 70
     0
102
RTVSPropertyOp14
 70
     2
102
RTVSPropertyOp15
 70
     0
102
RTVSPropertyOp16
 70
     0
102
RTVSPropertyOp17
 70
     0
102
RTVSPropertyOp18
 70
     0
102
RTVSPropertyOp19
 70
     0
102
RTVSPropertyOp20
 70
     0
102
RTVSPropertyOp21
 70
     0
102
RTVSPropertyOp22
 70
     0
102
RTVSPropertyOp23
 70
     0
102
RTVSPropertyOp24
 70
     0
102
RTVSPropertyOp25
 70
     0
102
RTVSPropertyOp26
 70
     0
102
RTVSPropertyOp27
 70
     0
102
RTVSPropertyOp28
 70
     0
102
RTVSPropertyOp29
 70
     0
102
RTVSPropertyOp30
 70
     0
102
RTVSPropertyOp31
 70
     0
102
RTVSPropertyOp32
 70
     0
102
RTVSPropertyOp33
 70
     0
102
RTVSPropertyOp34
 70
     0
102
RTVSPropertyOp35
 70
     0
102
RTVSPropertyOp36
 70
     0
102
RTVSPropertyOp37
 70
     0
102
RTVSPropertyOp38
 70
     0
102
RTVSPropertyOp39
 70
     0
102
RTVSPropertyOp40
 70
     0
102
RTVSPropertyOp41
 70
     0
102
RTVSPropertyOp42
 70
     0
102
RTVSPropertyOp43
 70
     0
102
RTVSPropertyOp44
 70
     0
102
RTVSPropertyOp45
 70
     0
102
RTVSPropertyOp46
 70
     0
102
RTVSPropertyOp47
 70
     0
102
RTVSPropertyOp48
 70
     0
102
RTVSPropertyOp49
 70
     0
102
RTVSPropertyOp50
 70
     0
102
RTVSPropertyOp51
 70
     0
102
RTVSPropertyOp52
 70
     0
102
RTVSPropertyOp53
 70
     0
102
RTVSPropertyOp54
 70
     0
102
RTVSPropertyOp55
 70
     0
102
RTVSPropertyOp56
 70
     0
102
RTVSPropertyOp57
 70
     0
102
RTVSPost2010Prop28
280
     0
102
RTVSPost2010PropOp28
 70
     0
102
RTVSPost2010Prop29
280
     1
102
RTVSPost2010PropOp29
 70
     0
102
RTVSPost2010Prop30
280
     1
102
RTVSPost2010PropOp30
 70
     0
102
RTVSPost2010Prop31
280
     0
102
RTVSPost2010PropOp31
 70
     0
102
RTVSPost2010Prop32
280
     0
102
RTVSPost2010PropOp32
 70
     0
102
RTVSPost2010Prop33
280
     0
102
RTVSPost2010PropOp33
 70
     0
102
RTVSPost2010Prop34
280
     0
102
RTVSPost2010PropOp34
 70
     0
102
RTVSPost2010Prop35
280
     0
102
RTVSPost2010PropOp35
 70
     0
102
RTVSPost2010Prop36
280
     0
102
RTVSPost2010PropOp36
 70
     0
102
RTVSPost2010Prop37
 90
       50
102
RTVSPost2010PropOp37
 70
     0
102
RTVSPost2010Prop38
140
0.0
102
RTVSPost2010PropOp38
 70
     0
102
RTVSPost2010Prop39
140
1.0
102
RTVSPost2010PropOp39
 70
     0
102
RTVSPost2010Prop40
 90
        0
102
RTVSPost2010PropOp40
 70
     0
102
RTVSPost2010Prop41ColorIndex
 90
       18
102
RTVSPost2010Prop41ColorRGB
 90
        0
102
RTVSPost2010PropOp41
 70
     0
102
RTVSPost2010Prop42
 90
       50
102
RTVSPost2010PropOp42
 70
     0
102
RTVSPost2010Prop43
 90
        3
102
RTVSPost2010PropOp43
 70
     0
102
RTVSPost2010Prop44ColorIndex
 90
        5
102
RTVSPost2010Prop44ColorRGB
 90
      255
102
RTVSPost2010PropOp44
 70
     0
102
RTVSPost2010Prop45
280
     0
102
RTVSPost2010PropOp45
 70
     0
102
RTVSPost2010Prop46
 90
       50
102
RTVSPost2010PropOp46
 70
     0
102
RTVSPost2010Prop47
 90
       50
102
RTVSPost2010PropOp47
 70
     0
102
RTVSPost2010Prop48
 90
       50
102
RTVSPost2010PropOp48
 70
     0
102
RTVSPost2010Prop49
280
     0
102
RTVSPost2010PropOp49
 70
     0
102
RTVSPost2010Prop50
 90
       50
102
RTVSPost2010PropOp50
 70
     0
102
RTVSPost2010Prop51ColorIndex
 90
      256
102
RTVSPost2010Prop51ColorRGB
 90
-16777216
102
RTVSPost2010PropOp51
 70
     0
102
RTVSPost2010Prop52
140
1.0
102
RTVSPost2010PropOp52
 70
     0
102
RTVSPost2010Prop53
 90
        2
102
RTVSPost2010PropOp53
 70
     0
102
RTVSPost2010Prop54
  1
strokes_ogs.tif
102
RTVSPost2010PropOp54
 70
     0
102
RTVSPost2010Prop55
280
     0
102
RTVSPost2010PropOp55
 70
     0
102
RTVSPost2010Prop56
140
1.0
102
RTVSPost2010PropOp56
 70
     0
102
RTVSPost2010Prop57
140
1.0
102
RTVSPost2010PropOp57
 70
     0
  0
XRECORD
  5
30A
102
{ACAD_REACTORS
330
309
102
}
330
309
100
AcDbXrecord
280
     1
102
RTVSPropertyOp0
 70
     1
102
RTVSPropertyOp1
 70
     1
102
RTVSPropertyOp2
 70
     1
102
RTVSPropertyOp3
 70
     1
102
RTVSPropertyOp4
 70
     1
102
RTVSPropertyOp5
 70
     1
102
RTVSPropertyOp6
 70
     1
102
RTVSPropertyOp7
 70
     1
102
RTVSPropertyOp8
 70
     1
102
RTVSPropertyOp9
 70
     1
102
RTVSPropertyOp10
 70
     1
102
RTVSPropertyOp11
 70
     1
102
RTVSPropertyOp12
 70
     1
102
RTVSPropertyOp13
 70
     1
102
RTVSPropertyOp14
 70
     1
102
RTVSPropertyOp15
 70
     1
102
RTVSPropertyOp16
 70
     1
102
RTVSPropertyOp17
 70
     1
102
RTVSPropertyOp18
 70
     1
102
RTVSPropertyOp19
 70
     1
102
RTVSPropertyOp20
 70
     1
102
RTVSPropertyOp21
 70
     1
102
RTVSPropertyOp22
 70
     1
102
RTVSPropertyOp23
 70
     1
102
RTVSPropertyOp24
 70
     1
102
RTVSPropertyOp25
 70
     1
102
RTVSPropertyOp26
 70
     1
102
RTVSPropertyOp27
 70
     1
102
RTVSPropertyOp28
 70
     1
102
RTVSPropertyOp29
 70
     1
102
RTVSPropertyOp30
 70
     1
102
RTVSPropertyOp31
 70
     1
102
RTVSPropertyOp32
 70
     1
102
RTVSPropertyOp33
 70
     1
102
RTVSPropertyOp34
 70
     1
102
RTVSPropertyOp35
 70
     1
102
RTVSPropertyOp36
 70
     1
102
RTVSPropertyOp37
 70
     1
102
RTVSPropertyOp38
 70
     1
102
RTVSPropertyOp39
 70
     1
102
RTVSPropertyOp40
 70
     1
102
RTVSPropertyOp41
 70
     1
102
RTVSPropertyOp42
 70
     1
102
RTVSPropertyOp43
 70
     1
102
RTVSPropertyOp44
 70
     1
102
RTVSPropertyOp45
 70
     1
102
RTVSPropertyOp46
 70
     1
102
RTVSPropertyOp47
 70
     1
102
RTVSPropertyOp48
 70
     1
102
RTVSPropertyOp49
 70
     1
102
RTVSPropertyOp50
 70
     1
102
RTVSPropertyOp51
 70
     0
102
RTVSPropertyOp52
 70
     0
102
RTVSPropertyOp53
 70
     1
102
RTVSPropertyOp54
 70
     1
102
RTVSPropertyOp55
 70
     1
102
RTVSPropertyOp56
 70
     1
102
RTVSPropertyOp57
 70
     1
102
RTVSPost2010Prop28
280
     0
102
RTVSPost2010PropOp28
 70
     1
102
RTVSPost2010Prop29
280
     1
102
RTVSPost2010PropOp29
 70
     1
102
RTVSPost2010Prop30
280
     1
102
RTVSPost2010PropOp30
 70
     1
102
RTVSPost2010Prop31
280
     0
102
RTVSPost2010PropOp31
 70
     1
102
RTVSPost2010Prop32
280
     0
102
RTVSPost2010PropOp32
 70
     1
102
RTVSPost2010Prop33
280
     0
102
RTVSPost2010PropOp33
 70
     1
102
RTVSPost2010Prop34
280
     0
102
RTVSPost2010PropOp34
 70
     1
102
RTVSPost2010Prop35
280
     0
102
RTVSPost2010PropOp35
 70
     1
102
RTVSPost2010Prop36
280
     0
102
RTVSPost2010PropOp36
 70
     1
102
RTVSPost2010Prop37
 90
       50
102
RTVSPost2010PropOp37
 70
     1
102
RTVSPost2010Prop38
140
0.0
102
RTVSPost2010PropOp38
 70
     1
102
RTVSPost2010Prop39
140
1.0
102
RTVSPost2010PropOp39
 70
     1
102
RTVSPost2010Prop40
 90
        0
102
RTVSPost2010PropOp40
 70
     1
102
RTVSPost2010Prop41ColorIndex
 90
       18
102
RTVSPost2010Prop41ColorRGB
 90
        0
102
RTVSPost2010PropOp41
 70
     1
102
RTVSPost2010Prop42
 90
       50
102
RTVSPost2010PropOp42
 70
     1
102
RTVSPost2010Prop43
 90
        3
102
RTVSPost2010PropOp43
 70
     1
102
RTVSPost2010Prop44ColorIndex
 90
        5
102
RTVSPost2010Prop44ColorRGB
 90
      255
102
RTVSPost2010PropOp44
 70
     1
102
RTVSPost2010Prop45
280
     0
102
RTVSPost2010PropOp45
 70
     1
102
RTVSPost2010Prop46
 90
       50
102
RTVSPost2010PropOp46
 70
     1
102
RTVSPost2010Prop47
 90
       50
102
RTVSPost2010PropOp47
 70
     1
102
RTVSPost2010Prop48
 90
       50
102
RTVSPost2010PropOp48
 70
     1
102
RTVSPost2010Prop49
280
     0
102
RTVSPost2010PropOp49
 70
     1
102
RTVSPost2010Prop50
 90
       50
102
RTVSPost2010PropOp50
 70
     1
102
RTVSPost2010Prop51ColorIndex
 90
      256
102
RTVSPost2010Prop51ColorRGB
 90
-16777216
102
RTVSPost2010PropOp51
 70
     0
102
RTVSPost2010Prop52
140
1.0
102
RTVSPost2010PropOp52
 70
     0
102
RTVSPost2010Prop53
 90
        2
102
RTVSPost2010PropOp53
 70
     1
102
RTVSPost2010Prop54
  1
strokes_ogs.tif
102
RTVSPost2010PropOp54
 70
     1
102
RTVSPost2010Prop55
280
     0
102
RTVSPost2010PropOp55
 70
     1
102
RTVSPost2010Prop56
140
1.0
102
RTVSPost2010PropOp56
 70
     1
102
RTVSPost2010Prop57
140
1.0
102
RTVSPost2010PropOp57
 70
     1
  0
XRECORD
  5
328
102
{ACAD_REACTORS
330
327
102
}
330
327
100
AcDbXrecord
280
     1
102
RTVSPropertyOp0
 70
     1
102
RTVSPropertyOp1
 70
     1
102
RTVSPropertyOp2
 70
     1
102
RTVSPropertyOp3
 70
     1
102
RTVSPropertyOp4
 70
     1
102
RTVSPropertyOp5
 70
     1
102
RTVSPropertyOp6
 70
     1
102
RTVSPropertyOp7
 70
     1
102
RTVSPropertyOp8
 70
     1
102
RTVSPropertyOp9
 70
     1
102
RTVSPropertyOp10
 70
     1
102
RTVSPropertyOp11
 70
     1
102
RTVSPropertyOp12
 70
     1
102
RTVSPropertyOp13
 70
     1
102
RTVSPropertyOp14
 70
     1
102
RTVSPropertyOp15
 70
     1
102
RTVSPropertyOp16
 70
     1
102
RTVSPropertyOp17
 70
     1
102
RTVSPropertyOp18
 70
     1
102
RTVSPropertyOp19
 70
     1
102
RTVSPropertyOp20
 70
     1
102
RTVSPropertyOp21
 70
     1
102
RTVSPropertyOp22
 70
     1
102
RTVSPropertyOp23
 70
     1
102
RTVSPropertyOp24
 70
     1
102
RTVSPropertyOp25
 70
     1
102
RTVSPropertyOp26
 70
     1
102
RTVSPropertyOp27
 70
     1
102
RTVSPropertyOp28
 70
     1
102
RTVSPropertyOp29
 70
     1
102
RTVSPropertyOp30
 70
     1
102
RTVSPropertyOp31
 70
     1
102
RTVSPropertyOp32
 70
     1
102
RTVSPropertyOp33
 70
     1
102
RTVSPropertyOp34
 70
     1
102
RTVSPropertyOp35
 70
     1
102
RTVSPropertyOp36
 70
     1
102
RTVSPropertyOp37
 70
     1
102
RTVSPropertyOp38
 70
     1
102
RTVSPropertyOp39
 70
     1
102
RTVSPropertyOp40
 70
     1
102
RTVSPropertyOp41
 70
     1
102
RTVSPropertyOp42
 70
     1
102
RTVSPropertyOp43
 70
     1
102
RTVSPropertyOp44
 70
     1
102
RTVSPropertyOp45
 70
     1
102
RTVSPropertyOp46
 70
     1
102
RTVSPropertyOp47
 70
     1
102
RTVSPropertyOp48
 70
     1
102
RTVSPropertyOp49
 70
     1
102
RTVSPropertyOp50
 70
     1
102
RTVSPropertyOp51
 70
     0
102
RTVSPropertyOp52
 70
     0
102
RTVSPropertyOp53
 70
     1
102
RTVSPropertyOp54
 70
     1
102
RTVSPropertyOp55
 70
     1
102
RTVSPropertyOp56
 70
     1
102
RTVSPropertyOp57
 70
     1
102
RTVSPost2010Prop28
280
     0
102
RTVSPost2010PropOp28
 70
     1
102
RTVSPost2010Prop29
280
     1
102
RTVSPost2010PropOp29
 70
     1
102
RTVSPost2010Prop30
280
     1
102
RTVSPost2010PropOp30
 70
     1
102
RTVSPost2010Prop31
280
     0
102
RTVSPost2010PropOp31
 70
     1
102
RTVSPost2010Prop32
280
     0
102
RTVSPost2010PropOp32
 70
     1
102
RTVSPost2010Prop33
280
     0
102
RTVSPost2010PropOp33
 70
     1
102
RTVSPost2010Prop34
280
     0
102
RTVSPost2010PropOp34
 70
     1
102
RTVSPost2010Prop35
280
     0
102
RTVSPost2010PropOp35
 70
     1
102
RTVSPost2010Prop36
280
     0
102
RTVSPost2010PropOp36
 70
     1
102
RTVSPost2010Prop37
 90
       50
102
RTVSPost2010PropOp37
 70
     1
102
RTVSPost2010Prop38
140
0.0
102
RTVSPost2010PropOp38
 70
     1
102
RTVSPost2010Prop39
140
1.0
102
RTVSPost2010PropOp39
 70
     1
102
RTVSPost2010Prop40
 90
        0
102
RTVSPost2010PropOp40
 70
     1
102
RTVSPost2010Prop41ColorIndex
 90
       18
102
RTVSPost2010Prop41ColorRGB
 90
        0
102
RTVSPost2010PropOp41
 70
     1
102
RTVSPost2010Prop42
 90
       50
102
RTVSPost2010PropOp42
 70
     1
102
RTVSPost2010Prop43
 90
        3
102
RTVSPost2010PropOp43
 70
     1
102
RTVSPost2010Prop44ColorIndex
 90
        5
102
RTVSPost2010Prop44ColorRGB
 90
      255
102
RTVSPost2010PropOp44
 70
     1
102
RTVSPost2010Prop45
280
     0
102
RTVSPost2010PropOp45
 70
     1
102
RTVSPost2010Prop46
 90
       50
102
RTVSPost2010PropOp46
 70
     1
102
RTVSPost2010Prop47
 90
       50
102
RTVSPost2010PropOp47
 70
     1
102
RTVSPost2010Prop48
 90
       50
102
RTVSPost2010PropOp48
 70
     1
102
RTVSPost2010Prop49
280
     0
102
RTVSPost2010PropOp49
 70
     1
102
RTVSPost2010Prop50
 90
       50
102
RTVSPost2010PropOp50
 70
     1
102
RTVSPost2010Prop51ColorIndex
 90
      256
102
RTVSPost2010Prop51ColorRGB
 90
-16777216
102
RTVSPost2010PropOp51
 70
     0
102
RTVSPost2010Prop52
140
1.0
102
RTVSPost2010PropOp52
 70
     0
102
RTVSPost2010Prop53
 90
        2
102
RTVSPost2010PropOp53
 70
     1
102
RTVSPost2010Prop54
  1
strokes_ogs.tif
102
RTVSPost2010PropOp54
 70
     1
102
RTVSPost2010Prop55
280
     0
102
RTVSPost2010PropOp55
 70
     1
102
RTVSPost2010Prop56
140
1.0
102
RTVSPost2010PropOp56
 70
     1
102
RTVSPost2010Prop57
140
1.0
102
RTVSPost2010PropOp57
 70
     1
  0
XRECORD
  5
326
102
{ACAD_REACTORS
330
325
102
}
330
325
100
AcDbXrecord
280
     1
102
RTVSPropertyOp0
 70
     1
102
RTVSPropertyOp1
 70
     1
102
RTVSPropertyOp2
 70
     1
102
RTVSPropertyOp3
 70
     1
102
RTVSPropertyOp4
 70
     1
102
RTVSPropertyOp5
 70
     1
102
RTVSPropertyOp6
 70
     1
102
RTVSPropertyOp7
 70
     1
102
RTVSPropertyOp8
 70
     1
102
RTVSPropertyOp9
 70
     1
102
RTVSPropertyOp10
 70
     1
102
RTVSPropertyOp11
 70
     1
102
RTVSPropertyOp12
 70
     1
102
RTVSPropertyOp13
 70
     1
102
RTVSPropertyOp14
 70
     1
102
RTVSPropertyOp15
 70
     1
102
RTVSPropertyOp16
 70
     1
102
RTVSPropertyOp17
 70
     1
102
RTVSPropertyOp18
 70
     1
102
RTVSPropertyOp19
 70
     1
102
RTVSPropertyOp20
 70
     1
102
RTVSPropertyOp21
 70
     1
102
RTVSPropertyOp22
 70
     1
102
RTVSPropertyOp23
 70
     1
102
RTVSPropertyOp24
 70
     1
102
RTVSPropertyOp25
 70
     1
102
RTVSPropertyOp26
 70
     1
102
RTVSPropertyOp27
 70
     1
102
RTVSPropertyOp28
 70
     1
102
RTVSPropertyOp29
 70
     1
102
RTVSPropertyOp30
 70
     1
102
RTVSPropertyOp31
 70
     1
102
RTVSPropertyOp32
 70
     1
102
RTVSPropertyOp33
 70
     1
102
RTVSPropertyOp34
 70
     1
102
RTVSPropertyOp35
 70
     1
102
RTVSPropertyOp36
 70
     1
102
RTVSPropertyOp37
 70
     1
102
RTVSPropertyOp38
 70
     1
102
RTVSPropertyOp39
 70
     1
102
RTVSPropertyOp40
 70
     1
102
RTVSPropertyOp41
 70
     1
102
RTVSPropertyOp42
 70
     1
102
RTVSPropertyOp43
 70
     1
102
RTVSPropertyOp44
 70
     1
102
RTVSPropertyOp45
 70
     1
102
RTVSPropertyOp46
 70
     1
102
RTVSPropertyOp47
 70
     1
102
RTVSPropertyOp48
 70
     1
102
RTVSPropertyOp49
 70
     1
102
RTVSPropertyOp50
 70
     1
102
RTVSPropertyOp51
 70
     0
102
RTVSPropertyOp52
 70
     0
102
RTVSPropertyOp53
 70
     1
102
RTVSPropertyOp54
 70
     1
102
RTVSPropertyOp55
 70
     1
102
RTVSPropertyOp56
 70
     1
102
RTVSPropertyOp57
 70
     1
102
RTVSPost2010Prop28
280
     0
102
RTVSPost2010PropOp28
 70
     1
102
RTVSPost2010Prop29
280
     1
102
RTVSPost2010PropOp29
 70
     1
102
RTVSPost2010Prop30
280
     1
102
RTVSPost2010PropOp30
 70
     1
102
RTVSPost2010Prop31
280
     0
102
RTVSPost2010PropOp31
 70
     1
102
RTVSPost2010Prop32
280
     0
102
RTVSPost2010PropOp32
 70
     1
102
RTVSPost2010Prop33
280
     0
102
RTVSPost2010PropOp33
 70
     1
102
RTVSPost2010Prop34
280
     0
102
RTVSPost2010PropOp34
 70
     1
102
RTVSPost2010Prop35
280
     0
102
RTVSPost2010PropOp35
 70
     1
102
RTVSPost2010Prop36
280
     0
102
RTVSPost2010PropOp36
 70
     1
102
RTVSPost2010Prop37
 90
       50
102
RTVSPost2010PropOp37
 70
     1
102
RTVSPost2010Prop38
140
0.0
102
RTVSPost2010PropOp38
 70
     1
102
RTVSPost2010Prop39
140
1.0
102
RTVSPost2010PropOp39
 70
     1
102
RTVSPost2010Prop40
 90
        0
102
RTVSPost2010PropOp40
 70
     1
102
RTVSPost2010Prop41ColorIndex
 90
       18
102
RTVSPost2010Prop41ColorRGB
 90
        0
102
RTVSPost2010PropOp41
 70
     1
102
RTVSPost2010Prop42
 90
       50
102
RTVSPost2010PropOp42
 70
     1
102
RTVSPost2010Prop43
 90
        3
102
RTVSPost2010PropOp43
 70
     1
102
RTVSPost2010Prop44ColorIndex
 90
        5
102
RTVSPost2010Prop44ColorRGB
 90
      255
102
RTVSPost2010PropOp44
 70
     1
102
RTVSPost2010Prop45
280
     0
102
RTVSPost2010PropOp45
 70
     1
102
RTVSPost2010Prop46
 90
       50
102
RTVSPost2010PropOp46
 70
     1
102
RTVSPost2010Prop47
 90
       50
102
RTVSPost2010PropOp47
 70
     1
102
RTVSPost2010Prop48
 90
       50
102
RTVSPost2010PropOp48
 70
     1
102
RTVSPost2010Prop49
280
     0
102
RTVSPost2010PropOp49
 70
     1
102
RTVSPost2010Prop50
 90
       50
102
RTVSPost2010PropOp50
 70
     1
102
RTVSPost2010Prop51ColorIndex
 90
      256
102
RTVSPost2010Prop51ColorRGB
 90
-16777216
102
RTVSPost2010PropOp51
 70
     0
102
RTVSPost2010Prop52
140
1.0
102
RTVSPost2010PropOp52
 70
     0
102
RTVSPost2010Prop53
 90
        2
102
RTVSPost2010PropOp53
 70
     1
102
RTVSPost2010Prop54
  1
strokes_ogs.tif
102
RTVSPost2010PropOp54
 70
     1
102
RTVSPost2010Prop55
280
     0
102
RTVSPost2010PropOp55
 70
     1
102
RTVSPost2010Prop56
140
1.0
102
RTVSPost2010PropOp56
 70
     1
102
RTVSPost2010Prop57
140
1.0
102
RTVSPost2010PropOp57
 70
     1
  0
XRECORD
  5
320
102
{ACAD_REACTORS
330
31F
102
}
330
31F
100
AcDbXrecord
280
     1
102
RTVSPropertyOp0
 70
     1
102
RTVSPropertyOp1
 70
     1
102
RTVSPropertyOp2
 70
     1
102
RTVSPropertyOp3
 70
     1
102
RTVSPropertyOp4
 70
     1
102
RTVSPropertyOp5
 70
     1
102
RTVSPropertyOp6
 70
     1
102
RTVSPropertyOp7
 70
     1
102
RTVSPropertyOp8
 70
     1
102
RTVSPropertyOp9
 70
     1
102
RTVSPropertyOp10
 70
     1
102
RTVSPropertyOp11
 70
     1
102
RTVSPropertyOp12
 70
     1
102
RTVSPropertyOp13
 70
     1
102
RTVSPropertyOp14
 70
     1
102
RTVSPropertyOp15
 70
     1
102
RTVSPropertyOp16
 70
     1
102
RTVSPropertyOp17
 70
     1
102
RTVSPropertyOp18
 70
     1
102
RTVSPropertyOp19
 70
     1
102
RTVSPropertyOp20
 70
     1
102
RTVSPropertyOp21
 70
     1
102
RTVSPropertyOp22
 70
     1
102
RTVSPropertyOp23
 70
     1
102
RTVSPropertyOp24
 70
     1
102
RTVSPropertyOp25
 70
     1
102
RTVSPropertyOp26
 70
     1
102
RTVSPropertyOp27
 70
     1
102
RTVSPropertyOp28
 70
     1
102
RTVSPropertyOp29
 70
     1
102
RTVSPropertyOp30
 70
     1
102
RTVSPropertyOp31
 70
     1
102
RTVSPropertyOp32
 70
     1
102
RTVSPropertyOp33
 70
     1
102
RTVSPropertyOp34
 70
     1
102
RTVSPropertyOp35
 70
     1
102
RTVSPropertyOp36
 70
     1
102
RTVSPropertyOp37
 70
     1
102
RTVSPropertyOp38
 70
     1
102
RTVSPropertyOp39
 70
     1
102
RTVSPropertyOp40
 70
     1
102
RTVSPropertyOp41
 70
     1
102
RTVSPropertyOp42
 70
     1
102
RTVSPropertyOp43
 70
     1
102
RTVSPropertyOp44
 70
     1
102
RTVSPropertyOp45
 70
     1
102
RTVSPropertyOp46
 70
     1
102
RTVSPropertyOp47
 70
     1
102
RTVSPropertyOp48
 70
     1
102
RTVSPropertyOp49
 70
     1
102
RTVSPropertyOp50
 70
     1
102
RTVSPropertyOp51
 70
     0
102
RTVSPropertyOp52
 70
     0
102
RTVSPropertyOp53
 70
     1
102
RTVSPropertyOp54
 70
     1
102
RTVSPropertyOp55
 70
     1
102
RTVSPropertyOp56
 70
     1
102
RTVSPropertyOp57
 70
     1
102
RTVSPost2010Prop28
280
     0
102
RTVSPost2010PropOp28
 70
     1
102
RTVSPost2010Prop29
280
     1
102
RTVSPost2010PropOp29
 70
     1
102
RTVSPost2010Prop30
280
     1
102
RTVSPost2010PropOp30
 70
     1
102
RTVSPost2010Prop31
280
     0
102
RTVSPost2010PropOp31
 70
     1
102
RTVSPost2010Prop32
280
     0
102
RTVSPost2010PropOp32
 70
     1
102
RTVSPost2010Prop33
280
     0
102
RTVSPost2010PropOp33
 70
     1
102
RTVSPost2010Prop34
280
     0
102
RTVSPost2010PropOp34
 70
     1
102
RTVSPost2010Prop35
280
     0
102
RTVSPost2010PropOp35
 70
     1
102
RTVSPost2010Prop36
280
     0
102
RTVSPost2010PropOp36
 70
     1
102
RTVSPost2010Prop37
 90
       50
102
RTVSPost2010PropOp37
 70
     1
102
RTVSPost2010Prop38
140
0.0
102
RTVSPost2010PropOp38
 70
     1
102
RTVSPost2010Prop39
140
1.0
102
RTVSPost2010PropOp39
 70
     1
102
RTVSPost2010Prop40
 90
        0
102
RTVSPost2010PropOp40
 70
     1
102
RTVSPost2010Prop41ColorIndex
 90
       18
102
RTVSPost2010Prop41ColorRGB
 90
        0
102
RTVSPost2010PropOp41
 70
     1
102
RTVSPost2010Prop42
 90
       50
102
RTVSPost2010PropOp42
 70
     1
102
RTVSPost2010Prop43
 90
        3
102
RTVSPost2010PropOp43
 70
     1
102
RTVSPost2010Prop44ColorIndex
 90
        5
102
RTVSPost2010Prop44ColorRGB
 90
      255
102
RTVSPost2010PropOp44
 70
     1
102
RTVSPost2010Prop45
280
     0
102
RTVSPost2010PropOp45
 70
     1
102
RTVSPost2010Prop46
 90
       50
102
RTVSPost2010PropOp46
 70
     1
102
RTVSPost2010Prop47
 90
       50
102
RTVSPost2010PropOp47
 70
     1
102
RTVSPost2010Prop48
 90
       50
102
RTVSPost2010PropOp48
 70
     1
102
RTVSPost2010Prop49
280
     0
102
RTVSPost2010PropOp49
 70
     1
102
RTVSPost2010Prop50
 90
       50
102
RTVSPost2010PropOp50
 70
     1
102
RTVSPost2010Prop51ColorIndex
 90
      256
102
RTVSPost2010Prop51ColorRGB
 90
-16777216
102
RTVSPost2010PropOp51
 70
     0
102
RTVSPost2010Prop52
140
1.0
102
RTVSPost2010PropOp52
 70
     0
102
RTVSPost2010Prop53
 90
        2
102
RTVSPost2010PropOp53
 70
     1
102
RTVSPost2010Prop54
  1
strokes_ogs.tif
102
RTVSPost2010PropOp54
 70
     1
102
RTVSPost2010Prop55
280
     0
102
RTVSPost2010PropOp55
 70
     1
102
RTVSPost2010Prop56
140
1.0
102
RTVSPost2010PropOp56
 70
     1
102
RTVSPost2010Prop57
140
1.0
102
RTVSPost2010PropOp57
 70
     1
  0
XRECORD
  5
322
102
{ACAD_REACTORS
330
321
102
}
330
321
100
AcDbXrecord
280
     1
102
RTVSPropertyOp0
 70
     1
102
RTVSPropertyOp1
 70
     1
102
RTVSPropertyOp2
 70
     1
102
RTVSPropertyOp3
 70
     1
102
RTVSPropertyOp4
 70
     1
102
RTVSPropertyOp5
 70
     1
102
RTVSPropertyOp6
 70
     1
102
RTVSPropertyOp7
 70
     1
102
RTVSPropertyOp8
 70
     1
102
RTVSPropertyOp9
 70
     1
102
RTVSPropertyOp10
 70
     1
102
RTVSPropertyOp11
 70
     1
102
RTVSPropertyOp12
 70
     1
102
RTVSPropertyOp13
 70
     1
102
RTVSPropertyOp14
 70
     1
102
RTVSPropertyOp15
 70
     1
102
RTVSPropertyOp16
 70
     1
102
RTVSPropertyOp17
 70
     1
102
RTVSPropertyOp18
 70
     1
102
RTVSPropertyOp19
 70
     1
102
RTVSPropertyOp20
 70
     1
102
RTVSPropertyOp21
 70
     1
102
RTVSPropertyOp22
 70
     1
102
RTVSPropertyOp23
 70
     1
102
RTVSPropertyOp24
 70
     1
102
RTVSPropertyOp25
 70
     1
102
RTVSPropertyOp26
 70
     1
102
RTVSPropertyOp27
 70
     1
102
RTVSPropertyOp28
 70
     1
102
RTVSPropertyOp29
 70
     1
102
RTVSPropertyOp30
 70
     1
102
RTVSPropertyOp31
 70
     1
102
RTVSPropertyOp32
 70
     1
102
RTVSPropertyOp33
 70
     1
102
RTVSPropertyOp34
 70
     1
102
RTVSPropertyOp35
 70
     1
102
RTVSPropertyOp36
 70
     1
102
RTVSPropertyOp37
 70
     1
102
RTVSPropertyOp38
 70
     1
102
RTVSPropertyOp39
 70
     1
102
RTVSPropertyOp40
 70
     1
102
RTVSPropertyOp41
 70
     1
102
RTVSPropertyOp42
 70
     1
102
RTVSPropertyOp43
 70
     1
102
RTVSPropertyOp44
 70
     1
102
RTVSPropertyOp45
 70
     1
102
RTVSPropertyOp46
 70
     1
102
RTVSPropertyOp47
 70
     1
102
RTVSPropertyOp48
 70
     1
102
RTVSPropertyOp49
 70
     1
102
RTVSPropertyOp50
 70
     1
102
RTVSPropertyOp51
 70
     0
102
RTVSPropertyOp52
 70
     0
102
RTVSPropertyOp53
 70
     1
102
RTVSPropertyOp54
 70
     1
102
RTVSPropertyOp55
 70
     1
102
RTVSPropertyOp56
 70
     1
102
RTVSPropertyOp57
 70
     1
102
RTVSPost2010Prop28
280
     0
102
RTVSPost2010PropOp28
 70
     1
102
RTVSPost2010Prop29
280
     1
102
RTVSPost2010PropOp29
 70
     1
102
RTVSPost2010Prop30
280
     1
102
RTVSPost2010PropOp30
 70
     1
102
RTVSPost2010Prop31
280
     0
102
RTVSPost2010PropOp31
 70
     1
102
RTVSPost2010Prop32
280
     0
102
RTVSPost2010PropOp32
 70
     1
102
RTVSPost2010Prop33
280
     0
102
RTVSPost2010PropOp33
 70
     1
102
RTVSPost2010Prop34
280
     0
102
RTVSPost2010PropOp34
 70
     1
102
RTVSPost2010Prop35
280
     0
102
RTVSPost2010PropOp35
 70
     1
102
RTVSPost2010Prop36
280
     0
102
RTVSPost2010PropOp36
 70
     1
102
RTVSPost2010Prop37
 90
       50
102
RTVSPost2010PropOp37
 70
     1
102
RTVSPost2010Prop38
140
0.0
102
RTVSPost2010PropOp38
 70
     1
102
RTVSPost2010Prop39
140
1.0
102
RTVSPost2010PropOp39
 70
     1
102
RTVSPost2010Prop40
 90
        0
102
RTVSPost2010PropOp40
 70
     1
102
RTVSPost2010Prop41ColorIndex
 90
       18
102
RTVSPost2010Prop41ColorRGB
 90
        0
102
RTVSPost2010PropOp41
 70
     1
102
RTVSPost2010Prop42
 90
       50
102
RTVSPost2010PropOp42
 70
     1
102
RTVSPost2010Prop43
 90
        3
102
RTVSPost2010PropOp43
 70
     1
102
RTVSPost2010Prop44ColorIndex
 90
        5
102
RTVSPost2010Prop44ColorRGB
 90
      255
102
RTVSPost2010PropOp44
 70
     1
102
RTVSPost2010Prop45
280
     0
102
RTVSPost2010PropOp45
 70
     1
102
RTVSPost2010Prop46
 90
       50
102
RTVSPost2010PropOp46
 70
     1
102
RTVSPost2010Prop47
 90
       50
102
RTVSPost2010PropOp47
 70
     1
102
RTVSPost2010Prop48
 90
       50
102
RTVSPost2010PropOp48
 70
     1
102
RTVSPost2010Prop49
280
     0
102
RTVSPost2010PropOp49
 70
     1
102
RTVSPost2010Prop50
 90
       50
102
RTVSPost2010PropOp50
 70
     1
102
RTVSPost2010Prop51ColorIndex
 90
      256
102
RTVSPost2010Prop51ColorRGB
 90
-16777216
102
RTVSPost2010PropOp51
 70
     0
102
RTVSPost2010Prop52
140
1.0
102
RTVSPost2010PropOp52
 70
     0
102
RTVSPost2010Prop53
 90
        2
102
RTVSPost2010PropOp53
 70
     1
102
RTVSPost2010Prop54
  1
strokes_ogs.tif
102
RTVSPost2010PropOp54
 70
     1
102
RTVSPost2010Prop55
280
     0
102
RTVSPost2010PropOp55
 70
     1
102
RTVSPost2010Prop56
140
1.0
102
RTVSPost2010PropOp56
 70
     1
102
RTVSPost2010Prop57
140
1.0
102
RTVSPost2010PropOp57
 70
     1
  0
XRECORD
  5
312
102
{ACAD_REACTORS
330
311
102
}
330
311
100
AcDbXrecord
280
     1
102
RTVSPropertyOp0
 70
     1
102
RTVSPropertyOp1
 70
     1
102
RTVSPropertyOp2
 70
     1
102
RTVSPropertyOp3
 70
     1
102
RTVSPropertyOp4
 70
     1
102
RTVSPropertyOp5
 70
     1
102
RTVSPropertyOp6
 70
     1
102
RTVSPropertyOp7
 70
     1
102
RTVSPropertyOp8
 70
     1
102
RTVSPropertyOp9
 70
     1
102
RTVSPropertyOp10
 70
     1
102
RTVSPropertyOp11
 70
     1
102
RTVSPropertyOp12
 70
     1
102
RTVSPropertyOp13
 70
     1
102
RTVSPropertyOp14
 70
     1
102
RTVSPropertyOp15
 70
     1
102
RTVSPropertyOp16
 70
     1
102
RTVSPropertyOp17
 70
     1
102
RTVSPropertyOp18
 70
     1
102
RTVSPropertyOp19
 70
     1
102
RTVSPropertyOp20
 70
     1
102
RTVSPropertyOp21
 70
     1
102
RTVSPropertyOp22
 70
     1
102
RTVSPropertyOp23
 70
     1
102
RTVSPropertyOp24
 70
     1
102
RTVSPropertyOp25
 70
     1
102
RTVSPropertyOp26
 70
     1
102
RTVSPropertyOp27
 70
     1
102
RTVSPropertyOp28
 70
     1
102
RTVSPropertyOp29
 70
     1
102
RTVSPropertyOp30
 70
     1
102
RTVSPropertyOp31
 70
     1
102
RTVSPropertyOp32
 70
     1
102
RTVSPropertyOp33
 70
     1
102
RTVSPropertyOp34
 70
     1
102
RTVSPropertyOp35
 70
     1
102
RTVSPropertyOp36
 70
     1
102
RTVSPropertyOp37
 70
     1
102
RTVSPropertyOp38
 70
     1
102
RTVSPropertyOp39
 70
     1
102
RTVSPropertyOp40
 70
     1
102
RTVSPropertyOp41
 70
     1
102
RTVSPropertyOp42
 70
     1
102
RTVSPropertyOp43
 70
     1
102
RTVSPropertyOp44
 70
     1
102
RTVSPropertyOp45
 70
     1
102
RTVSPropertyOp46
 70
     1
102
RTVSPropertyOp47
 70
     1
102
RTVSPropertyOp48
 70
     1
102
RTVSPropertyOp49
 70
     1
102
RTVSPropertyOp50
 70
     1
102
RTVSPropertyOp51
 70
     0
102
RTVSPropertyOp52
 70
     0
102
RTVSPropertyOp53
 70
     1
102
RTVSPropertyOp54
 70
     1
102
RTVSPropertyOp55
 70
     1
102
RTVSPropertyOp56
 70
     1
102
RTVSPropertyOp57
 70
     1
102
RTVSPost2010Prop28
280
     0
102
RTVSPost2010PropOp28
 70
     1
102
RTVSPost2010Prop29
280
     1
102
RTVSPost2010PropOp29
 70
     1
102
RTVSPost2010Prop30
280
     1
102
RTVSPost2010PropOp30
 70
     1
102
RTVSPost2010Prop31
280
     0
102
RTVSPost2010PropOp31
 70
     1
102
RTVSPost2010Prop32
280
     0
102
RTVSPost2010PropOp32
 70
     1
102
RTVSPost2010Prop33
280
     0
102
RTVSPost2010PropOp33
 70
     1
102
RTVSPost2010Prop34
280
     0
102
RTVSPost2010PropOp34
 70
     1
102
RTVSPost2010Prop35
280
     0
102
RTVSPost2010PropOp35
 70
     1
102
RTVSPost2010Prop36
280
     0
102
RTVSPost2010PropOp36
 70
     1
102
RTVSPost2010Prop37
 90
       50
102
RTVSPost2010PropOp37
 70
     1
102
RTVSPost2010Prop38
140
0.0
102
RTVSPost2010PropOp38
 70
     1
102
RTVSPost2010Prop39
140
1.0
102
RTVSPost2010PropOp39
 70
     1
102
RTVSPost2010Prop40
 90
        0
102
RTVSPost2010PropOp40
 70
     1
102
RTVSPost2010Prop41ColorIndex
 90
       18
102
RTVSPost2010Prop41ColorRGB
 90
        0
102
RTVSPost2010PropOp41
 70
     1
102
RTVSPost2010Prop42
 90
       50
102
RTVSPost2010PropOp42
 70
     1
102
RTVSPost2010Prop43
 90
        3
102
RTVSPost2010PropOp43
 70
     1
102
RTVSPost2010Prop44ColorIndex
 90
        5
102
RTVSPost2010Prop44ColorRGB
 90
      255
102
RTVSPost2010PropOp44
 70
     1
102
RTVSPost2010Prop45
280
     0
102
RTVSPost2010PropOp45
 70
     1
102
RTVSPost2010Prop46
 90
       50
102
RTVSPost2010PropOp46
 70
     1
102
RTVSPost2010Prop47
 90
       50
102
RTVSPost2010PropOp47
 70
     1
102
RTVSPost2010Prop48
 90
       50
102
RTVSPost2010PropOp48
 70
     1
102
RTVSPost2010Prop49
280
     0
102
RTVSPost2010PropOp49
 70
     1
102
RTVSPost2010Prop50
 90
       50
102
RTVSPost2010PropOp50
 70
     1
102
RTVSPost2010Prop51ColorIndex
 90
      256
102
RTVSPost2010Prop51ColorRGB
 90
-16777216
102
RTVSPost2010PropOp51
 70
     0
102
RTVSPost2010Prop52
140
1.0
102
RTVSPost2010PropOp52
 70
     0
102
RTVSPost2010Prop53
 90
        2
102
RTVSPost2010PropOp53
 70
     1
102
RTVSPost2010Prop54
  1
strokes_ogs.tif
102
RTVSPost2010PropOp54
 70
     1
102
RTVSPost2010Prop55
280
     0
102
RTVSPost2010PropOp55
 70
     1
102
RTVSPost2010Prop56
140
1.0
102
RTVSPost2010PropOp56
 70
     1
102
RTVSPost2010Prop57
140
1.0
102
RTVSPost2010PropOp57
 70
     1
  0
XRECORD
  5
304
102
{ACAD_REACTORS
330
303
102
}
330
303
100
AcDbXrecord
280
     1
102
RTVSPropertyOp0
 70
     1
102
RTVSPropertyOp1
 70
     1
102
RTVSPropertyOp2
 70
     1
102
RTVSPropertyOp3
 70
     1
102
RTVSPropertyOp4
 70
     1
102
RTVSPropertyOp5
 70
     1
102
RTVSPropertyOp6
 70
     1
102
RTVSPropertyOp7
 70
     1
102
RTVSPropertyOp8
 70
     1
102
RTVSPropertyOp9
 70
     1
102
RTVSPropertyOp10
 70
     1
102
RTVSPropertyOp11
 70
     1
102
RTVSPropertyOp12
 70
     1
102
RTVSPropertyOp13
 70
     1
102
RTVSPropertyOp14
 70
     1
102
RTVSPropertyOp15
 70
     1
102
RTVSPropertyOp16
 70
     1
102
RTVSPropertyOp17
 70
     1
102
RTVSPropertyOp18
 70
     1
102
RTVSPropertyOp19
 70
     1
102
RTVSPropertyOp20
 70
     1
102
RTVSPropertyOp21
 70
     1
102
RTVSPropertyOp22
 70
     1
102
RTVSPropertyOp23
 70
     1
102
RTVSPropertyOp24
 70
     1
102
RTVSPropertyOp25
 70
     1
102
RTVSPropertyOp26
 70
     1
102
RTVSPropertyOp27
 70
     1
102
RTVSPropertyOp28
 70
     1
102
RTVSPropertyOp29
 70
     1
102
RTVSPropertyOp30
 70
     1
102
RTVSPropertyOp31
 70
     1
102
RTVSPropertyOp32
 70
     1
102
RTVSPropertyOp33
 70
     1
102
RTVSPropertyOp34
 70
     1
102
RTVSPropertyOp35
 70
     1
102
RTVSPropertyOp36
 70
     1
102
RTVSPropertyOp37
 70
     1
102
RTVSPropertyOp38
 70
     1
102
RTVSPropertyOp39
 70
     1
102
RTVSPropertyOp40
 70
     1
102
RTVSPropertyOp41
 70
     1
102
RTVSPropertyOp42
 70
     1
102
RTVSPropertyOp43
 70
     1
102
RTVSPropertyOp44
 70
     1
102
RTVSPropertyOp45
 70
     1
102
RTVSPropertyOp46
 70
     1
102
RTVSPropertyOp47
 70
     1
102
RTVSPropertyOp48
 70
     1
102
RTVSPropertyOp49
 70
     1
102
RTVSPropertyOp50
 70
     1
102
RTVSPropertyOp51
 70
     0
102
RTVSPropertyOp52
 70
     0
102
RTVSPropertyOp53
 70
     1
102
RTVSPropertyOp54
 70
     1
102
RTVSPropertyOp55
 70
     1
102
RTVSPropertyOp56
 70
     1
102
RTVSPropertyOp57
 70
     1
102
RTVSPost2010Prop28
280
     0
102
RTVSPost2010PropOp28
 70
     1
102
RTVSPost2010Prop29
280
     1
102
RTVSPost2010PropOp29
 70
     1
102
RTVSPost2010Prop30
280
     1
102
RTVSPost2010PropOp30
 70
     1
102
RTVSPost2010Prop31
280
     0
102
RTVSPost2010PropOp31
 70
     1
102
RTVSPost2010Prop32
280
     0
102
RTVSPost2010PropOp32
 70
     1
102
RTVSPost2010Prop33
280
     0
102
RTVSPost2010PropOp33
 70
     1
102
RTVSPost2010Prop34
280
     0
102
RTVSPost2010PropOp34
 70
     1
102
RTVSPost2010Prop35
280
     0
102
RTVSPost2010PropOp35
 70
     1
102
RTVSPost2010Prop36
280
     0
102
RTVSPost2010PropOp36
 70
     1
102
RTVSPost2010Prop37
 90
       50
102
RTVSPost2010PropOp37
 70
     1
102
RTVSPost2010Prop38
140
0.0
102
RTVSPost2010PropOp38
 70
     1
102
RTVSPost2010Prop39
140
1.0
102
RTVSPost2010PropOp39
 70
     1
102
RTVSPost2010Prop40
 90
        0
102
RTVSPost2010PropOp40
 70
     1
102
RTVSPost2010Prop41ColorIndex
 90
       18
102
RTVSPost2010Prop41ColorRGB
 90
        0
102
RTVSPost2010PropOp41
 70
     1
102
RTVSPost2010Prop42
 90
       50
102
RTVSPost2010PropOp42
 70
     1
102
RTVSPost2010Prop43
 90
        3
102
RTVSPost2010PropOp43
 70
     1
102
RTVSPost2010Prop44ColorIndex
 90
        5
102
RTVSPost2010Prop44ColorRGB
 90
      255
102
RTVSPost2010PropOp44
 70
     1
102
RTVSPost2010Prop45
280
     0
102
RTVSPost2010PropOp45
 70
     1
102
RTVSPost2010Prop46
 90
       50
102
RTVSPost2010PropOp46
 70
     1
102
RTVSPost2010Prop47
 90
       50
102
RTVSPost2010PropOp47
 70
     1
102
RTVSPost2010Prop48
 90
       50
102
RTVSPost2010PropOp48
 70
     1
102
RTVSPost2010Prop49
280
     0
102
RTVSPost2010PropOp49
 70
     1
102
RTVSPost2010Prop50
 90
       50
102
RTVSPost2010PropOp50
 70
     1
102
RTVSPost2010Prop51ColorIndex
 90
      256
102
RTVSPost2010Prop51ColorRGB
 90
-16777216
102
RTVSPost2010PropOp51
 70
     0
102
RTVSPost2010Prop52
140
1.0
102
RTVSPost2010PropOp52
 70
     0
102
RTVSPost2010Prop53
 90
        2
102
RTVSPost2010PropOp53
 70
     1
102
RTVSPost2010Prop54
  1
strokes_ogs.tif
102
RTVSPost2010PropOp54
 70
     1
102
RTVSPost2010Prop55
280
     0
102
RTVSPost2010PropOp55
 70
     1
102
RTVSPost2010Prop56
140
1.0
102
RTVSPost2010PropOp56
 70
     1
102
RTVSPost2010Prop57
140
1.0
102
RTVSPost2010PropOp57
 70
     1
  0
XRECORD
  5
324
102
{ACAD_REACTORS
330
323
102
}
330
323
100
AcDbXrecord
280
     1
102
RTVSPropertyOp0
 70
     1
102
RTVSPropertyOp1
 70
     1
102
RTVSPropertyOp2
 70
     1
102
RTVSPropertyOp3
 70
     1
102
RTVSPropertyOp4
 70
     1
102
RTVSPropertyOp5
 70
     1
102
RTVSPropertyOp6
 70
     1
102
RTVSPropertyOp7
 70
     1
102
RTVSPropertyOp8
 70
     1
102
RTVSPropertyOp9
 70
     1
102
RTVSPropertyOp10
 70
     1
102
RTVSPropertyOp11
 70
     1
102
RTVSPropertyOp12
 70
     1
102
RTVSPropertyOp13
 70
     1
102
RTVSPropertyOp14
 70
     1
102
RTVSPropertyOp15
 70
     1
102
RTVSPropertyOp16
 70
     1
102
RTVSPropertyOp17
 70
     1
102
RTVSPropertyOp18
 70
     1
102
RTVSPropertyOp19
 70
     1
102
RTVSPropertyOp20
 70
     1
102
RTVSPropertyOp21
 70
     1
102
RTVSPropertyOp22
 70
     1
102
RTVSPropertyOp23
 70
     1
102
RTVSPropertyOp24
 70
     1
102
RTVSPropertyOp25
 70
     1
102
RTVSPropertyOp26
 70
     1
102
RTVSPropertyOp27
 70
     1
102
RTVSPropertyOp28
 70
     1
102
RTVSPropertyOp29
 70
     1
102
RTVSPropertyOp30
 70
     1
102
RTVSPropertyOp31
 70
     1
102
RTVSPropertyOp32
 70
     1
102
RTVSPropertyOp33
 70
     1
102
RTVSPropertyOp34
 70
     1
102
RTVSPropertyOp35
 70
     1
102
RTVSPropertyOp36
 70
     1
102
RTVSPropertyOp37
 70
     1
102
RTVSPropertyOp38
 70
     1
102
RTVSPropertyOp39
 70
     1
102
RTVSPropertyOp40
 70
     1
102
RTVSPropertyOp41
 70
     1
102
RTVSPropertyOp42
 70
     1
102
RTVSPropertyOp43
 70
     1
102
RTVSPropertyOp44
 70
     1
102
RTVSPropertyOp45
 70
     1
102
RTVSPropertyOp46
 70
     1
102
RTVSPropertyOp47
 70
     1
102
RTVSPropertyOp48
 70
     1
102
RTVSPropertyOp49
 70
     1
102
RTVSPropertyOp50
 70
     1
102
RTVSPropertyOp51
 70
     0
102
RTVSPropertyOp52
 70
     0
102
RTVSPropertyOp53
 70
     1
102
RTVSPropertyOp54
 70
     1
102
RTVSPropertyOp55
 70
     1
102
RTVSPropertyOp56
 70
     1
102
RTVSPropertyOp57
 70
     1
102
RTVSPost2010Prop28
280
     0
102
RTVSPost2010PropOp28
 70
     1
102
RTVSPost2010Prop29
280
     1
102
RTVSPost2010PropOp29
 70
     1
102
RTVSPost2010Prop30
280
     1
102
RTVSPost2010PropOp30
 70
     1
102
RTVSPost2010Prop31
280
     0
102
RTVSPost2010PropOp31
 70
     1
102
RTVSPost2010Prop32
280
     0
102
RTVSPost2010PropOp32
 70
     1
102
RTVSPost2010Prop33
280
     0
102
RTVSPost2010PropOp33
 70
     1
102
RTVSPost2010Prop34
280
     0
102
RTVSPost2010PropOp34
 70
     1
102
RTVSPost2010Prop35
280
     0
102
RTVSPost2010PropOp35
 70
     1
102
RTVSPost2010Prop36
280
     0
102
RTVSPost2010PropOp36
 70
     1
102
RTVSPost2010Prop37
 90
       50
102
RTVSPost2010PropOp37
 70
     1
102
RTVSPost2010Prop38
140
0.0
102
RTVSPost2010PropOp38
 70
     1
102
RTVSPost2010Prop39
140
1.0
102
RTVSPost2010PropOp39
 70
     1
102
RTVSPost2010Prop40
 90
        0
102
RTVSPost2010PropOp40
 70
     1
102
RTVSPost2010Prop41ColorIndex
 90
       18
102
RTVSPost2010Prop41ColorRGB
 90
        0
102
RTVSPost2010PropOp41
 70
     1
102
RTVSPost2010Prop42
 90
       50
102
RTVSPost2010PropOp42
 70
     1
102
RTVSPost2010Prop43
 90
        3
102
RTVSPost2010PropOp43
 70
     1
102
RTVSPost2010Prop44ColorIndex
 90
        5
102
RTVSPost2010Prop44ColorRGB
 90
      255
102
RTVSPost2010PropOp44
 70
     1
102
RTVSPost2010Prop45
280
     0
102
RTVSPost2010PropOp45
 70
     1
102
RTVSPost2010Prop46
 90
       50
102
RTVSPost2010PropOp46
 70
     1
102
RTVSPost2010Prop47
 90
       50
102
RTVSPost2010PropOp47
 70
     1
102
RTVSPost2010Prop48
 90
       50
102
RTVSPost2010PropOp48
 70
     1
102
RTVSPost2010Prop49
280
     0
102
RTVSPost2010PropOp49
 70
     1
102
RTVSPost2010Prop50
 90
       50
102
RTVSPost2010PropOp50
 70
     1
102
RTVSPost2010Prop51ColorIndex
 90
      256
102
RTVSPost2010Prop51ColorRGB
 90
-16777216
102
RTVSPost2010PropOp51
 70
     0
102
RTVSPost2010Prop52
140
1.0
102
RTVSPost2010PropOp52
 70
     0
102
RTVSPost2010Prop53
 90
        2
102
RTVSPost2010PropOp53
 70
     1
102
RTVSPost2010Prop54
  1
strokes_ogs.tif
102
RTVSPost2010PropOp54
 70
     1
102
RTVSPost2010Prop55
280
     0
102
RTVSPost2010PropOp55
 70
     1
102
RTVSPost2010Prop56
140
1.0
102
RTVSPost2010PropOp56
 70
     1
102
RTVSPost2010Prop57
140
1.0
102
RTVSPost2010PropOp57
 70
     1
  0
ENDSEC
  0
EOF
