  0
SECTION
  2
HEADER
  9
$ACADVER
  1
AC1009
  9
$DWGCODEPAGE
  3
ansi_1252
  9
$INSBASE
 10
0.0
 20
0.0
 30
0.0
  9
$EXTMIN
 10
1.000000000000000E+20
 20
1.000000000000000E+20
 30
1.000000000000000E+20
  9
$EXTMAX
 10
-1.000000000000000E+20
 20
-1.000000000000000E+20
 30
-1.000000000000000E+20
  9
$LIMMIN
 10
0.0
 20
0.0
  9
$LIMMAX
 10
12.0
 20
9.0
  9
$ORTHOMODE
 70
     0
  9
$REGENMODE
 70
     1
  9
$FILLMODE
 70
     1
  9
$QTEXTMODE
 70
     0
  9
$MIRRTEXT
 70
     1
  9
$DRAGMODE
 70
     2
  9
$LTSCALE
 40
1.0
  9
$OSMODE
 70
    37
  9
$ATTMODE
 70
     1
  9
$TEXTSIZE
 40
0.2
  9
$TRACEWID
 40
0.05
  9
$TEXTSTYLE
  7
STANDARD
  9
$CLAYER
  8
FISHER_AND_PAYKEL
  9
$CELTYPE
  6
BYLAYER
  9
$CECOLOR
 62
   256
  9
$DIMSCALE
 40
1.0
  9
$DIMASZ
 40
0.18
  9
$DIMEXO
 40
0.0625
  9
$DIMDLI
 40
0.38
  9
$DIMRND
 40
0.0
  9
$DIMDLE
 40
0.0
  9
$DIMEXE
 40
0.18
  9
$DIMTP
 40
0.0
  9
$DIMTM
 40
0.0
  9
$DIMTXT
 40
0.18
  9
$DIMCEN
 40
0.09
  9
$DIMTSZ
 40
0.0
  9
$DIMTOL
 70
     0
  9
$DIMLIM
 70
     0
  9
$DIMTIH
 70
     1
  9
$DIMTOH
 70
     1
  9
$DIMSE1
 70
     0
  9
$DIMSE2
 70
     0
  9
$DIMTAD
 70
     0
  9
$DIMZIN
 70
     0
  9
$DIMBLK
  1

  9
$DIMASO
 70
     1
  9
$DIMSHO
 70
     1
  9
$DIMPOST
  1

  9
$DIMAPOST
  1

  9
$DIMALT
 70
     0
  9
$DIMALTD
 70
     2
  9
$DIMALTF
 40
25.4
  9
$DIMLFAC
 40
1.0
  9
$DIMTOFL
 70
     0
  9
$DIMTVP
 40
0.0
  9
$DIMTIX
 70
     0
  9
$DIMSOXD
 70
     0
  9
$DIMSAH
 70
     0
  9
$DIMBLK1
  1

  9
$DIMBLK2
  1

  9
$DIMSTYLE
  2
STANDARD_ACAD
  9
$DIMCLRD
 70
     0
  9
$DIMCLRE
 70
     0
  9
$DIMCLRT
 70
     0
  9
$DIMTFAC
 40
1.0
  9
$DIMGAP
 40
0.09
  9
$LUNITS
 70
     2
  9
$LUPREC
 70
     3
  9
$SKETCHINC
 40
0.1
  9
$FILLETRAD
 40
0.5
  9
$AUNITS
 70
     0
  9
$AUPREC
 70
     0
  9
$MENU
  1
.
  9
$ELEVATION
 40
0.0
  9
$PELEVATION
 40
0.0
  9
$THICKNESS
 40
0.0
  9
$LIMCHECK
 70
     0
  9
$CHAMFERA
 40
0.0
  9
$CHAMFERB
 40
0.0
  9
$SKPOLY
 70
     0
  9
$TDCREATE
 40
2458834.664893819
  9
$TDUPDATE
 40
2458834.66491272
  9
$TDINDWG
 40
0.0000000116
  9
$TDUSRTIMER
 40
0.0000000116
  9
$USRTIMER
 70
     1
  9
$ANGBASE
 50
0.0
  9
$ANGDIR
 70
     0
  9
$PDMODE
 70
     0
  9
$PDSIZE
 40
0.0
  9
$PLINEWID
 40
0.0
  9
$COORDS
 70
     1
  9
$SPLFRAME
 70
     0
  9
$SPLINETYPE
 70
     6
  9
$SPLINESEGS
 70
     8
  9
$ATTDIA
 70
     0
  9
$ATTREQ
 70
     1
  9
$HANDLING
 70
     1
  9
$HANDSEED
  5
180
  9
$SURFTAB1
 70
     6
  9
$SURFTAB2
 70
     6
  9
$SURFTYPE
 70
     6
  9
$SURFU
 70
     6
  9
$SURFV
 70
     6
  9
$UCSNAME
  2

  9
$UCSORG
 10
0.0
 20
0.0
 30
0.0
  9
$UCSXDIR
 10
1.0
 20
0.0
 30
0.0
  9
$UCSYDIR
 10
0.0
 20
1.0
 30
0.0
  9
$PUCSNAME
  2

  9
$PUCSORG
 10
0.0
 20
0.0
 30
0.0
  9
$PUCSXDIR
 10
1.0
 20
0.0
 30
0.0
  9
$PUCSYDIR
 10
0.0
 20
1.0
 30
0.0
  9
$USERI1
 70
     0
  9
$USERI2
 70
     0
  9
$USERI3
 70
     0
  9
$USERI4
 70
     0
  9
$USERI5
 70
     0
  9
$USERR1
 40
0.0
  9
$USERR2
 40
0.0
  9
$USERR3
 40
0.0
  9
$USERR4
 40
0.0
  9
$USERR5
 40
0.0
  9
$WORLDVIEW
 70
     1
  9
$SHADEDGE
 70
     3
  9
$SHADEDIF
 70
    70
  9
$TILEMODE
 70
     1
  9
$MAXACTVP
 70
    64
  9
$PLIMCHECK
 70
     0
  9
$PEXTMIN
 10
1.000000000000000E+20
 20
1.000000000000000E+20
 30
1.000000000000000E+20
  9
$PEXTMAX
 10
-1.000000000000000E+20
 20
-1.000000000000000E+20
 30
-1.000000000000000E+20
  9
$PLIMMIN
 10
0.0
 20
0.0
  9
$PLIMMAX
 10
12.0
 20
9.0
  9
$UNITMODE
 70
     0
  9
$VISRETAIN
 70
     1
  9
$PLINEGEN
 70
     0
  9
$PSLTSCALE
 70
     1
  0
ENDSEC
  0
SECTION
  2
TABLES
  0
TABLE
  2
VPORT
 70
     1
  0
VPORT
  2
*ACTIVE
 70
     0
 10
0.0
 20
0.0
 11
1.0
 21
1.0
 12
10.42990654205607
 22
4.5
 13
0.0
 23
0.0
 14
0.5
 24
0.5
 15
0.5
 25
0.5
 16
0.0
 26
0.0
 36
1.0
 17
0.0
 27
0.0
 37
0.0
 40
9.0
 41
1.972972972850329
 42
50.0
 43
0.0
 44
0.0
 50
0.0
 51
0.0
 71
     0
 72
   100
 73
     1
 74
     3
 75
     0
 76
     0
 77
     0
 78
     0
  0
ENDTAB
  0
TABLE
  2
LTYPE
 70
     2
  0
LTYPE
  2
CONTINUOUS
 70
     0
  3
Solid line
 72
    65
 73
     0
 40
0.0
  0
LTYPE
  2
DASHED
 70
     0
  3

 72
    65
 73
     2
 40
10.0
 49
5.0
 49
-5.0
  0
ENDTAB
  0
TABLE
  2
LAYER
 70
     4
  0
LAYER
  2
0
 70
     0
 62
     7
  6
CONTINUOUS
  0
LAYER
  2
FISHER_AND_PAYKEL
 70
     0
 62
     7
  6
CONTINUOUS
  0
LAYER
  2
UNIVERSAL_NOTES
 70
     0
 62
     7
  6
CONTINUOUS
  0
LAYER
  2
STANDARD_FRIDGE
 70
     0
 62
     7
  6
CONTINUOUS
  0
ENDTAB
  0
TABLE
  2
STYLE
 70
     2
  0
STYLE
  2
STANDARD
 70
     0
 40
0.0
 41
1.0
 50
0.0
 71
     0
 42
0.2
  3
txt
  4

  0
STYLE
  2
ARIAL_REGULAR
 70
     0
 40
0.0
 41
1.0
 50
0.0
 71
     0
 42
0.2
  3

  4

  0
ENDTAB
  0
TABLE
  2
VIEW
 70
     0
  0
ENDTAB
  0
TABLE
  2
UCS
 70
     0
  0
ENDTAB
  0
TABLE
  2
APPID
 70
     1
  0
APPID
  2
ACAD
 70
     0
  0
ENDTAB
  0
TABLE
  2
DIMSTYLE
 70
     1
  0
DIMSTYLE
  2
STANDARD_ACAD
 70
     0
  3

  4

  5

  6

  7

 40
1.0
 41
0.18
 42
0.0625
 43
0.38
 44
0.18
 45
0.0
 46
0.0
 47
0.0
 48
0.0
140
0.18
141
0.09
142
0.0
143
25.4
144
1.0
145
0.0
146
1.0
147
0.09
 71
     0
 72
     0
 73
     1
 74
     1
 75
     0
 76
     0
 77
     0
 78
     0
170
     0
171
     2
172
     0
173
     0
174
     0
175
     0
176
     0
177
     0
178
     0
  0
ENDTAB
  0
ENDSEC
  0
SECTION
  2
BLOCKS
  0
BLOCK
  8
0
  2
$MODEL_SPACE
 70
     0
 10
0.0
 20
0.0
 30
0.0
  3
$MODEL_SPACE
  1

  0
ENDBLK
  5
21
  8
0
  0
BLOCK
 67
     1
  8
0
  2
$PAPER_SPACE
 70
     0
 10
0.0
 20
0.0
 30
0.0
  3
$PAPER_SPACE
  1

  0
ENDBLK
  5
1D
 67
     1
  8
0
  0
BLOCK
  8
0
  2
_X3
 70
     0
 10
0.0
 20
0.0
 30
0.0
  3
_X3
  1

  0
TEXT
  5
74
  8
FISHER_AND_PAYKEL
  6
CONTINUOUS
 10
445.397216040843
 20
2065.505331732784
 30
0.0
 40
12.0
  1
(do not penetrate front surface)
  7
ARIAL_REGULAR
  0
ENDBLK
  5
76
  8
0
  0
BLOCK
  8
0
  2
_X1
 70
     0
 10
0.0
 20
0.0
 30
0.0
  3
_X1
  1

  0
TEXT
  5
14A
  8
FISHER_AND_PAYKEL
  6
CONTINUOUS
 10
445.0452821866762
 20
1000.504795822476
 30
0.0
 40
12.0
  1
DO NOT PLACE
  7
ARIAL_REGULAR
  0
TEXT
  5
14B
  8
FISHER_AND_PAYKEL
  6
CONTINUOUS
 10
444.9492821866762
 20
981.2276873887408
 30
0.0
 40
12.0
  1
HANDLE HOLES IN
  7
ARIAL_REGULAR
  0
TEXT
  5
14C
  8
FISHER_AND_PAYKEL
  6
CONTINUOUS
 10
446.8452821866761
 20
961.9505789550059
 30
0.0
 40
12.0
  1
THESE LOCATIONS
  7
ARIAL_REGULAR
  0
ENDBLK
  5
14E
  8
0
  0
BLOCK
  8
0
  2
_X2
 70
     0
 10
0.0
 20
0.0
 30
0.0
  3
_X2
  1

  0
TEXT
  5
175
  8
FISHER_AND_PAYKEL
  6
CONTINUOUS
 10
446.0932160408429
 20
2084.782440166519
 30
0.0
 40
12.0
  1
Ø 3/32" (2.5mm) Pilot Holes recommended.
  7
ARIAL_REGULAR
  0
TEXT
  5
176
  8
FISHER_AND_PAYKEL
  6
CONTINUOUS
 10
445.397216040843
 20
2065.505331732784
 30
0.0
 40
12.0
  1
(do not penetrate front surface)
  7
ARIAL_REGULAR
  0
ENDBLK
  5
178
  8
0
  0
ENDSEC
  0
SECTION
  2
ENTITIES
  0
TEXT
  5
70
  8
FISHER_AND_PAYKEL
  6
CONTINUOUS
 10
446.0932160408429
 20
2084.782440166519
 30
0.0
 40
12.0
  1
Ø 1/16" (2mm) Pilot Holes recommended.
  7
ARIAL_REGULAR
  0
TEXT
  5
72
  8
UNIVERSAL_NOTES
  6
CONTINUOUS
 10
324.008018923611
 20
102.204
 30
0.0
 40
12.0
  1
DOOR LENGTH FOR:
  7
ARIAL_REGULAR
  0
INSERT
  5
77
  8
UNIVERSAL_NOTES
  2
_X3
 10
0.0
 20
0.0
 30
0.0
  0
LINE
  5
79
  8
STANDARD_FRIDGE
 62
     7
 10
372.8829479166661
 20
2095.969402083333
 30
0.0
 11
436.3829611111105
 21
2095.969402083333
 31
0.0
  0
LINE
  5
7A
  8
UNIVERSAL_NOTES
 62
     7
 10
252.5123920138881
 20
1904.030597916667
 30
0.0
 11
372.8829479166661
 21
2095.969402083333
 31
0.0
  0
POLYLINE
  5
7B
  8
UNIVERSAL_NOTES
 62
     7
 66
     1
 10
0.0
 20
0.0
 30
0.0
 70
     1
  0
VERTEX
  5
7C
  8
UNIVERSAL_NOTES
 62
     7
 10
252.5123920138885
 20
1904.030597916667
 30
0.0
  0
VERTEX
  5
7D
  8
UNIVERSAL_NOTES
 62
     7
 10
273.7823343749992
 20
1949.710557638889
 30
0.0
  0
VERTEX
  5
7E
  8
UNIVERSAL_NOTES
 62
     7
 10
284.3721059027775
 20
1943.069295486111
 30
0.0
  0
SEQEND
  5
7F
  8
UNIVERSAL_NOTES
 62
     7
  0
LINE
  5
80
  8
UNIVERSAL_NOTES
 62
     7
 10
372.8829479166661
 20
2095.969402083333
 30
0.0
 11
436.3829611111105
 21
2095.969402083333
 31
0.0
  0
POLYLINE
  5
81
  8
STANDARD_FRIDGE
  6
DASHED
 62
     7
 66
     1
 10
0.0
 20
0.0
 30
0.0
  0
VERTEX
  5
82
  8
STANDARD_FRIDGE
  6
DASHED
 62
     7
 10
-301.5998866319447
 20
1565.799801041667
 30
0.0
  0
VERTEX
  5
83
  8
STANDARD_FRIDGE
  6
DASHED
 62
     7
 10
-241.5998831597222
 20
1565.799801041667
 30
0.0
  0
VERTEX
  5
84
  8
STANDARD_FRIDGE
  6
DASHED
 62
     7
 10
-241.5998831597222
 20
1475.799884027778
 30
0.0
  0
VERTEX
  5
85
  8
STANDARD_FRIDGE
  6
DASHED
 62
     7
 10
-301.5998866319447
 20
1475.799884027778
 30
0.0
  0
SEQEND
  5
87
  8
STANDARD_FRIDGE
  6
DASHED
 62
     7
  0
POLYLINE
  5
88
  8
STANDARD_FRIDGE
  6
DASHED
 62
     7
 66
     1
 10
0.0
 20
0.0
 30
0.0
  0
VERTEX
  5
89
  8
STANDARD_FRIDGE
  6
DASHED
 62
     7
 10
-301.5998866319447
 20
803.7998451388892
 30
0.0
  0
VERTEX
  5
8A
  8
STANDARD_FRIDGE
  6
DASHED
 62
     7
 10
-241.5998831597222
 20
803.7998451388892
 30
0.0
  0
VERTEX
  5
8B
  8
STANDARD_FRIDGE
  6
DASHED
 62
     7
 10
-241.5998831597222
 20
713.7999722222224
 30
0.0
  0
VERTEX
  5
8C
  8
STANDARD_FRIDGE
  6
DASHED
 62
     7
 10
-301.5998866319447
 20
713.7999722222224
 30
0.0
  0
SEQEND
  5
8D
  8
STANDARD_FRIDGE
  6
DASHED
 62
     7
  0
POLYLINE
  5
8E
  8
STANDARD_FRIDGE
  6
DASHED
 62
     7
 66
     1
 10
0.0
 20
0.0
 30
0.0
  0
VERTEX
  5
8F
  8
STANDARD_FRIDGE
  6
DASHED
 62
     7
 10
-301.5998866319447
 20
295.7999333333336
 30
0.0
  0
VERTEX
  5
90
  8
STANDARD_FRIDGE
  6
DASHED
 62
     7
 10
-241.5998831597222
 20
295.7999333333336
 30
0.0
  0
VERTEX
  5
91
  8
STANDARD_FRIDGE
  6
DASHED
 62
     7
 10
-241.5998831597222
 20
205.799884027778
 30
0.0
  0
VERTEX
  5
92
  8
STANDARD_FRIDGE
  6
DASHED
 62
     7
 10
-301.5998866319447
 20
205.799884027778
 30
0.0
  0
SEQEND
  5
93
  8
STANDARD_FRIDGE
  6
DASHED
 62
     7
  0
POLYLINE
  5
94
  8
STANDARD_FRIDGE
  6
DASHED
 66
     1
 10
0.0
 20
0.0
 30
0.0
  0
VERTEX
  5
95
  8
STANDARD_FRIDGE
  6
DASHED
 10
-301.6000189236111
 20
0.0
 30
0.0
  0
VERTEX
  5
96
  8
STANDARD_FRIDGE
  6
DASHED
 10
-301.6000189236111
 20
-50.8
 30
0.0
  0
VERTEX
  5
97
  8
STANDARD_FRIDGE
  6
DASHED
 10
301.6000189236111
 20
-50.8
 30
0.0
  0
VERTEX
  5
98
  8
STANDARD_FRIDGE
  6
DASHED
 10
301.6000189236111
 20
0.0
 30
0.0
  0
SEQEND
  5
99
  8
STANDARD_FRIDGE
  6
DASHED
  0
LINE
  5
9A
  8
STANDARD_FRIDGE
 62
     7
 10
-301.6000189236111
 20
0.0
 30
0.0
 11
301.6000189236111
 21
0.0
 31
0.0
  0
LINE
  5
9B
  8
STANDARD_FRIDGE
 62
     7
 10
268.9999567708332
 20
225.8000027777776
 30
0.0
 11
230.4999508680555
 21
225.8000027777776
 31
0.0
  0
LINE
  5
9C
  8
STANDARD_FRIDGE
 62
     7
 10
-269.0000008680555
 20
225.8000027777776
 30
0.0
 11
-307.5000067708332
 21
225.8000027777776
 31
0.0
  0
LINE
  5
9D
  8
STANDARD_FRIDGE
 62
     7
 10
-269.0000008680555
 20
225.8000027777776
 30
0.0
 11
-230.4999949652777
 21
225.8000027777776
 31
0.0
  0
LINE
  5
9E
  8
STANDARD_FRIDGE
 62
     7
 10
268.9999567708332
 20
225.8000027777776
 30
0.0
 11
307.5000067708333
 21
225.8000027777776
 31
0.0
  0
LINE
  5
9F
  8
STANDARD_FRIDGE
 62
     7
 10
268.9999567708332
 20
275.7999468749999
 30
0.0
 11
230.4999508680555
 21
275.7999468749999
 31
0.0
  0
LINE
  5
A0
  8
STANDARD_FRIDGE
 62
     7
 10
-269.0000008680555
 20
275.7999468749999
 30
0.0
 11
-307.5000067708332
 21
275.7999468749999
 31
0.0
  0
LINE
  5
A1
  8
STANDARD_FRIDGE
 62
     7
 10
-269.0000008680555
 20
275.7999468749999
 30
0.0
 11
-230.4999949652777
 21
275.7999468749999
 31
0.0
  0
LINE
  5
A2
  8
STANDARD_FRIDGE
 62
     7
 10
268.9999567708332
 20
275.7999468749999
 30
0.0
 11
307.5000067708333
 21
275.7999468749999
 31
0.0
  0
LINE
  5
A3
  8
STANDARD_FRIDGE
 62
     7
 10
-301.6000189236111
 20
0.0
 30
0.0
 11
-301.6000189236111
 21
2028.799908680555
 31
0.0
  0
LINE
  5
A4
  8
STANDARD_FRIDGE
 62
     7
 10
268.9999567708332
 20
733.7999586805554
 30
0.0
 11
230.4999508680555
 21
733.7999586805554
 31
0.0
  0
LINE
  5
A5
  8
STANDARD_FRIDGE
 62
     7
 10
-269.0000008680555
 20
733.7999586805554
 30
0.0
 11
-307.5000067708332
 21
733.7999586805554
 31
0.0
  0
LINE
  5
A6
  8
STANDARD_FRIDGE
 62
     7
 10
-269.0000008680555
 20
733.7999586805554
 30
0.0
 11
-230.4999949652777
 21
733.7999586805554
 31
0.0
  0
LINE
  5
A7
  8
STANDARD_FRIDGE
 62
     7
 10
268.9999567708332
 20
733.7999586805554
 30
0.0
 11
307.5000067708333
 21
733.7999586805554
 31
0.0
  0
LINE
  5
A8
  8
STANDARD_FRIDGE
 62
     7
 10
-269.0000008680555
 20
1545.800211458333
 30
0.0
 11
-269.0000008680555
 21
1507.300161458333
 31
0.0
  0
LINE
  5
A9
  8
STANDARD_FRIDGE
 62
     7
 10
-269.0000008680555
 20
1495.800002777778
 30
0.0
 11
-269.0000008680555
 21
1457.299996875
 31
0.0
  0
LINE
  5
AA
  8
STANDARD_FRIDGE
 62
     7
 10
-269.0000008680555
 20
783.7999909722223
 30
0.0
 11
-269.0000008680555
 21
745.2999409722219
 31
0.0
  0
LINE
  5
AB
  8
STANDARD_FRIDGE
 62
     7
 10
-269.0000008680555
 20
733.7999586805554
 30
0.0
 11
-269.0000008680555
 21
695.2999086805553
 31
0.0
  0
LINE
  5
AC
  8
STANDARD_FRIDGE
 62
     7
 10
-269.0000008680555
 20
275.7999468749999
 30
0.0
 11
-269.0000008680555
 21
237.299896875
 31
0.0
  0
LINE
  5
AD
  8
STANDARD_FRIDGE
 62
     7
 10
-269.0000008680555
 20
225.8000027777776
 30
0.0
 11
-269.0000008680555
 21
187.2999968749999
 31
0.0
  0
LINE
  5
AE
  8
STANDARD_FRIDGE
 62
     7
 10
-269.0000008680555
 20
225.8000027777776
 30
0.0
 11
-269.0000008680555
 21
237.299896875
 31
0.0
  0
LINE
  5
AF
  8
STANDARD_FRIDGE
 62
     7
 10
-269.0000008680555
 20
275.7999468749999
 30
0.0
 11
-269.0000008680555
 21
314.3000850694444
 31
0.0
  0
LINE
  5
B0
  8
STANDARD_FRIDGE
 62
     7
 10
-269.0000008680555
 20
733.7999586805554
 30
0.0
 11
-269.0000008680555
 21
745.2999409722219
 31
0.0
  0
LINE
  5
B1
  8
STANDARD_FRIDGE
 62
     7
 10
-269.0000008680555
 20
783.7999909722223
 30
0.0
 11
-269.0000008680555
 21
822.2999968749997
 31
0.0
  0
LINE
  5
B2
  8
STANDARD_FRIDGE
 62
     7
 10
-269.0000008680555
 20
1495.800002777778
 30
0.0
 11
-269.0000008680555
 21
1507.300161458333
 31
0.0
  0
LINE
  5
B3
  8
STANDARD_FRIDGE
 62
     7
 10
-269.0000008680555
 20
1545.800211458333
 30
0.0
 11
-269.0000008680555
 21
1584.300217361111
 31
0.0
  0
LINE
  5
B4
  8
STANDARD_FRIDGE
 62
     7
 10
-250.8000630208333
 20
1901.799952777777
 30
0.0
 11
-250.8000630208333
 21
1863.299946875
 31
0.0
  0
LINE
  5
B5
  8
STANDARD_FRIDGE
 62
     7
 10
-250.8000630208333
 20
1851.800052777778
 30
0.0
 11
-250.8000630208333
 21
1813.300002777778
 31
0.0
  0
LINE
  5
B6
  8
STANDARD_FRIDGE
 62
     7
 10
-250.8000630208333
 20
1851.800052777778
 30
0.0
 11
-250.8000630208333
 21
1863.299946875
 31
0.0
  0
LINE
  5
B7
  8
STANDARD_FRIDGE
 62
     7
 10
-250.8000630208333
 20
1901.799952777777
 30
0.0
 11
-250.8000630208333
 21
1940.299958680556
 31
0.0
  0
LINE
  5
B8
  8
STANDARD_FRIDGE
 62
     7
 10
268.9999567708332
 20
783.7999909722223
 30
0.0
 11
230.4999508680555
 21
783.7999909722223
 31
0.0
  0
LINE
  5
B9
  8
STANDARD_FRIDGE
 62
     7
 10
-269.0000008680555
 20
783.7999909722223
 30
0.0
 11
-307.5000067708332
 21
783.7999909722223
 31
0.0
  0
LINE
  5
BA
  8
STANDARD_FRIDGE
 62
     7
 10
-269.0000008680555
 20
783.7999909722223
 30
0.0
 11
-230.4999949652777
 21
783.7999909722223
 31
0.0
  0
LINE
  5
BB
  8
STANDARD_FRIDGE
 62
     7
 10
268.9999567708332
 20
783.7999909722223
 30
0.0
 11
307.5000067708333
 21
783.7999909722223
 31
0.0
  0
LINE
  5
BC
  8
STANDARD_FRIDGE
 62
     7
 10
-98.40006302083322
 20
1901.799952777777
 30
0.0
 11
-98.40006302083322
 21
1863.299946875
 31
0.0
  0
LINE
  5
BD
  8
STANDARD_FRIDGE
 62
     7
 10
-98.40006302083322
 20
1851.800052777778
 30
0.0
 11
-98.40006302083322
 21
1813.300002777778
 31
0.0
  0
LINE
  5
BE
  8
STANDARD_FRIDGE
 62
     7
 10
-98.40006302083322
 20
1851.800052777778
 30
0.0
 11
-98.40006302083322
 21
1863.299946875
 31
0.0
  0
LINE
  5
BF
  8
STANDARD_FRIDGE
 62
     7
 10
-98.40006302083322
 20
1901.799952777777
 30
0.0
 11
-98.40006302083322
 21
1940.299958680556
 31
0.0
  0
LINE
  5
C0
  8
STANDARD_FRIDGE
 62
     7
 10
0.0000661458331592
 20
1901.799952777777
 30
0.0
 11
0.0000661458331592
 21
1863.299946875
 31
0.0
  0
LINE
  5
C1
  8
STANDARD_FRIDGE
 62
     7
 10
0.0000661458331592
 20
1851.800052777778
 30
0.0
 11
0.0000661458331592
 21
1813.300002777778
 31
0.0
  0
LINE
  5
C2
  8
STANDARD_FRIDGE
 62
     7
 10
0.0000661458331592
 20
1851.800052777778
 30
0.0
 11
0.0000661458331592
 21
1863.299946875
 31
0.0
  0
LINE
  5
C3
  8
STANDARD_FRIDGE
 62
     7
 10
0.0000661458331592
 20
1901.799952777777
 30
0.0
 11
0.0000661458331592
 21
1940.299958680556
 31
0.0
  0
LINE
  5
C4
  8
STANDARD_FRIDGE
 62
     7
 10
98.40006302083333
 20
1901.799952777777
 30
0.0
 11
98.40006302083333
 21
1863.299946875
 31
0.0
  0
LINE
  5
C5
  8
STANDARD_FRIDGE
 62
     7
 10
98.40006302083333
 20
1851.800052777778
 30
0.0
 11
98.40006302083333
 21
1813.300002777778
 31
0.0
  0
LINE
  5
C6
  8
STANDARD_FRIDGE
 62
     7
 10
98.40006302083333
 20
1851.800052777778
 30
0.0
 11
98.40006302083333
 21
1863.299946875
 31
0.0
  0
LINE
  5
C7
  8
STANDARD_FRIDGE
 62
     7
 10
98.40006302083333
 20
1901.799952777777
 30
0.0
 11
98.40006302083333
 21
1940.299958680556
 31
0.0
  0
LINE
  5
C8
  8
STANDARD_FRIDGE
 62
     7
 10
250.8000630208334
 20
1901.799952777777
 30
0.0
 11
250.8000630208334
 21
1863.299946875
 31
0.0
  0
LINE
  5
C9
  8
STANDARD_FRIDGE
 62
     7
 10
250.8000630208334
 20
1851.800052777778
 30
0.0
 11
250.8000630208334
 21
1813.300002777778
 31
0.0
  0
LINE
  5
CA
  8
STANDARD_FRIDGE
 62
     7
 10
250.8000630208334
 20
1851.800052777778
 30
0.0
 11
250.8000630208334
 21
1863.299946875
 31
0.0
  0
LINE
  5
CB
  8
STANDARD_FRIDGE
 62
     7
 10
250.8000630208334
 20
1901.799952777777
 30
0.0
 11
250.8000630208334
 21
1940.299958680556
 31
0.0
  0
LINE
  5
CC
  8
STANDARD_FRIDGE
 62
     7
 10
268.9999567708332
 20
1545.800211458333
 30
0.0
 11
268.9999567708332
 21
1507.300161458333
 31
0.0
  0
LINE
  5
CD
  8
STANDARD_FRIDGE
 62
     7
 10
268.9999567708332
 20
1495.800002777778
 30
0.0
 11
268.9999567708332
 21
1457.299996875
 31
0.0
  0
LINE
  5
CE
  8
STANDARD_FRIDGE
 62
     7
 10
268.9999567708332
 20
783.7999909722223
 30
0.0
 11
268.9999567708332
 21
745.2999409722219
 31
0.0
  0
LINE
  5
CF
  8
STANDARD_FRIDGE
 62
     7
 10
268.9999567708332
 20
733.7999586805554
 30
0.0
 11
268.9999567708332
 21
695.2999086805553
 31
0.0
  0
LINE
  5
D0
  8
STANDARD_FRIDGE
 62
     7
 10
268.9999567708332
 20
275.7999468749999
 30
0.0
 11
268.9999567708332
 21
237.299896875
 31
0.0
  0
LINE
  5
D1
  8
STANDARD_FRIDGE
 62
     7
 10
268.9999567708332
 20
225.8000027777776
 30
0.0
 11
268.9999567708332
 21
187.2999968749999
 31
0.0
  0
LINE
  5
D2
  8
STANDARD_FRIDGE
 62
     7
 10
268.9999567708332
 20
225.8000027777776
 30
0.0
 11
268.9999567708332
 21
237.299896875
 31
0.0
  0
LINE
  5
D3
  8
STANDARD_FRIDGE
 62
     7
 10
268.9999567708332
 20
275.7999468749999
 30
0.0
 11
268.9999567708332
 21
314.3000850694444
 31
0.0
  0
LINE
  5
D4
  8
STANDARD_FRIDGE
 62
     7
 10
268.9999567708332
 20
733.7999586805554
 30
0.0
 11
268.9999567708332
 21
745.2999409722219
 31
0.0
  0
LINE
  5
D5
  8
STANDARD_FRIDGE
 62
     7
 10
268.9999567708332
 20
783.7999909722223
 30
0.0
 11
268.9999567708332
 21
822.2999968749997
 31
0.0
  0
LINE
  5
D6
  8
STANDARD_FRIDGE
 62
     7
 10
268.9999567708332
 20
1495.800002777778
 30
0.0
 11
268.9999567708332
 21
1507.300161458333
 31
0.0
  0
LINE
  5
D7
  8
STANDARD_FRIDGE
 62
     7
 10
268.9999567708332
 20
1545.800211458333
 30
0.0
 11
268.9999567708332
 21
1584.300217361111
 31
0.0
  0
LINE
  5
D8
  8
STANDARD_FRIDGE
 62
     7
 10
301.6000189236111
 20
0.0
 30
0.0
 11
301.6000189236111
 21
2028.799908680555
 31
0.0
  0
LINE
  5
D9
  8
STANDARD_FRIDGE
 62
     7
 10
268.9999567708332
 20
1495.800002777778
 30
0.0
 11
230.4999508680555
 21
1495.800002777778
 31
0.0
  0
LINE
  5
DA
  8
STANDARD_FRIDGE
 62
     7
 10
-269.0000008680555
 20
1495.800002777778
 30
0.0
 11
-307.5000067708332
 21
1495.800002777778
 31
0.0
  0
LINE
  5
DB
  8
STANDARD_FRIDGE
 62
     7
 10
-269.0000008680555
 20
1495.800002777778
 30
0.0
 11
-230.4999949652777
 21
1495.800002777778
 31
0.0
  0
LINE
  5
DC
  8
STANDARD_FRIDGE
 62
     7
 10
268.9999567708332
 20
1495.800002777778
 30
0.0
 11
307.5000067708333
 21
1495.800002777778
 31
0.0
  0
LINE
  5
DD
  8
STANDARD_FRIDGE
 62
     7
 10
268.9999567708332
 20
1545.800211458333
 30
0.0
 11
230.4999508680555
 21
1545.800211458333
 31
0.0
  0
LINE
  5
DE
  8
STANDARD_FRIDGE
 62
     7
 10
-269.0000008680555
 20
1545.800211458333
 30
0.0
 11
-307.5000067708332
 21
1545.800211458333
 31
0.0
  0
LINE
  5
DF
  8
STANDARD_FRIDGE
 62
     7
 10
-269.0000008680555
 20
1545.800211458333
 30
0.0
 11
-230.4999949652777
 21
1545.800211458333
 31
0.0
  0
LINE
  5
E0
  8
STANDARD_FRIDGE
 62
     7
 10
268.9999567708332
 20
1545.800211458333
 30
0.0
 11
307.5000067708333
 21
1545.800211458333
 31
0.0
  0
LINE
  5
E1
  8
STANDARD_FRIDGE
 62
     7
 10
250.8000630208334
 20
1851.800052777778
 30
0.0
 11
212.3000130208334
 21
1851.800052777778
 31
0.0
  0
LINE
  5
E2
  8
STANDARD_FRIDGE
 62
     7
 10
98.40006302083333
 20
1851.800052777778
 30
0.0
 11
59.90005711805537
 21
1851.800052777778
 31
0.0
  0
LINE
  5
E3
  8
STANDARD_FRIDGE
 62
     7
 10
0.0000661458331592
 20
1851.800052777778
 30
0.0
 11
-38.49998385416649
 21
1851.800052777778
 31
0.0
  0
LINE
  5
E4
  8
STANDARD_FRIDGE
 62
     7
 10
-98.40006302083322
 20
1851.800052777778
 30
0.0
 11
-136.8999807291667
 21
1851.800052777778
 31
0.0
  0
LINE
  5
E5
  8
STANDARD_FRIDGE
 62
     7
 10
-250.8000630208333
 20
1851.800052777778
 30
0.0
 11
-289.2999366319444
 21
1851.800052777778
 31
0.0
  0
LINE
  5
E6
  8
STANDARD_FRIDGE
 62
     7
 10
-250.8000630208333
 20
1851.800052777778
 30
0.0
 11
-212.3000571180556
 21
1851.800052777778
 31
0.0
  0
LINE
  5
E7
  8
STANDARD_FRIDGE
 62
     7
 10
-98.40006302083322
 20
1851.800052777778
 30
0.0
 11
-59.89992482638883
 21
1851.800052777778
 31
0.0
  0
LINE
  5
E8
  8
STANDARD_FRIDGE
 62
     7
 10
0.0000661458331592
 20
1851.800052777778
 30
0.0
 11
38.50007204861112
 21
1851.800052777778
 31
0.0
  0
LINE
  5
E9
  8
STANDARD_FRIDGE
 62
     7
 10
98.40006302083333
 20
1851.800052777778
 30
0.0
 11
136.9000689236113
 21
1851.800052777778
 31
0.0
  0
LINE
  5
EA
  8
STANDARD_FRIDGE
 62
     7
 10
250.8000630208334
 20
1851.800052777778
 30
0.0
 11
289.3000689236113
 21
1851.800052777778
 31
0.0
  0
LINE
  5
EB
  8
STANDARD_FRIDGE
 62
     7
 10
250.8000630208334
 20
1901.799952777777
 30
0.0
 11
212.3000130208334
 21
1901.799952777777
 31
0.0
  0
LINE
  5
EC
  8
STANDARD_FRIDGE
 62
     7
 10
98.40006302083333
 20
1901.799952777777
 30
0.0
 11
59.90005711805537
 21
1901.799952777777
 31
0.0
  0
LINE
  5
ED
  8
STANDARD_FRIDGE
 62
     7
 10
0.0000661458331592
 20
1901.799952777777
 30
0.0
 11
-38.49998385416649
 21
1901.799952777777
 31
0.0
  0
LINE
  5
EE
  8
STANDARD_FRIDGE
 62
     7
 10
-98.40006302083322
 20
1901.799952777777
 30
0.0
 11
-136.8999807291667
 21
1901.799952777777
 31
0.0
  0
LINE
  5
EF
  8
STANDARD_FRIDGE
 62
     7
 10
-250.8000630208333
 20
1901.799952777777
 30
0.0
 11
-289.2999366319444
 21
1901.799952777777
 31
0.0
  0
LINE
  5
F0
  8
STANDARD_FRIDGE
 62
     7
 10
-250.8000630208333
 20
1901.799952777777
 30
0.0
 11
-212.3000571180556
 21
1901.799952777777
 31
0.0
  0
LINE
  5
F1
  8
STANDARD_FRIDGE
 62
     7
 10
-98.40006302083322
 20
1901.799952777777
 30
0.0
 11
-59.89992482638883
 21
1901.799952777777
 31
0.0
  0
LINE
  5
F2
  8
STANDARD_FRIDGE
 62
     7
 10
0.0000661458331592
 20
1901.799952777777
 30
0.0
 11
38.50007204861112
 21
1901.799952777777
 31
0.0
  0
LINE
  5
F3
  8
STANDARD_FRIDGE
 62
     7
 10
98.40006302083333
 20
1901.799952777777
 30
0.0
 11
136.9000689236113
 21
1901.799952777777
 31
0.0
  0
LINE
  5
F4
  8
STANDARD_FRIDGE
 62
     7
 10
250.8000630208334
 20
1901.799952777777
 30
0.0
 11
289.3000689236113
 21
1901.799952777777
 31
0.0
  0
LINE
  5
F5
  8
STANDARD_FRIDGE
 62
     7
 10
301.6000189236111
 20
2028.799908680555
 30
0.0
 11
-301.6000189236111
 21
2028.799908680555
 31
0.0
  0
CIRCLE
  5
F6
  8
STANDARD_FRIDGE
 62
     7
 10
-268.9999447159535
 20
225.7999907213939
 30
0.0
 40
0.9999806535259718
  0
CIRCLE
  5
F7
  8
STANDARD_FRIDGE
 62
     7
 10
-268.9999347435501
 20
275.8000130421609
 30
0.0
 40
0.9999706832361771
  0
CIRCLE
  5
F8
  8
STANDARD_FRIDGE
 62
     7
 10
-268.9999347435497
 20
733.8000248477165
 30
0.0
 40
0.999970683235836
  0
CIRCLE
  5
F9
  8
STANDARD_FRIDGE
 62
     7
 10
-268.9999541242063
 20
783.7999442283726
 30
0.0
 40
0.9999900627986189
  0
CIRCLE
  5
FA
  8
STANDARD_FRIDGE
 62
     7
 10
-268.9997930724523
 20
1495.799971349963
 30
0.0
 40
0.9998290104461177
  0
CIRCLE
  5
FB
  8
STANDARD_FRIDGE
 62
     7
 10
-268.9998412211866
 20
1545.799919507427
 30
0.0
 40
0.9998771590609261
  0
POLYLINE
  5
FC
  8
STANDARD_FRIDGE
 62
     7
 66
     1
 10
0.0
 20
0.0
 30
0.0
 70
     1
  0
VERTEX
  5
FD
  8
STANDARD_FRIDGE
 62
     7
 10
-249.8000703124999
 20
1901.799952777777
 30
0.0
 42
2.414709488498584
  0
VERTEX
  5
FE
  8
STANDARD_FRIDGE
 62
     7
 10
-250.7999307291666
 20
1900.800048263889
 30
0.0
 42
0.4142704356190732
  0
SEQEND
  5
FF
  8
STANDARD_FRIDGE
 62
     7
  0
POLYLINE
  5
100
  8
STANDARD_FRIDGE
 62
     7
 66
     1
 10
0.0
 20
0.0
 30
0.0
 70
     1
  0
VERTEX
  5
101
  8
STANDARD_FRIDGE
 62
     7
 10
-249.8000703124999
 20
1851.800052777778
 30
0.0
 42
2.415029068596938
  0
VERTEX
  5
102
  8
STANDARD_FRIDGE
 62
     7
 10
-250.7999307291666
 20
1850.799883680556
 30
0.0
 42
0.4142156221051086
  0
SEQEND
  5
103
  8
STANDARD_FRIDGE
 62
     7
  0
POLYLINE
  5
104
  8
STANDARD_FRIDGE
 62
     7
 66
     1
 10
0.0
 20
0.0
 30
0.0
 70
     1
  0
VERTEX
  5
105
  8
STANDARD_FRIDGE
 62
     7
 10
-97.39993802083342
 20
1901.799952777777
 30
0.0
 42
2.414098047295326
  0
VERTEX
  5
106
  8
STANDARD_FRIDGE
 62
     7
 10
-98.39993072916654
 20
1900.800048263889
 30
0.0
 42
0.4142430322056031
  0
SEQEND
  5
107
  8
STANDARD_FRIDGE
 62
     7
  0
POLYLINE
  5
108
  8
STANDARD_FRIDGE
 62
     7
 66
     1
 10
0.0
 20
0.0
 30
0.0
 70
     1
  0
VERTEX
  5
109
  8
STANDARD_FRIDGE
 62
     7
 10
-97.39993802083342
 20
1851.800052777778
 30
0.0
 42
2.414417417107455
  0
VERTEX
  5
10A
  8
STANDARD_FRIDGE
 62
     7
 10
-98.39993072916656
 20
1850.799883680556
 30
0.0
 42
0.4141882321291291
  0
SEQEND
  5
10B
  8
STANDARD_FRIDGE
 62
     7
  0
CIRCLE
  5
10C
  8
STANDARD_FRIDGE
 62
     7
 10
268.9999752865539
 20
783.7999724565015
 30
0.0
 40
1.00001829000641
  0
CIRCLE
  5
10D
  8
STANDARD_FRIDGE
 62
     7
 10
268.9999946683046
 20
733.8000530747511
 30
0.0
 40
0.9999989088024178
  0
CIRCLE
  5
10E
  8
STANDARD_FRIDGE
 62
     7
 10
268.9999946683043
 20
275.8000412691956
 30
0.0
 40
0.999998908802702
  0
CIRCLE
  5
10F
  8
STANDARD_FRIDGE
 62
     7
 10
268.999984695998
 20
225.8000189495762
 30
0.0
 40
1.000008880521727
  0
POLYLINE
  5
110
  8
STANDARD_FRIDGE
 62
     7
 66
     1
 10
0.0
 20
0.0
 30
0.0
 70
     1
  0
VERTEX
  5
111
  8
STANDARD_FRIDGE
 62
     7
 10
99.40005572916692
 20
1851.800052777778
 30
0.0
 42
2.414417417104449
  0
VERTEX
  5
112
  8
STANDARD_FRIDGE
 62
     7
 10
98.40006302083333
 20
1850.799883680556
 30
0.0
 42
0.4141882321290682
  0
SEQEND
  5
113
  8
STANDARD_FRIDGE
 62
     7
  0
POLYLINE
  5
114
  8
STANDARD_FRIDGE
 62
     7
 66
     1
 10
0.0
 20
0.0
 30
0.0
 70
     1
  0
VERTEX
  5
115
  8
STANDARD_FRIDGE
 62
     7
 10
99.40005572916692
 20
1901.799952777777
 30
0.0
 42
2.414098047294645
  0
VERTEX
  5
116
  8
STANDARD_FRIDGE
 62
     7
 10
98.40006302083333
 20
1900.800048263889
 30
0.0
 42
0.4142430322054726
  0
SEQEND
  5
117
  8
STANDARD_FRIDGE
 62
     7
  0
POLYLINE
  5
118
  8
STANDARD_FRIDGE
 62
     7
 66
     1
 10
0.0
 20
0.0
 30
0.0
 70
     1
  0
VERTEX
  5
119
  8
STANDARD_FRIDGE
 62
     7
 10
251.8000557291666
 20
1851.800052777778
 30
0.0
 42
2.41441741710549
  0
VERTEX
  5
11A
  8
STANDARD_FRIDGE
 62
     7
 10
250.8000630208334
 20
1850.799883680556
 30
0.0
 42
0.4141882321291136
  0
SEQEND
  5
11B
  8
STANDARD_FRIDGE
 62
     7
  0
POLYLINE
  5
11C
  8
STANDARD_FRIDGE
 62
     7
 66
     1
 10
0.0
 20
0.0
 30
0.0
 70
     1
  0
VERTEX
  5
11D
  8
STANDARD_FRIDGE
 62
     7
 10
251.8000557291666
 20
1901.799952777777
 30
0.0
 42
2.414098047295515
  0
VERTEX
  5
11E
  8
STANDARD_FRIDGE
 62
     7
 10
250.8000630208334
 20
1900.800048263889
 30
0.0
 42
0.4142430322056055
  0
SEQEND
  5
11F
  8
STANDARD_FRIDGE
 62
     7
  0
CIRCLE
  5
120
  8
STANDARD_FRIDGE
 62
     7
 10
269.0000881959481
 20
1545.799947732915
 30
0.0
 40
0.9999053804411615
  0
CIRCLE
  5
121
  8
STANDARD_FRIDGE
 62
     7
 10
269.00013634806
 20
1495.799999573318
 30
0.0
 40
0.999857228334084
  0
POLYLINE
  5
122
  8
STANDARD_FRIDGE
 62
     7
 66
     1
 10
0.0
 20
0.0
 30
0.0
 70
     1
  0
VERTEX
  5
123
  8
STANDARD_FRIDGE
 62
     7
 10
1.00005885416698
 20
1851.800052777778
 30
0.0
 42
2.414417417104416
  0
VERTEX
  5
124
  8
STANDARD_FRIDGE
 62
     7
 10
0.0000661458331586
 20
1850.799883680556
 30
0.0
 42
0.4141882321290712
  0
SEQEND
  5
125
  8
STANDARD_FRIDGE
 62
     7
  0
POLYLINE
  5
126
  8
STANDARD_FRIDGE
 62
     7
 66
     1
 10
0.0
 20
0.0
 30
0.0
 70
     1
  0
VERTEX
  5
127
  8
STANDARD_FRIDGE
 62
     7
 10
1.00005885416698
 20
1901.799952777777
 30
0.0
 42
2.414098047294204
  0
VERTEX
  5
128
  8
STANDARD_FRIDGE
 62
     7
 10
0.0000661458331586
 20
1900.800048263889
 30
0.0
 42
0.4142430322054589
  0
SEQEND
  5
129
  8
STANDARD_FRIDGE
 62
     7
  0
POLYLINE
  5
12A
  8
STANDARD_FRIDGE
  6
DASHED
 62
     7
 66
     1
 10
0.0
 20
0.0
 30
0.0
  0
VERTEX
  5
12B
  8
STANDARD_FRIDGE
  6
DASHED
 62
     7
 10
301.600018923611
 20
295.7999333333336
 30
0.0
  0
VERTEX
  5
12C
  8
STANDARD_FRIDGE
  6
DASHED
 62
     7
 10
241.6000154513885
 20
295.7999333333336
 30
0.0
  0
VERTEX
  5
12D
  8
STANDARD_FRIDGE
  6
DASHED
 62
     7
 10
241.6000154513885
 20
205.799884027778
 30
0.0
  0
VERTEX
  5
12E
  8
STANDARD_FRIDGE
  6
DASHED
 62
     7
 10
301.600018923611
 20
205.799884027778
 30
0.0
  0
SEQEND
  5
12F
  8
STANDARD_FRIDGE
  6
DASHED
 62
     7
  0
POLYLINE
  5
130
  8
STANDARD_FRIDGE
  6
DASHED
 62
     7
 66
     1
 10
0.0
 20
0.0
 30
0.0
  0
VERTEX
  5
131
  8
STANDARD_FRIDGE
  6
DASHED
 62
     7
 10
301.600018923611
 20
803.7998451388892
 30
0.0
  0
VERTEX
  5
132
  8
STANDARD_FRIDGE
  6
DASHED
 62
     7
 10
241.6000154513885
 20
803.7998451388892
 30
0.0
  0
VERTEX
  5
133
  8
STANDARD_FRIDGE
  6
DASHED
 62
     7
 10
241.6000154513885
 20
713.7999722222224
 30
0.0
  0
VERTEX
  5
134
  8
STANDARD_FRIDGE
  6
DASHED
 62
     7
 10
301.600018923611
 20
713.7999722222224
 30
0.0
  0
SEQEND
  5
135
  8
STANDARD_FRIDGE
  6
DASHED
 62
     7
  0
POLYLINE
  5
136
  8
STANDARD_FRIDGE
  6
DASHED
 62
     7
 66
     1
 10
0.0
 20
0.0
 30
0.0
  0
VERTEX
  5
137
  8
STANDARD_FRIDGE
  6
DASHED
 62
     7
 10
301.600018923611
 20
1565.799801041667
 30
0.0
  0
VERTEX
  5
138
  8
STANDARD_FRIDGE
  6
DASHED
 62
     7
 10
241.6000154513885
 20
1565.799801041667
 30
0.0
  0
VERTEX
  5
139
  8
STANDARD_FRIDGE
  6
DASHED
 62
     7
 10
241.6000154513885
 20
1475.799884027778
 30
0.0
  0
VERTEX
  5
13A
  8
STANDARD_FRIDGE
  6
DASHED
 62
     7
 10
301.600018923611
 20
1475.799884027778
 30
0.0
  0
SEQEND
  5
13B
  8
STANDARD_FRIDGE
  6
DASHED
 62
     7
  0
POLYLINE
  5
13C
  8
STANDARD_FRIDGE
 62
     7
 66
     1
 10
0.0
 20
0.0
 30
0.0
 70
     1
  0
VERTEX
  5
13D
  8
STANDARD_FRIDGE
 62
     7
 10
278.7124581597222
 20
803.7998451388889
 30
0.0
  0
VERTEX
  5
13E
  8
STANDARD_FRIDGE
 62
     7
 10
299.9824005208329
 20
849.4798048611108
 30
0.0
  0
VERTEX
  5
13F
  8
STANDARD_FRIDGE
 62
     7
 10
310.5721720486112
 20
842.8385427083333
 30
0.0
  0
SEQEND
  5
140
  8
STANDARD_FRIDGE
 62
     7
  0
POLYLINE
  5
141
  8
STANDARD_FRIDGE
 62
     7
 66
     1
 10
0.0
 20
0.0
 30
0.0
 70
     1
  0
VERTEX
  5
142
  8
STANDARD_FRIDGE
 62
     7
 10
278.7124581597222
 20
803.7998451388889
 30
0.0
  0
VERTEX
  5
143
  8
STANDARD_FRIDGE
 62
     7
 10
299.9824005208329
 20
849.4798048611108
 30
0.0
  0
VERTEX
  5
144
  8
STANDARD_FRIDGE
 62
     7
 10
310.5721720486112
 20
842.8385427083333
 30
0.0
  0
SEQEND
  5
145
  8
STANDARD_FRIDGE
 62
     7
  0
LINE
  5
146
  8
STANDARD_FRIDGE
 62
     7
 10
399.0830140624998
 20
995.7386493055557
 30
0.0
 11
436.5830272569441
 21
995.7386493055557
 31
0.0
  0
LINE
  5
147
  8
STANDARD_FRIDGE
 62
     7
 10
278.7124581597217
 20
803.7998451388889
 30
0.0
 11
399.0830140624998
 21
995.7386493055557
 31
0.0
  0
LINE
  5
148
  8
STANDARD_FRIDGE
  6
DASHED
 10
-301.6000189236112
 20
50.8
 30
0.0
 11
301.6000189236111
 21
50.8
 31
0.0
  0
INSERT
  5
14F
  8
STANDARD_FRIDGE
  2
_X1
 10
0.0
 20
0.0
 30
0.0
  0
TEXT
  5
150
  8
UNIVERSAL_NOTES
  6
CONTINUOUS
 10
326.168018923611
 20
3.927999999999997
 30
0.0
 40
12.0
  1
4" (101.6mm) TOEKICK
  7
ARIAL_REGULAR
  0
TEXT
  5
151
  8
UNIVERSAL_NOTES
  6
CONTINUOUS
 10
325.616018923611
 20
-46.87200000000001
 30
0.0
 40
12.0
  1
2" (50.8mm) TOEKICK
  7
ARIAL_REGULAR
  0
TEXT
  5
152
  8
UNIVERSAL_NOTES
  6
CONTINUOUS
 10
325.352018923611
 20
54.728
 30
0.0
 40
12.0
  1
6" (152.4mm) TOEKICK
  7
ARIAL_REGULAR
  0
LINE
  5
153
  8
FISHER_AND_PAYKEL
 10
0.0000661458331592
 20
-100.8043046535011
 30
0.0
 11
0.0000661458331592
 21
-0.8043046535011058
 31
0.0
  0
LINE
  5
154
  8
FISHER_AND_PAYKEL
 10
0.0000661458331592
 20
19.19569534649889
 30
0.0
 11
0.0000661458331592
 21
39.19569534649889
 31
0.0
  0
LINE
  5
155
  8
FISHER_AND_PAYKEL
 10
0.0000661458331592
 20
179.1956953464989
 30
0.0
 11
0.0000661458331592
 21
199.1956953464989
 31
0.0
  0
LINE
  5
156
  8
FISHER_AND_PAYKEL
 10
0.0000661458331592
 20
59.19569534649889
 30
0.0
 11
0.0000661458331592
 21
159.1956953464989
 31
0.0
  0
LINE
  5
157
  8
FISHER_AND_PAYKEL
 10
0.0000661458331592
 20
339.1956953464989
 30
0.0
 11
0.0000661458331592
 21
359.1956953464989
 31
0.0
  0
LINE
  5
158
  8
FISHER_AND_PAYKEL
 10
0.0000661458331592
 20
219.1956953464989
 30
0.0
 11
0.0000661458331592
 21
319.1956953464989
 31
0.0
  0
LINE
  5
159
  8
FISHER_AND_PAYKEL
 10
0.0000661458331592
 20
499.195695346499
 30
0.0
 11
0.0000661458331592
 21
519.195695346499
 31
0.0
  0
LINE
  5
15A
  8
FISHER_AND_PAYKEL
 10
0.0000661458331592
 20
379.1956953464989
 30
0.0
 11
0.0000661458331592
 21
479.195695346499
 31
0.0
  0
LINE
  5
15B
  8
FISHER_AND_PAYKEL
 10
0.0000661458331592
 20
539.195695346499
 30
0.0
 11
0.0000661458331592
 21
639.195695346499
 31
0.0
  0
LINE
  5
15C
  8
FISHER_AND_PAYKEL
 10
0.0000661458331592
 20
659.195695346499
 30
0.0
 11
0.0000661458331592
 21
679.195695346499
 31
0.0
  0
LINE
  5
15D
  8
FISHER_AND_PAYKEL
 10
0.0000661458331592
 20
1459.195695346499
 30
0.0
 11
0.0000661458331592
 21
1479.195695346499
 31
0.0
  0
LINE
  5
15E
  8
FISHER_AND_PAYKEL
 10
0.0000661458331592
 20
1339.195695346499
 30
0.0
 11
0.0000661458331592
 21
1439.195695346499
 31
0.0
  0
LINE
  5
15F
  8
FISHER_AND_PAYKEL
 10
0.0000661458331592
 20
1179.195695346499
 30
0.0
 11
0.0000661458331592
 21
1279.195695346499
 31
0.0
  0
LINE
  5
160
  8
FISHER_AND_PAYKEL
 10
0.0000661458331592
 20
1299.195695346499
 30
0.0
 11
0.0000661458331592
 21
1319.195695346499
 31
0.0
  0
LINE
  5
161
  8
FISHER_AND_PAYKEL
 10
0.0000661458331592
 20
1019.195695346499
 30
0.0
 11
0.0000661458331592
 21
1119.195695346499
 31
0.0
  0
LINE
  5
162
  8
FISHER_AND_PAYKEL
 10
0.0000661458331592
 20
1139.195695346499
 30
0.0
 11
0.0000661458331592
 21
1159.195695346499
 31
0.0
  0
LINE
  5
163
  8
FISHER_AND_PAYKEL
 10
0.0000661458331592
 20
859.195695346499
 30
0.0
 11
0.0000661458331592
 21
959.195695346499
 31
0.0
  0
LINE
  5
164
  8
FISHER_AND_PAYKEL
 10
0.0000661458331592
 20
979.195695346499
 30
0.0
 11
0.0000661458331592
 21
999.195695346499
 31
0.0
  0
LINE
  5
165
  8
FISHER_AND_PAYKEL
 10
0.0000661458331592
 20
819.195695346499
 30
0.0
 11
0.0000661458331592
 21
839.195695346499
 31
0.0
  0
LINE
  5
166
  8
FISHER_AND_PAYKEL
 10
0.0000661458331592
 20
699.195695346499
 30
0.0
 11
0.0000661458331592
 21
799.195695346499
 31
0.0
  0
LINE
  5
167
  8
FISHER_AND_PAYKEL
 10
0.0000661458331592
 20
1499.195695346499
 30
0.0
 11
0.0000661458331592
 21
1599.195695346499
 31
0.0
  0
LINE
  5
168
  8
FISHER_AND_PAYKEL
 10
0.0000661458331592
 20
1619.195695346499
 30
0.0
 11
0.0000661458331592
 21
1639.195695346499
 31
0.0
  0
LINE
  5
169
  8
FISHER_AND_PAYKEL
 10
0.0000661458331592
 20
1659.195695346499
 30
0.0
 11
0.0000661458331592
 21
1759.195695346499
 31
0.0
  0
LINE
  5
16A
  8
FISHER_AND_PAYKEL
 10
0.0000661458331592
 20
2109.195695346499
 30
0.0
 11
0.0000661458331592
 21
2129.195695346499
 31
0.0
  0
LINE
  5
16B
  8
FISHER_AND_PAYKEL
 10
0.0000661458331592
 20
1989.195695346499
 30
0.0
 11
0.0000661458331592
 21
2089.195695346499
 31
0.0
  0
LINE
  5
16C
  8
FISHER_AND_PAYKEL
 10
0.0000661458331592
 20
2149.195695346499
 30
0.0
 11
0.0000661458331592
 21
2249.195695346499
 31
0.0
  0
LINE
  5
16D
  8
FISHER_AND_PAYKEL
 10
301.6000189236111
 20
239.7999086805548
 30
0.0
 11
-301.6000189236111
 21
239.7999086805548
 31
0.0
  0
POLYLINE
  5
16E
  8
FISHER_AND_PAYKEL
 66
     1
 10
0.0
 20
0.0
 30
0.0
 70
     1
  0
VERTEX
  5
16F
  8
FISHER_AND_PAYKEL
 10
-207.5
 20
239.7999086805548
 30
0.0
  0
VERTEX
  5
170
  8
FISHER_AND_PAYKEL
 10
207.5
 20
239.7999086805548
 30
0.0
  0
VERTEX
  5
171
  8
FISHER_AND_PAYKEL
 10
207.5
 20
1828.799908680555
 30
0.0
  0
VERTEX
  5
172
  8
FISHER_AND_PAYKEL
 10
-207.5
 20
1828.799908680555
 30
0.0
  0
SEQEND
  5
173
  8
FISHER_AND_PAYKEL
  0
ENDSEC
  0
EOF
