  0
SECTION
  2
HEADER
  9
$ACADVER
  1
AC1009
  9
$DWGCODEPAGE
  3
ansi_1252
  9
$INSBASE
 10
0.0
 20
0.0
 30
0.0
  9
$EXTMIN
 10
-383.6999406250002
 20
-137.7727230712212
 30
0.0
  9
$EXTMAX
 10
855.5336015830117
 20
2161.132840087572
 30
0.0
  9
$LIMMIN
 10
0.0
 20
0.0
  9
$LIMMAX
 10
12.0
 20
9.0
  9
$ORTHOMODE
 70
     0
  9
$REGENMODE
 70
     1
  9
$FILLMODE
 70
     1
  9
$QTEXTMODE
 70
     0
  9
$MIRRTEXT
 70
     1
  9
$DRAGMODE
 70
     2
  9
$LTSCALE
 40
1.0
  9
$OSMODE
 70
    37
  9
$ATTMODE
 70
     1
  9
$TEXTSIZE
 40
0.2
  9
$TRACEWID
 40
0.05
  9
$TEXTSTYLE
  7
STANDARD
  9
$CLAYER
  8
FISHER_AND_PAYKEL
  9
$CELTYPE
  6
BYLAYER
  9
$CECOLOR
 62
   256
  9
$DIMSCALE
 40
1.0
  9
$DIMASZ
 40
0.18
  9
$DIMEXO
 40
0.0625
  9
$DIMDLI
 40
0.38
  9
$DIMRND
 40
0.0
  9
$DIMDLE
 40
0.0
  9
$DIMEXE
 40
0.18
  9
$DIMTP
 40
0.0
  9
$DIMTM
 40
0.0
  9
$DIMTXT
 40
0.18
  9
$DIMCEN
 40
0.09
  9
$DIMTSZ
 40
0.0
  9
$DIMTOL
 70
     0
  9
$DIMLIM
 70
     0
  9
$DIMTIH
 70
     1
  9
$DIMTOH
 70
     1
  9
$DIMSE1
 70
     0
  9
$DIMSE2
 70
     0
  9
$DIMTAD
 70
     0
  9
$DIMZIN
 70
     0
  9
$DIMBLK
  1

  9
$DIMASO
 70
     1
  9
$DIMSHO
 70
     1
  9
$DIMPOST
  1

  9
$DIMAPOST
  1

  9
$DIMALT
 70
     0
  9
$DIMALTD
 70
     2
  9
$DIMALTF
 40
25.4
  9
$DIMLFAC
 40
1.0
  9
$DIMTOFL
 70
     0
  9
$DIMTVP
 40
0.0
  9
$DIMTIX
 70
     0
  9
$DIMSOXD
 70
     0
  9
$DIMSAH
 70
     0
  9
$DIMBLK1
  1

  9
$DIMBLK2
  1

  9
$DIMSTYLE
  2
STANDARD
  9
$DIMCLRD
 70
     0
  9
$DIMCLRE
 70
     0
  9
$DIMCLRT
 70
     0
  9
$DIMTFAC
 40
1.0
  9
$DIMGAP
 40
0.09
  9
$LUNITS
 70
     2
  9
$LUPREC
 70
     3
  9
$SKETCHINC
 40
0.1
  9
$FILLETRAD
 40
0.5
  9
$AUNITS
 70
     0
  9
$AUPREC
 70
     0
  9
$MENU
  1
.
  9
$ELEVATION
 40
0.0
  9
$PELEVATION
 40
0.0
  9
$THICKNESS
 40
0.0
  9
$LIMCHECK
 70
     0
  9
$CHAMFERA
 40
0.0
  9
$CHAMFERB
 40
0.0
  9
$SKPOLY
 70
     0
  9
$TDCREATE
 40
2458212.473851539
  9
$TDUPDATE
 40
2458212.47386588
  9
$TDINDWG
 40
0.0000000116
  9
$TDUSRTIMER
 40
0.0000000116
  9
$USRTIMER
 70
     1
  9
$ANGBASE
 50
0.0
  9
$ANGDIR
 70
     0
  9
$PDMODE
 70
     0
  9
$PDSIZE
 40
0.0
  9
$PLINEWID
 40
0.0
  9
$COORDS
 70
     1
  9
$SPLFRAME
 70
     0
  9
$SPLINETYPE
 70
     6
  9
$SPLINESEGS
 70
     8
  9
$ATTDIA
 70
     0
  9
$ATTREQ
 70
     1
  9
$HANDLING
 70
     1
  9
$HANDSEED
  5
141
  9
$SURFTAB1
 70
     6
  9
$SURFTAB2
 70
     6
  9
$SURFTYPE
 70
     6
  9
$SURFU
 70
     6
  9
$SURFV
 70
     6
  9
$UCSNAME
  2

  9
$UCSORG
 10
0.0
 20
0.0
 30
0.0
  9
$UCSXDIR
 10
1.0
 20
0.0
 30
0.0
  9
$UCSYDIR
 10
0.0
 20
1.0
 30
0.0
  9
$PUCSNAME
  2

  9
$PUCSORG
 10
0.0
 20
0.0
 30
0.0
  9
$PUCSXDIR
 10
1.0
 20
0.0
 30
0.0
  9
$PUCSYDIR
 10
0.0
 20
1.0
 30
0.0
  9
$USERI1
 70
     0
  9
$USERI2
 70
     0
  9
$USERI3
 70
     0
  9
$USERI4
 70
     0
  9
$USERI5
 70
     0
  9
$USERR1
 40
0.0
  9
$USERR2
 40
0.0
  9
$USERR3
 40
0.0
  9
$USERR4
 40
0.0
  9
$USERR5
 40
0.0
  9
$WORLDVIEW
 70
     1
  9
$SHADEDGE
 70
     3
  9
$SHADEDIF
 70
    70
  9
$TILEMODE
 70
     1
  9
$MAXACTVP
 70
    64
  9
$PLIMCHECK
 70
     0
  9
$PEXTMIN
 10
1.000000000000000E+20
 20
1.000000000000000E+20
 30
1.000000000000000E+20
  9
$PEXTMAX
 10
-1.000000000000000E+20
 20
-1.000000000000000E+20
 30
-1.000000000000000E+20
  9
$PLIMMIN
 10
0.0
 20
0.0
  9
$PLIMMAX
 10
12.0
 20
9.0
  9
$UNITMODE
 70
     0
  9
$VISRETAIN
 70
     1
  9
$PLINEGEN
 70
     0
  9
$PSLTSCALE
 70
     1
  0
ENDSEC
  0
SECTION
  2
TABLES
  0
TABLE
  2
VPORT
 70
     1
  0
VPORT
  2
*ACTIVE
 70
     0
 10
0.0
 20
0.0
 11
1.0
 21
1.0
 12
231.6886377079213
 22
1011.680058508176
 13
0.0
 23
0.0
 14
0.5
 24
0.5
 15
0.5
 25
0.5
 16
0.0
 26
0.0
 36
1.0
 17
0.0
 27
0.0
 37
0.0
 40
2344.883674421969
 41
0.5353752569873742
 42
50.0
 43
0.0
 44
0.0
 50
0.0
 51
0.0
 71
     0
 72
   100
 73
     1
 74
     3
 75
     0
 76
     0
 77
     0
 78
     0
  0
ENDTAB
  0
TABLE
  2
LTYPE
 70
     3
  0
LTYPE
  2
CONTINUOUS
 70
     0
  3
Solid line
 72
    65
 73
     0
 40
0.0
  0
LTYPE
  2
DASHED
 70
     0
  3

 72
    65
 73
     2
 40
10.0
 49
5.0
 49
-5.0
  0
LTYPE
  2
1_59594_1_59601_5_36087_1_
 70
     0
  3

 72
    65
 73
     4
 40
10.1488204722222
 49
1.595941972222205
 49
-1.596005472222245
 49
5.360867555555542
 49
-1.596005472222205
  0
ENDTAB
  0
TABLE
  2
LAYER
 70
     2
  0
LAYER
  2
0
 70
     0
 62
     7
  6
CONTINUOUS
  0
LAYER
  2
FISHER_AND_PAYKEL
 70
     0
 62
     7
  6
CONTINUOUS
  0
ENDTAB
  0
TABLE
  2
STYLE
 70
     1
  0
STYLE
  2
STANDARD
 70
     0
 40
0.0
 41
1.0
 50
0.0
 71
     0
 42
0.2
  3
txt
  4

  0
ENDTAB
  0
TABLE
  2
VIEW
 70
     0
  0
ENDTAB
  0
TABLE
  2
UCS
 70
     0
  0
ENDTAB
  0
TABLE
  2
APPID
 70
     1
  0
APPID
  2
ACAD
 70
     0
  0
ENDTAB
  0
TABLE
  2
DIMSTYLE
 70
     1
  0
DIMSTYLE
  2
STANDARD
 70
     0
  3

  4

  5

  6

  7

 40
1.0
 41
0.18
 42
0.0625
 43
0.38
 44
0.18
 45
0.0
 46
0.0
 47
0.0
 48
0.0
140
0.18
141
0.09
142
0.0
143
25.4
144
1.0
145
0.0
146
1.0
147
0.09
 71
     0
 72
     0
 73
     1
 74
     1
 75
     0
 76
     0
 77
     0
 78
     0
170
     0
171
     2
172
     0
173
     0
174
     0
175
     0
176
     0
177
     0
178
     0
  0
ENDTAB
  0
ENDSEC
  0
SECTION
  2
BLOCKS
  0
BLOCK
  8
0
  2
$MODEL_SPACE
 70
     0
 10
0.0
 20
0.0
 30
0.0
  3
$MODEL_SPACE
  1

  0
ENDBLK
  5
21
  8
0
  0
BLOCK
 67
     1
  8
0
  2
$PAPER_SPACE
 70
     0
 10
0.0
 20
0.0
 30
0.0
  3
$PAPER_SPACE
  1

  0
ENDBLK
  5
1D
 67
     1
  8
0
  0
BLOCK
  8
0
  2
*X1
 70
     1
 10
0.0
 20
0.0
 30
0.0
  3
*X1
  1

  0
TEXT
  5
137
  8
FISHER_AND_PAYKEL
  6
CONTINUOUS
 10
522.5413483325094
 20
1000.300795822476
 30
0.0
 40
12.0
  1
DO NOT PLACE
  0
TEXT
  5
138
  8
FISHER_AND_PAYKEL
  6
CONTINUOUS
 10
522.4933483325094
 20
981.0236873887411
 30
0.0
 40
12.0
  1
HANDLE HOLES IN
  0
TEXT
  5
139
  8
FISHER_AND_PAYKEL
  6
CONTINUOUS
 10
523.4413483325095
 20
961.7465789550062
 30
0.0
 40
12.0
  1
THESE LOCATIONS
  0
ENDBLK
  5
13E
  8
0
  0
BLOCK
  8
0
  2
*X2
 70
     1
 10
0.0
 20
0.0
 30
0.0
  3
*X2
  1

  0
TEXT
  5
13B
  8
FISHER_AND_PAYKEL
  6
CONTINUOUS
 10
522.7652160408429
 20
2081.254440166519
 30
0.0
 40
12.0
  1
Ø 3/32" (2.5mm) Pilot Holes recommended.
  0
TEXT
  5
13C
  8
FISHER_AND_PAYKEL
  6
CONTINUOUS
 10
522.417216040843
 20
2061.977331732784
 30
0.0
 40
12.0
  1
(do not penetrate front surface)
  0
ENDBLK
  5
140
  8
0
  0
ENDSEC
  0
SECTION
  2
ENTITIES
  0
LINE
  5
70
  8
FISHER_AND_PAYKEL
  6
DASHED
 10
-377.7999527777779
 20
50.80000000000032
 30
0.0
 11
377.8000850694443
 21
50.80000000000032
 31
0.0
  0
POLYLINE
  5
71
  8
FISHER_AND_PAYKEL
 62
     7
 66
     1
 10
0.0
 20
0.0
 30
0.0
 70
     1
  0
VERTEX
  5
72
  8
FISHER_AND_PAYKEL
 62
     7
 10
354.9125243055555
 20
803.7998451388893
 30
0.0
  0
VERTEX
  5
73
  8
FISHER_AND_PAYKEL
 62
     7
 10
376.1824666666662
 20
849.4798048611111
 30
0.0
  0
VERTEX
  5
74
  8
FISHER_AND_PAYKEL
 62
     7
 10
386.7722381944445
 20
842.8385427083336
 30
0.0
  0
SEQEND
  5
75
  8
FISHER_AND_PAYKEL
 62
     7
  0
POLYLINE
  5
76
  8
FISHER_AND_PAYKEL
 62
     7
 66
     1
 10
0.0
 20
0.0
 30
0.0
 70
     1
  0
VERTEX
  5
77
  8
FISHER_AND_PAYKEL
 62
     7
 10
354.9125243055555
 20
803.7998451388893
 30
0.0
  0
VERTEX
  5
78
  8
FISHER_AND_PAYKEL
 62
     7
 10
376.1824666666662
 20
849.4798048611111
 30
0.0
  0
VERTEX
  5
79
  8
FISHER_AND_PAYKEL
 62
     7
 10
386.7722381944445
 20
842.8385427083336
 30
0.0
  0
SEQEND
  5
7A
  8
FISHER_AND_PAYKEL
 62
     7
  0
LINE
  5
7B
  8
FISHER_AND_PAYKEL
 62
     7
 10
-377.7999527777779
 20
0.0000000000003411
 30
0.0
 11
377.8000850694443
 21
0.0000000000003411
 31
0.0
  0
LINE
  5
7C
  8
FISHER_AND_PAYKEL
 62
     7
 10
345.2000229166665
 20
225.7999145833336
 30
0.0
 11
306.700149305555
 21
225.7999145833336
 31
0.0
  0
LINE
  5
7D
  8
FISHER_AND_PAYKEL
 62
     7
 10
-345.1999347222225
 20
225.7999145833336
 30
0.0
 11
-383.6999406250002
 21
225.7999145833336
 31
0.0
  0
LINE
  5
7E
  8
FISHER_AND_PAYKEL
 62
     7
 10
-345.1999347222225
 20
225.7999145833336
 30
0.0
 11
-306.6998847222224
 21
225.7999145833336
 31
0.0
  0
LINE
  5
7F
  8
FISHER_AND_PAYKEL
 62
     7
 10
345.2000229166665
 20
225.7999145833336
 30
0.0
 11
383.7000729166666
 21
225.7999145833336
 31
0.0
  0
LINE
  5
80
  8
FISHER_AND_PAYKEL
 62
     7
 10
345.2000229166665
 20
275.7999468750002
 30
0.0
 11
306.700149305555
 21
275.7999468750002
 31
0.0
  0
LINE
  5
81
  8
FISHER_AND_PAYKEL
 62
     7
 10
-345.1999347222225
 20
275.7999468750002
 30
0.0
 11
-383.6999406250002
 21
275.7999468750002
 31
0.0
  0
LINE
  5
82
  8
FISHER_AND_PAYKEL
 62
     7
 10
-345.1999347222225
 20
275.7999468750002
 30
0.0
 11
-306.6998847222224
 21
275.7999468750002
 31
0.0
  0
LINE
  5
83
  8
FISHER_AND_PAYKEL
 62
     7
 10
345.2000229166665
 20
275.7999468750002
 30
0.0
 11
383.7000729166666
 21
275.7999468750002
 31
0.0
  0
LINE
  5
84
  8
FISHER_AND_PAYKEL
 62
     7
 10
-377.7999527777779
 20
0.0000000000003411
 30
0.0
 11
-377.7999527777779
 21
2028.799908680556
 31
0.0
  0
LINE
  5
85
  8
FISHER_AND_PAYKEL
 62
     7
 10
-345.1999347222225
 20
1545.799946875
 30
0.0
 11
-345.1999347222225
 21
1507.299896875
 31
0.0
  0
LINE
  5
86
  8
FISHER_AND_PAYKEL
 62
     7
 10
-345.1999347222225
 20
1495.800046875
 30
0.0
 11
-345.1999347222225
 21
1457.299996875
 31
0.0
  0
LINE
  5
87
  8
FISHER_AND_PAYKEL
 62
     7
 10
-345.1999347222225
 20
783.799858680556
 30
0.0
 11
-345.1999347222225
 21
745.2999850694448
 31
0.0
  0
LINE
  5
88
  8
FISHER_AND_PAYKEL
 62
     7
 10
-345.1999347222225
 20
733.7998263888893
 30
0.0
 11
-345.1999347222225
 21
695.299908680556
 31
0.0
  0
LINE
  5
89
  8
FISHER_AND_PAYKEL
 62
     7
 10
-345.1999347222225
 20
275.7999468750002
 30
0.0
 11
-345.1999347222225
 21
237.2998968750003
 31
0.0
  0
LINE
  5
8A
  8
FISHER_AND_PAYKEL
 62
     7
 10
-345.1999347222225
 20
225.7999145833336
 30
0.0
 11
-345.1999347222225
 21
187.2998645833338
 31
0.0
  0
LINE
  5
8B
  8
FISHER_AND_PAYKEL
 62
     7
 10
-345.1999347222225
 20
225.7999145833336
 30
0.0
 11
-345.1999347222225
 21
237.2998968750003
 31
0.0
  0
LINE
  5
8C
  8
FISHER_AND_PAYKEL
 62
     7
 10
-345.1999347222225
 20
275.7999468750002
 30
0.0
 11
-345.1999347222225
 21
314.2999527777782
 31
0.0
  0
LINE
  5
8D
  8
FISHER_AND_PAYKEL
 62
     7
 10
-345.1999347222225
 20
733.7998263888893
 30
0.0
 11
-345.1999347222225
 21
745.2999850694448
 31
0.0
  0
LINE
  5
8E
  8
FISHER_AND_PAYKEL
 62
     7
 10
-345.1999347222225
 20
783.799858680556
 30
0.0
 11
-345.1999347222225
 21
822.2998645833337
 31
0.0
  0
LINE
  5
8F
  8
FISHER_AND_PAYKEL
 62
     7
 10
-345.1999347222225
 20
1495.800046875
 30
0.0
 11
-345.1999347222225
 21
1507.299896875
 31
0.0
  0
LINE
  5
90
  8
FISHER_AND_PAYKEL
 62
     7
 10
-345.1999347222225
 20
1545.799946875
 30
0.0
 11
-345.1999347222225
 21
1584.299952777778
 31
0.0
  0
LINE
  5
91
  8
FISHER_AND_PAYKEL
 62
     7
 10
-326.9998645833334
 20
1901.799952777778
 30
0.0
 11
-326.9998645833334
 21
1863.299946875
 31
0.0
  0
LINE
  5
92
  8
FISHER_AND_PAYKEL
 62
     7
 10
-326.9998645833334
 20
1851.799788194445
 30
0.0
 11
-326.9998645833334
 21
1813.299738194445
 31
0.0
  0
LINE
  5
93
  8
FISHER_AND_PAYKEL
 62
     7
 10
-326.9998645833334
 20
1851.799788194445
 30
0.0
 11
-326.9998645833334
 21
1863.299946875
 31
0.0
  0
LINE
  5
94
  8
FISHER_AND_PAYKEL
 62
     7
 10
-326.9998645833334
 20
1901.799952777778
 30
0.0
 11
-326.9998645833334
 21
1940.299958680555
 31
0.0
  0
LINE
  5
95
  8
FISHER_AND_PAYKEL
 62
     7
 10
345.2000229166665
 20
733.7998263888893
 30
0.0
 11
306.700149305555
 21
733.7998263888893
 31
0.0
  0
LINE
  5
96
  8
FISHER_AND_PAYKEL
 62
     7
 10
-345.1999347222225
 20
733.7998263888893
 30
0.0
 11
-383.6999406250002
 21
733.7998263888893
 31
0.0
  0
LINE
  5
97
  8
FISHER_AND_PAYKEL
 62
     7
 10
-345.1999347222225
 20
733.7998263888893
 30
0.0
 11
-306.6998847222224
 21
733.7998263888893
 31
0.0
  0
LINE
  5
98
  8
FISHER_AND_PAYKEL
 62
     7
 10
345.2000229166665
 20
733.7998263888893
 30
0.0
 11
383.7000729166666
 21
733.7998263888893
 31
0.0
  0
LINE
  5
99
  8
FISHER_AND_PAYKEL
 62
     7
 10
345.2000229166665
 20
783.799858680556
 30
0.0
 11
306.700149305555
 21
783.799858680556
 31
0.0
  0
LINE
  5
9A
  8
FISHER_AND_PAYKEL
 62
     7
 10
-345.1999347222225
 20
783.799858680556
 30
0.0
 11
-383.6999406250002
 21
783.799858680556
 31
0.0
  0
LINE
  5
9B
  8
FISHER_AND_PAYKEL
 62
     7
 10
-345.1999347222225
 20
783.799858680556
 30
0.0
 11
-306.6998847222224
 21
783.799858680556
 31
0.0
  0
LINE
  5
9C
  8
FISHER_AND_PAYKEL
 62
     7
 10
345.2000229166665
 20
783.799858680556
 30
0.0
 11
383.7000729166666
 21
783.799858680556
 31
0.0
  0
LINE
  5
9D
  8
FISHER_AND_PAYKEL
 62
     7
 10
-174.5998645833336
 20
1901.799952777778
 30
0.0
 11
-174.5998645833336
 21
1863.299946875
 31
0.0
  0
LINE
  5
9E
  8
FISHER_AND_PAYKEL
 62
     7
 10
-174.5998645833336
 20
1851.799788194445
 30
0.0
 11
-174.5998645833336
 21
1813.299738194445
 31
0.0
  0
LINE
  5
9F
  8
FISHER_AND_PAYKEL
 62
     7
 10
-174.5998645833336
 20
1851.799788194445
 30
0.0
 11
-174.5998645833336
 21
1863.299946875
 31
0.0
  0
LINE
  5
A0
  8
FISHER_AND_PAYKEL
 62
     7
 10
-174.5998645833336
 20
1901.799952777778
 30
0.0
 11
-174.5998645833336
 21
1940.299958680555
 31
0.0
  0
LINE
  5
A1
  8
FISHER_AND_PAYKEL
 62
     7
 10
0.0
 20
1851.799788194445
 30
0.0
 11
0.0
 21
1863.299946875
 31
0.0
  0
LINE
  5
A2
  8
FISHER_AND_PAYKEL
 62
     7
 10
0.0
 20
1901.799952777778
 30
0.0
 11
0.0
 21
1940.299958680555
 31
0.0
  0
LINE
  5
A3
  8
FISHER_AND_PAYKEL
 62
     7
 10
174.6001291666666
 20
1901.799952777778
 30
0.0
 11
174.6001291666666
 21
1863.299946875
 31
0.0
  0
LINE
  5
A4
  8
FISHER_AND_PAYKEL
 62
     7
 10
174.6001291666666
 20
1851.799788194445
 30
0.0
 11
174.6001291666666
 21
1813.299738194445
 31
0.0
  0
LINE
  5
A5
  8
FISHER_AND_PAYKEL
 62
     7
 10
174.6001291666666
 20
1851.799788194445
 30
0.0
 11
174.6001291666666
 21
1863.299946875
 31
0.0
  0
LINE
  5
A6
  8
FISHER_AND_PAYKEL
 62
     7
 10
174.6001291666666
 20
1901.799952777778
 30
0.0
 11
174.6001291666666
 21
1940.299958680555
 31
0.0
  0
LINE
  5
A7
  8
FISHER_AND_PAYKEL
 62
     7
 10
327.0001291666663
 20
1901.799952777778
 30
0.0
 11
327.0001291666663
 21
1863.299946875
 31
0.0
  0
LINE
  5
A8
  8
FISHER_AND_PAYKEL
 62
     7
 10
327.0001291666663
 20
1851.799788194445
 30
0.0
 11
327.0001291666663
 21
1813.299738194445
 31
0.0
  0
LINE
  5
A9
  8
FISHER_AND_PAYKEL
 62
     7
 10
327.0001291666663
 20
1851.799788194445
 30
0.0
 11
327.0001291666663
 21
1863.299946875
 31
0.0
  0
LINE
  5
AA
  8
FISHER_AND_PAYKEL
 62
     7
 10
327.0001291666663
 20
1901.799952777778
 30
0.0
 11
327.0001291666663
 21
1940.299958680555
 31
0.0
  0
LINE
  5
AB
  8
FISHER_AND_PAYKEL
 62
     7
 10
345.2000229166665
 20
1545.799946875
 30
0.0
 11
345.2000229166665
 21
1507.299896875
 31
0.0
  0
LINE
  5
AC
  8
FISHER_AND_PAYKEL
 62
     7
 10
345.2000229166665
 20
1495.800046875
 30
0.0
 11
345.2000229166665
 21
1457.299996875
 31
0.0
  0
LINE
  5
AD
  8
FISHER_AND_PAYKEL
 62
     7
 10
345.2000229166665
 20
783.799858680556
 30
0.0
 11
345.2000229166665
 21
745.2999850694448
 31
0.0
  0
LINE
  5
AE
  8
FISHER_AND_PAYKEL
 62
     7
 10
345.2000229166665
 20
733.7998263888893
 30
0.0
 11
345.2000229166665
 21
695.299908680556
 31
0.0
  0
LINE
  5
AF
  8
FISHER_AND_PAYKEL
 62
     7
 10
345.2000229166665
 20
275.7999468750002
 30
0.0
 11
345.2000229166665
 21
237.2998968750003
 31
0.0
  0
LINE
  5
B0
  8
FISHER_AND_PAYKEL
 62
     7
 10
345.2000229166665
 20
225.7999145833336
 30
0.0
 11
345.2000229166665
 21
187.2998645833338
 31
0.0
  0
LINE
  5
B1
  8
FISHER_AND_PAYKEL
 62
     7
 10
345.2000229166665
 20
225.7999145833336
 30
0.0
 11
345.2000229166665
 21
237.2998968750003
 31
0.0
  0
LINE
  5
B2
  8
FISHER_AND_PAYKEL
 62
     7
 10
345.2000229166665
 20
275.7999468750002
 30
0.0
 11
345.2000229166665
 21
314.2999527777782
 31
0.0
  0
LINE
  5
B3
  8
FISHER_AND_PAYKEL
 62
     7
 10
345.2000229166665
 20
733.7998263888893
 30
0.0
 11
345.2000229166665
 21
745.2999850694448
 31
0.0
  0
LINE
  5
B4
  8
FISHER_AND_PAYKEL
 62
     7
 10
345.2000229166665
 20
783.799858680556
 30
0.0
 11
345.2000229166665
 21
822.2998645833337
 31
0.0
  0
LINE
  5
B5
  8
FISHER_AND_PAYKEL
 62
     7
 10
345.2000229166665
 20
1495.800046875
 30
0.0
 11
345.2000229166665
 21
1507.299896875
 31
0.0
  0
LINE
  5
B6
  8
FISHER_AND_PAYKEL
 62
     7
 10
345.2000229166665
 20
1545.799946875
 30
0.0
 11
345.2000229166665
 21
1584.299952777778
 31
0.0
  0
LINE
  5
B7
  8
FISHER_AND_PAYKEL
 62
     7
 10
377.8000850694443
 20
0.0000000000003411
 30
0.0
 11
377.8000850694443
 21
205.7998840277781
 31
0.0
  0
LINE
  5
B8
  8
FISHER_AND_PAYKEL
 62
     7
 10
377.8000850694443
 20
205.7998840277781
 30
0.0
 11
377.8000850694443
 21
295.7999333333337
 31
0.0
  0
LINE
  5
B9
  8
FISHER_AND_PAYKEL
 62
     7
 10
377.8000850694443
 20
295.7999333333337
 30
0.0
 11
377.8000850694443
 21
713.7999722222226
 31
0.0
  0
LINE
  5
BA
  8
FISHER_AND_PAYKEL
 62
     7
 10
377.8000850694443
 20
713.7999722222226
 30
0.0
 11
377.8000850694443
 21
803.7998451388893
 31
0.0
  0
LINE
  5
BB
  8
FISHER_AND_PAYKEL
 62
     7
 10
377.8000850694443
 20
803.7998451388893
 30
0.0
 11
377.8000850694443
 21
1475.799884027778
 31
0.0
  0
LINE
  5
BC
  8
FISHER_AND_PAYKEL
 62
     7
 10
377.8000850694443
 20
1475.799884027778
 30
0.0
 11
377.8000850694443
 21
1565.799801041667
 31
0.0
  0
LINE
  5
BD
  8
FISHER_AND_PAYKEL
 62
     7
 10
377.8000850694443
 20
1565.799801041667
 30
0.0
 11
377.8000850694443
 21
2028.799908680556
 31
0.0
  0
LINE
  5
BE
  8
FISHER_AND_PAYKEL
 62
     7
 10
345.2000229166665
 20
1495.800046875
 30
0.0
 11
306.700149305555
 21
1495.800046875
 31
0.0
  0
LINE
  5
BF
  8
FISHER_AND_PAYKEL
 62
     7
 10
-345.1999347222225
 20
1495.800046875
 30
0.0
 11
-383.6999406250002
 21
1495.800046875
 31
0.0
  0
LINE
  5
C0
  8
FISHER_AND_PAYKEL
 62
     7
 10
-345.1999347222225
 20
1495.800046875
 30
0.0
 11
-306.6998847222224
 21
1495.800046875
 31
0.0
  0
LINE
  5
C1
  8
FISHER_AND_PAYKEL
 62
     7
 10
345.2000229166665
 20
1495.800046875
 30
0.0
 11
383.7000729166666
 21
1495.800046875
 31
0.0
  0
LINE
  5
C2
  8
FISHER_AND_PAYKEL
 62
     7
 10
345.2000229166665
 20
1545.799946875
 30
0.0
 11
306.700149305555
 21
1545.799946875
 31
0.0
  0
LINE
  5
C3
  8
FISHER_AND_PAYKEL
 62
     7
 10
-345.1999347222225
 20
1545.799946875
 30
0.0
 11
-383.6999406250002
 21
1545.799946875
 31
0.0
  0
LINE
  5
C4
  8
FISHER_AND_PAYKEL
 62
     7
 10
-345.1999347222225
 20
1545.799946875
 30
0.0
 11
-306.6998847222224
 21
1545.799946875
 31
0.0
  0
LINE
  5
C5
  8
FISHER_AND_PAYKEL
 62
     7
 10
345.2000229166665
 20
1545.799946875
 30
0.0
 11
383.7000729166666
 21
1545.799946875
 31
0.0
  0
LINE
  5
C6
  8
FISHER_AND_PAYKEL
 62
     7
 10
327.0001291666663
 20
1851.799788194445
 30
0.0
 11
288.5000791666666
 21
1851.799788194445
 31
0.0
  0
LINE
  5
C7
  8
FISHER_AND_PAYKEL
 62
     7
 10
174.6001291666666
 20
1851.799788194445
 30
0.0
 11
136.1001232638887
 21
1851.799788194445
 31
0.0
  0
LINE
  5
C8
  8
FISHER_AND_PAYKEL
 62
     7
 10
0.0
 20
1851.799788194445
 30
0.0
 11
-38.49987361111107
 21
1851.799788194445
 31
0.0
  0
LINE
  5
C9
  8
FISHER_AND_PAYKEL
 62
     7
 10
-174.5998645833336
 20
1851.799788194445
 30
0.0
 11
-213.0998704861113
 21
1851.799788194445
 31
0.0
  0
LINE
  5
CA
  8
FISHER_AND_PAYKEL
 62
     7
 10
-326.9998645833334
 20
1851.799788194445
 30
0.0
 11
-365.4998704861114
 21
1851.799788194445
 31
0.0
  0
LINE
  5
CB
  8
FISHER_AND_PAYKEL
 62
     7
 10
-326.9998645833334
 20
1851.799788194445
 30
0.0
 11
-288.4998586805555
 21
1851.799788194445
 31
0.0
  0
LINE
  5
CC
  8
FISHER_AND_PAYKEL
 62
     7
 10
-174.5998645833336
 20
1851.799788194445
 30
0.0
 11
-136.0998586805558
 21
1851.799788194445
 31
0.0
  0
LINE
  5
CD
  8
FISHER_AND_PAYKEL
 62
     7
 10
0.0
 20
1851.799788194445
 30
0.0
 11
38.5000059027775
 21
1851.799788194445
 31
0.0
  0
LINE
  5
CE
  8
FISHER_AND_PAYKEL
 62
     7
 10
174.6001291666666
 20
1851.799788194445
 30
0.0
 11
213.1001350694441
 21
1851.799788194445
 31
0.0
  0
LINE
  5
CF
  8
FISHER_AND_PAYKEL
 62
     7
 10
327.0001291666663
 20
1851.799788194445
 30
0.0
 11
365.5001350694442
 21
1851.799788194445
 31
0.0
  0
LINE
  5
D0
  8
FISHER_AND_PAYKEL
 62
     7
 10
327.0001291666663
 20
1901.799952777778
 30
0.0
 11
288.5000791666666
 21
1901.799952777778
 31
0.0
  0
LINE
  5
D1
  8
FISHER_AND_PAYKEL
 62
     7
 10
174.6001291666666
 20
1901.799952777778
 30
0.0
 11
136.1001232638887
 21
1901.799952777778
 31
0.0
  0
LINE
  5
D2
  8
FISHER_AND_PAYKEL
 62
     7
 10
0.0
 20
1901.799952777778
 30
0.0
 11
-38.49987361111107
 21
1901.799952777778
 31
0.0
  0
LINE
  5
D3
  8
FISHER_AND_PAYKEL
 62
     7
 10
-174.5998645833336
 20
1901.799952777778
 30
0.0
 11
-213.0998704861113
 21
1901.799952777778
 31
0.0
  0
LINE
  5
D4
  8
FISHER_AND_PAYKEL
 62
     7
 10
-326.9998645833334
 20
1901.799952777778
 30
0.0
 11
-365.4998704861114
 21
1901.799952777778
 31
0.0
  0
LINE
  5
D5
  8
FISHER_AND_PAYKEL
 62
     7
 10
-326.9998645833334
 20
1901.799952777778
 30
0.0
 11
-288.4998586805555
 21
1901.799952777778
 31
0.0
  0
LINE
  5
D6
  8
FISHER_AND_PAYKEL
 62
     7
 10
-174.5998645833336
 20
1901.799952777778
 30
0.0
 11
-136.0998586805558
 21
1901.799952777778
 31
0.0
  0
LINE
  5
D7
  8
FISHER_AND_PAYKEL
 62
     7
 10
0.0
 20
1901.799952777778
 30
0.0
 11
38.5000059027775
 21
1901.799952777778
 31
0.0
  0
LINE
  5
D8
  8
FISHER_AND_PAYKEL
 62
     7
 10
174.6001291666666
 20
1901.799952777778
 30
0.0
 11
213.1001350694441
 21
1901.799952777778
 31
0.0
  0
LINE
  5
D9
  8
FISHER_AND_PAYKEL
 62
     7
 10
327.0001291666663
 20
1901.799952777778
 30
0.0
 11
365.5001350694442
 21
1901.799952777778
 31
0.0
  0
LINE
  5
DA
  8
FISHER_AND_PAYKEL
 62
     7
 10
377.8000850694443
 20
2028.799908680556
 30
0.0
 11
-377.7999527777779
 21
2028.799908680556
 31
0.0
  0
CIRCLE
  5
DB
  8
FISHER_AND_PAYKEL
 62
     7
 10
-345.1999162065015
 20
225.7998960676128
 30
0.0
 40
1.000018290006183
  0
CIRCLE
  5
DC
  8
FISHER_AND_PAYKEL
 62
     7
 10
-345.1999162065014
 20
275.7999283592794
 30
0.0
 40
1.000018290006069
  0
CIRCLE
  5
DD
  8
FISHER_AND_PAYKEL
 62
     7
 10
-345.1999162065011
 20
733.799940164835
 30
0.0
 40
1.000018290005842
  0
CIRCLE
  5
DE
  8
FISHER_AND_PAYKEL
 62
     7
 10
-345.1997903855802
 20
783.7998466252354
 30
0.0
 40
0.9998924689861315
  0
CIRCLE
  5
DF
  8
FISHER_AND_PAYKEL
 62
     7
 10
-345.2000291151405
 20
1495.800008972515
 30
0.0
 40
1.000131199192014
  0
CIRCLE
  5
E0
  8
FISHER_AND_PAYKEL
 62
     7
 10
-345.2000291151402
 20
1545.799908972516
 30
0.0
 40
1.00013119919173
  0
CIRCLE
  5
E1
  8
FISHER_AND_PAYKEL
 62
     7
 10
-326.999965439433
 20
1901.799921337621
 30
0.0
 40
1.000137662149234
  0
CIRCLE
  5
E2
  8
FISHER_AND_PAYKEL
 62
     7
 10
-326.9997331582194
 20
1851.79978905236
 30
0.0
 40
0.9999053804418436
  0
CIRCLE
  5
E3
  8
FISHER_AND_PAYKEL
 62
     7
 10
-174.599937204565
 20
1901.799893106488
 30
0.0
 40
1.000109428567327
  0
CIRCLE
  5
E4
  8
FISHER_AND_PAYKEL
 62
     7
 10
-174.599704936464
 20
1851.799760826872
 30
0.0
 40
0.9998771590607556
  0
CIRCLE
  5
E5
  8
FISHER_AND_PAYKEL
 62
     7
 10
345.2001672533083
 20
783.7998466252354
 30
0.0
 40
0.9998924689861315
  0
CIRCLE
  5
E6
  8
FISHER_AND_PAYKEL
 62
     7
 10
345.2000414323873
 20
733.7999401648353
 30
0.0
 40
1.000018290005956
  0
CIRCLE
  5
E7
  8
FISHER_AND_PAYKEL
 62
     7
 10
345.2000414323871
 20
275.7999283592796
 30
0.0
 40
1.000018290006126
  0
CIRCLE
  5
E8
  8
FISHER_AND_PAYKEL
 62
     7
 10
345.200041432387
 20
225.799896067613
 30
0.0
 40
1.00001829000624
  0
CIRCLE
  5
E9
  8
FISHER_AND_PAYKEL
 62
     7
 10
174.6002888135358
 20
1851.799760826872
 30
0.0
 40
0.9998771590606987
  0
CIRCLE
  5
EA
  8
FISHER_AND_PAYKEL
 62
     7
 10
174.6000565454348
 20
1901.799893106487
 30
0.0
 40
1.000109428567299
  0
CIRCLE
  5
EB
  8
FISHER_AND_PAYKEL
 62
     7
 10
327.0002070944782
 20
1851.799798458093
 30
0.0
 40
0.9999147805743109
  0
CIRCLE
  5
EC
  8
FISHER_AND_PAYKEL
 62
     7
 10
326.9999747927815
 20
1901.799930751104
 30
0.0
 40
1.000147082460956
  0
CIRCLE
  5
ED
  8
FISHER_AND_PAYKEL
 62
     7
 10
345.1999285237479
 20
1545.799908972516
 30
0.0
 40
1.000131199192071
  0
CIRCLE
  5
EE
  8
FISHER_AND_PAYKEL
 62
     7
 10
345.1999285237484
 20
1495.800008972516
 30
0.0
 40
1.00013119919156
  0
CIRCLE
  5
EF
  8
FISHER_AND_PAYKEL
 62
     7
 10
0.0002919385356445
 20
1851.799760826872
 30
0.0
 40
0.999877159061063
  0
CIRCLE
  5
F0
  8
FISHER_AND_PAYKEL
 62
     7
 10
0.0000596704350219
 20
1901.799893106488
 30
0.0
 40
1.000109428567284
  0
LINE
  5
F1
  8
FISHER_AND_PAYKEL
 62
     7
 10
475.2830802083331
 20
995.738649305556
 30
0.0
 11
512.7830934027775
 21
995.738649305556
 31
0.0
  0
LINE
  5
F2
  8
FISHER_AND_PAYKEL
 62
     7
 10
354.9125243055551
 20
803.7998451388893
 30
0.0
 11
475.2830802083331
 21
995.738649305556
 31
0.0
  0
POLYLINE
  5
F3
  8
FISHER_AND_PAYKEL
  6
DASHED
 62
     7
 66
     1
 10
0.0
 20
0.0
 30
0.0
  0
VERTEX
  5
F4
  8
FISHER_AND_PAYKEL
  6
DASHED
 62
     7
 10
377.8000850694443
 20
295.7999333333337
 30
0.0
  0
VERTEX
  5
F5
  8
FISHER_AND_PAYKEL
  6
DASHED
 62
     7
 10
317.8000815972218
 20
295.7999333333337
 30
0.0
  0
VERTEX
  5
F6
  8
FISHER_AND_PAYKEL
  6
DASHED
 62
     7
 10
317.8000815972218
 20
205.7998840277781
 30
0.0
  0
VERTEX
  5
F7
  8
FISHER_AND_PAYKEL
  6
DASHED
 62
     7
 10
377.8000850694443
 20
205.7998840277781
 30
0.0
  0
SEQEND
  5
F8
  8
FISHER_AND_PAYKEL
  6
DASHED
 62
     7
  0
POLYLINE
  5
F9
  8
FISHER_AND_PAYKEL
  6
DASHED
 62
     7
 66
     1
 10
0.0
 20
0.0
 30
0.0
  0
VERTEX
  5
FA
  8
FISHER_AND_PAYKEL
  6
DASHED
 62
     7
 10
377.8000850694443
 20
803.7998451388893
 30
0.0
  0
VERTEX
  5
FB
  8
FISHER_AND_PAYKEL
  6
DASHED
 62
     7
 10
317.8000815972218
 20
803.7998451388893
 30
0.0
  0
VERTEX
  5
FC
  8
FISHER_AND_PAYKEL
  6
DASHED
 62
     7
 10
317.8000815972218
 20
713.7999722222226
 30
0.0
  0
VERTEX
  5
FD
  8
FISHER_AND_PAYKEL
  6
DASHED
 62
     7
 10
377.8000850694443
 20
713.7999722222226
 30
0.0
  0
SEQEND
  5
FE
  8
FISHER_AND_PAYKEL
  6
DASHED
 62
     7
  0
POLYLINE
  5
FF
  8
FISHER_AND_PAYKEL
  6
DASHED
 62
     7
 66
     1
 10
0.0
 20
0.0
 30
0.0
  0
VERTEX
  5
100
  8
FISHER_AND_PAYKEL
  6
DASHED
 62
     7
 10
377.8000850694443
 20
1565.799801041667
 30
0.0
  0
VERTEX
  5
101
  8
FISHER_AND_PAYKEL
  6
DASHED
 62
     7
 10
317.8000815972218
 20
1565.799801041667
 30
0.0
  0
VERTEX
  5
102
  8
FISHER_AND_PAYKEL
  6
DASHED
 62
     7
 10
317.8000815972218
 20
1475.799884027778
 30
0.0
  0
VERTEX
  5
103
  8
FISHER_AND_PAYKEL
  6
DASHED
 62
     7
 10
377.8000850694443
 20
1475.799884027778
 30
0.0
  0
SEQEND
  5
104
  8
FISHER_AND_PAYKEL
  6
DASHED
 62
     7
  0
LINE
  5
105
  8
FISHER_AND_PAYKEL
 62
     7
 10
0.0
 20
1851.799788194445
 30
0.0
 11
-0.0000000000002274
 21
1813.299738194445
 31
0.0
  0
LINE
  5
106
  8
FISHER_AND_PAYKEL
 62
     7
 10
0.0
 20
1901.799952777778
 30
0.0
 11
0.0
 21
1863.299946875
 31
0.0
  0
POLYLINE
  5
107
  8
FISHER_AND_PAYKEL
  6
DASHED
 66
     1
 10
0.0
 20
0.0
 30
0.0
  0
VERTEX
  5
108
  8
FISHER_AND_PAYKEL
  6
DASHED
 10
377.8000850694443
 20
0.0000000000003411
 30
0.0
  0
VERTEX
  5
109
  8
FISHER_AND_PAYKEL
  6
DASHED
 10
377.8000850694443
 20
-50.79999999999966
 30
0.0
  0
VERTEX
  5
10A
  8
FISHER_AND_PAYKEL
  6
DASHED
 10
-377.7999527777779
 20
-50.79999999999966
 30
0.0
  0
VERTEX
  5
10B
  8
FISHER_AND_PAYKEL
  6
DASHED
 10
-377.7999527777779
 20
0.0000000000003411
 30
0.0
  0
SEQEND
  5
10C
  8
FISHER_AND_PAYKEL
  6
DASHED
  0
POLYLINE
  5
10D
  8
FISHER_AND_PAYKEL
  6
DASHED
 62
     7
 66
     1
 10
0.0
 20
0.0
 30
0.0
  0
VERTEX
  5
10E
  8
FISHER_AND_PAYKEL
  6
DASHED
 62
     7
 10
-377.8000850694448
 20
1565.799801041667
 30
0.0
  0
VERTEX
  5
10F
  8
FISHER_AND_PAYKEL
  6
DASHED
 62
     7
 10
-317.8000815972223
 20
1565.799801041667
 30
0.0
  0
VERTEX
  5
110
  8
FISHER_AND_PAYKEL
  6
DASHED
 62
     7
 10
-317.8000815972223
 20
1475.799884027778
 30
0.0
  0
VERTEX
  5
111
  8
FISHER_AND_PAYKEL
  6
DASHED
 62
     7
 10
-377.8000850694448
 20
1475.799884027778
 30
0.0
  0
SEQEND
  5
112
  8
FISHER_AND_PAYKEL
  6
DASHED
 62
     7
  0
POLYLINE
  5
113
  8
FISHER_AND_PAYKEL
  6
DASHED
 62
     7
 66
     1
 10
0.0
 20
0.0
 30
0.0
  0
VERTEX
  5
114
  8
FISHER_AND_PAYKEL
  6
DASHED
 62
     7
 10
-377.8000850694448
 20
803.7998451388893
 30
0.0
  0
VERTEX
  5
115
  8
FISHER_AND_PAYKEL
  6
DASHED
 62
     7
 10
-317.8000815972223
 20
803.7998451388893
 30
0.0
  0
VERTEX
  5
116
  8
FISHER_AND_PAYKEL
  6
DASHED
 62
     7
 10
-317.8000815972223
 20
713.7999722222226
 30
0.0
  0
VERTEX
  5
117
  8
FISHER_AND_PAYKEL
  6
DASHED
 62
     7
 10
-377.8000850694448
 20
713.7999722222226
 30
0.0
  0
SEQEND
  5
118
  8
FISHER_AND_PAYKEL
  6
DASHED
 62
     7
  0
POLYLINE
  5
119
  8
FISHER_AND_PAYKEL
  6
DASHED
 62
     7
 66
     1
 10
0.0
 20
0.0
 30
0.0
  0
VERTEX
  5
11A
  8
FISHER_AND_PAYKEL
  6
DASHED
 62
     7
 10
-377.8000850694448
 20
295.7999333333337
 30
0.0
  0
VERTEX
  5
11B
  8
FISHER_AND_PAYKEL
  6
DASHED
 62
     7
 10
-317.8000815972223
 20
295.7999333333337
 30
0.0
  0
VERTEX
  5
11C
  8
FISHER_AND_PAYKEL
  6
DASHED
 62
     7
 10
-317.8000815972223
 20
205.7998840277781
 30
0.0
  0
VERTEX
  5
11D
  8
FISHER_AND_PAYKEL
  6
DASHED
 62
     7
 10
-377.8000850694448
 20
205.7998840277781
 30
0.0
  0
SEQEND
  5
11E
  8
FISHER_AND_PAYKEL
  6
DASHED
 62
     7
  0
INSERT
  5
11F
  8
FISHER_AND_PAYKEL
  2
*X1
 10
0.0
 20
0.0
 30
0.0
  0
LINE
  5
121
  8
FISHER_AND_PAYKEL
  6
1_59594_1_59601_5_36087_1_
 10
0.0
 20
2161.132840087572
 30
0.0
 11
0.0
 21
1979.195695346498
 31
0.0
  0
LINE
  5
122
  8
FISHER_AND_PAYKEL
  6
1_59594_1_59601_5_36087_1_
 10
0.0
 20
1774.404266111834
 30
0.0
 11
0.0
 21
-137.7727230712212
 31
0.0
  0
TEXT
  5
123
  8
FISHER_AND_PAYKEL
  6
CONTINUOUS
 10
401.5040850694443
 20
102.0000000000003
 30
0.0
 40
12.0
  1
DOOR LENGTH FOR:
  0
TEXT
  5
124
  8
FISHER_AND_PAYKEL
  6
CONTINUOUS
 10
402.5840850694443
 20
0.4000000000003325
 30
0.0
 40
12.0
  1
4" (101.6mm) TOEKICK
  0
TEXT
  5
125
  8
FISHER_AND_PAYKEL
  6
CONTINUOUS
 10
402.3080850694443
 20
-50.39999999999968
 30
0.0
 40
12.0
  1
2" (50.8mm) TOEKICK
  0
TEXT
  5
126
  8
FISHER_AND_PAYKEL
  6
CONTINUOUS
 10
402.1760850694443
 20
51.20000000000033
 30
0.0
 40
12.0
  1
6" (152.4mm) TOEKICK
  0
LINE
  5
127
  8
FISHER_AND_PAYKEL
 62
     7
 10
448.8829479166661
 20
2095.969402083333
 30
0.0
 11
512.3829611111105
 21
2095.969402083333
 31
0.0
  0
POLYLINE
  5
128
  8
FISHER_AND_PAYKEL
 62
     7
 66
     1
 10
0.0
 20
0.0
 30
0.0
 70
     1
  0
VERTEX
  5
129
  8
FISHER_AND_PAYKEL
 62
     7
 10
328.5123920138885
 20
1904.030597916667
 30
0.0
  0
VERTEX
  5
12A
  8
FISHER_AND_PAYKEL
 62
     7
 10
349.7823343749992
 20
1949.710557638889
 30
0.0
  0
VERTEX
  5
12B
  8
FISHER_AND_PAYKEL
 62
     7
 10
360.3721059027775
 20
1943.069295486111
 30
0.0
  0
SEQEND
  5
12C
  8
FISHER_AND_PAYKEL
 62
     7
  0
LINE
  5
12D
  8
FISHER_AND_PAYKEL
 62
     7
 10
328.5123920138881
 20
1904.030597916667
 30
0.0
 11
448.8829479166661
 21
2095.969402083333
 31
0.0
  0
INSERT
  5
12E
  8
FISHER_AND_PAYKEL
  2
*X2
 10
0.0
 20
0.0
 30
0.0
  0
ENDSEC
  0
EOF
