  0
SECTION
  2
HEADER
  9
$ACADVER
  1
AC1021
  9
$ACADMAINTVER
 70
    25
  9
$DWGCODEPAGE
  3
ANSI_1252
  9
$INSBASE
 10
0.0
 20
0.0
 30
0.0
  9
$EXTMIN
 10
1.000000000000000E+20
 20
1.000000000000000E+20
 30
1.000000000000000E+20
  9
$EXTMAX
 10
-1.000000000000000E+20
 20
-1.000000000000000E+20
 30
-1.000000000000000E+20
  9
$LIMMIN
 10
0.0
 20
0.0
  9
$LIMMAX
 10
12.0
 20
9.0
  9
$ORTHOMODE
 70
     0
  9
$REGENMODE
 70
     1
  9
$FILLMODE
 70
     1
  9
$QTEXTMODE
 70
     0
  9
$MIRRTEXT
 70
     1
  9
$LTSCALE
 40
1.0
  9
$ATTMODE
 70
     1
  9
$TEXTSIZE
 40
0.2
  9
$TRACEWID
 40
0.05
  9
$TEXTSTYLE
  7
Standard
  9
$CLAYER
  8
FISHER & PAYKEL
  9
$CELTYPE
  6
ByLayer
  9
$CECOLOR
 62
   256
  9
$CELTSCALE
 40
1.0
  9
$DISPSILH
 70
     0
  9
$DIMSCALE
 40
1.0
  9
$DIMASZ
 40
0.18
  9
$DIMEXO
 40
0.0625
  9
$DIMDLI
 40
0.38
  9
$DIMRND
 40
0.0
  9
$DIMDLE
 40
0.0
  9
$DIMEXE
 40
0.18
  9
$DIMTP
 40
0.0
  9
$DIMTM
 40
0.0
  9
$DIMTXT
 40
0.18
  9
$DIMCEN
 40
0.09
  9
$DIMTSZ
 40
0.0
  9
$DIMTOL
 70
     0
  9
$DIMLIM
 70
     0
  9
$DIMTIH
 70
     1
  9
$DIMTOH
 70
     1
  9
$DIMSE1
 70
     0
  9
$DIMSE2
 70
     0
  9
$DIMTAD
 70
     0
  9
$DIMZIN
 70
     0
  9
$DIMBLK
  1

  9
$DIMASO
 70
     1
  9
$DIMSHO
 70
     1
  9
$DIMPOST
  1

  9
$DIMAPOST
  1

  9
$DIMALT
 70
     0
  9
$DIMALTD
 70
     2
  9
$DIMALTF
 40
25.4
  9
$DIMLFAC
 40
1.0
  9
$DIMTOFL
 70
     0
  9
$DIMTVP
 40
0.0
  9
$DIMTIX
 70
     0
  9
$DIMSOXD
 70
     0
  9
$DIMSAH
 70
     0
  9
$DIMBLK1
  1

  9
$DIMBLK2
  1

  9
$DIMSTYLE
  2
STANDARD_ACAD
  9
$DIMCLRD
 70
     0
  9
$DIMCLRE
 70
     0
  9
$DIMCLRT
 70
     0
  9
$DIMTFAC
 40
1.0
  9
$DIMGAP
 40
0.09
  9
$DIMJUST
 70
     0
  9
$DIMSD1
 70
     0
  9
$DIMSD2
 70
     0
  9
$DIMTOLJ
 70
     1
  9
$DIMTZIN
 70
     0
  9
$DIMALTZ
 70
     0
  9
$DIMALTTZ
 70
     0
  9
$DIMUPT
 70
     0
  9
$DIMDEC
 70
     4
  9
$DIMTDEC
 70
     4
  9
$DIMALTU
 70
     2
  9
$DIMALTTD
 70
     2
  9
$DIMTXSTY
  7
Standard
  9
$DIMAUNIT
 70
     0
  9
$DIMADEC
 70
     0
  9
$DIMALTRND
 40
0.0
  9
$DIMAZIN
 70
     0
  9
$DIMDSEP
 70
    46
  9
$DIMATFIT
 70
     3
  9
$DIMFRAC
 70
     0
  9
$DIMLDRBLK
  1

  9
$DIMLUNIT
 70
     2
  9
$DIMLWD
 70
    -2
  9
$DIMLWE
 70
    -2
  9
$DIMTMOVE
 70
     2
  9
$DIMFXL
 40
1.0
  9
$DIMFXLON
 70
     0
  9
$DIMJOGANG
 40
0.7853981633974483
  9
$DIMTFILL
 70
     0
  9
$DIMTFILLCLR
 70
     0
  9
$DIMARCSYM
 70
     0
  9
$DIMLTYPE
  6

  9
$DIMLTEX1
  6

  9
$DIMLTEX2
  6

  9
$LUNITS
 70
     2
  9
$LUPREC
 70
     3
  9
$SKETCHINC
 40
0.1
  9
$FILLETRAD
 40
0.5
  9
$AUNITS
 70
     0
  9
$AUPREC
 70
     0
  9
$MENU
  1
.
  9
$ELEVATION
 40
0.0
  9
$PELEVATION
 40
0.0
  9
$THICKNESS
 40
0.0
  9
$LIMCHECK
 70
     0
  9
$CHAMFERA
 40
0.0
  9
$CHAMFERB
 40
0.0
  9
$CHAMFERC
 40
0.0
  9
$CHAMFERD
 40
0.0
  9
$SKPOLY
 70
     0
  9
$TDCREATE
 40
2460283.531248808
  9
$TDUCREATE
 40
2460282.989582141
  9
$TDUPDATE
 40
2460283.531267083
  9
$TDUUPDATE
 40
2460282.989600417
  9
$TDINDWG
 40
0.0000000116
  9
$TDUSRTIMER
 40
0.0000000116
  9
$USRTIMER
 70
     1
  9
$ANGBASE
 50
0.0
  9
$ANGDIR
 70
     0
  9
$PDMODE
 70
     0
  9
$PDSIZE
 40
0.0
  9
$PLINEWID
 40
0.0
  9
$SPLFRAME
 70
     0
  9
$SPLINETYPE
 70
     6
  9
$SPLINESEGS
 70
     8
  9
$HANDSEED
  5
31F
  9
$SURFTAB1
 70
     6
  9
$SURFTAB2
 70
     6
  9
$SURFTYPE
 70
     6
  9
$SURFU
 70
     6
  9
$SURFV
 70
     6
  9
$UCSBASE
  2

  9
$UCSNAME
  2

  9
$UCSORG
 10
0.0
 20
0.0
 30
0.0
  9
$UCSXDIR
 10
1.0
 20
0.0
 30
0.0
  9
$UCSYDIR
 10
0.0
 20
1.0
 30
0.0
  9
$UCSORTHOREF
  2

  9
$UCSORTHOVIEW
 70
     0
  9
$UCSORGTOP
 10
0.0
 20
0.0
 30
0.0
  9
$UCSORGBOTTOM
 10
0.0
 20
0.0
 30
0.0
  9
$UCSORGLEFT
 10
0.0
 20
0.0
 30
0.0
  9
$UCSORGRIGHT
 10
0.0
 20
0.0
 30
0.0
  9
$UCSORGFRONT
 10
0.0
 20
0.0
 30
0.0
  9
$UCSORGBACK
 10
0.0
 20
0.0
 30
0.0
  9
$PUCSBASE
  2

  9
$PUCSNAME
  2

  9
$PUCSORG
 10
0.0
 20
0.0
 30
0.0
  9
$PUCSXDIR
 10
1.0
 20
0.0
 30
0.0
  9
$PUCSYDIR
 10
0.0
 20
1.0
 30
0.0
  9
$PUCSORTHOREF
  2

  9
$PUCSORTHOVIEW
 70
     0
  9
$PUCSORGTOP
 10
0.0
 20
0.0
 30
0.0
  9
$PUCSORGBOTTOM
 10
0.0
 20
0.0
 30
0.0
  9
$PUCSORGLEFT
 10
0.0
 20
0.0
 30
0.0
  9
$PUCSORGRIGHT
 10
0.0
 20
0.0
 30
0.0
  9
$PUCSORGFRONT
 10
0.0
 20
0.0
 30
0.0
  9
$PUCSORGBACK
 10
0.0
 20
0.0
 30
0.0
  9
$USERI1
 70
     0
  9
$USERI2
 70
     0
  9
$USERI3
 70
     0
  9
$USERI4
 70
     0
  9
$USERI5
 70
     0
  9
$USERR1
 40
0.0
  9
$USERR2
 40
0.0
  9
$USERR3
 40
0.0
  9
$USERR4
 40
0.0
  9
$USERR5
 40
0.0
  9
$WORLDVIEW
 70
     1
  9
$SHADEDGE
 70
     3
  9
$SHADEDIF
 70
    70
  9
$TILEMODE
 70
     1
  9
$MAXACTVP
 70
    64
  9
$PINSBASE
 10
0.0
 20
0.0
 30
0.0
  9
$PLIMCHECK
 70
     0
  9
$PEXTMIN
 10
1.000000000000000E+20
 20
1.000000000000000E+20
 30
1.000000000000000E+20
  9
$PEXTMAX
 10
-1.000000000000000E+20
 20
-1.000000000000000E+20
 30
-1.000000000000000E+20
  9
$PLIMMIN
 10
0.0
 20
0.0
  9
$PLIMMAX
 10
12.0
 20
9.0
  9
$UNITMODE
 70
     0
  9
$VISRETAIN
 70
     1
  9
$PLINEGEN
 70
     0
  9
$PSLTSCALE
 70
     1
  9
$TREEDEPTH
 70
  3020
  9
$CMLSTYLE
  2
Standard
  9
$CMLJUST
 70
     0
  9
$CMLSCALE
 40
1.0
  9
$PROXYGRAPHICS
 70
     1
  9
$MEASUREMENT
 70
     1
  9
$CELWEIGHT
370
    -1
  9
$ENDCAPS
280
     0
  9
$JOINSTYLE
280
     0
  9
$LWDISPLAY
290
     0
  9
$INSUNITS
 70
     4
  9
$HYPERLINKBASE
  1

  9
$STYLESHEET
  1

  9
$XEDIT
290
     1
  9
$CEPSNTYPE
380
     0
  9
$PSTYLEMODE
290
     1
  9
$FINGERPRINTGUID
  2
{ecee48be-6cb3-425e-9595-d40075c2cf95}
  9
$VERSIONGUID
  2
{FAEB1C32-E019-11D5-929B-00C0DF256EC4}
  9
$EXTNAMES
290
     1
  9
$PSVPSCALE
 40
0.0
  9
$OLESTARTUP
290
     0
  9
$SORTENTS
280
   127
  9
$INDEXCTL
280
     0
  9
$HIDETEXT
280
     1
  9
$XCLIPFRAME
290
     0
  9
$HALOGAP
280
     0
  9
$OBSCOLOR
 70
   257
  9
$OBSLTYPE
280
     0
  9
$INTERSECTIONDISPLAY
280
     0
  9
$INTERSECTIONCOLOR
 70
   257
  9
$DIMASSOC
280
     2
  9
$PROJECTNAME
  1

  9
$CAMERADISPLAY
290
     0
  9
$LENSLENGTH
 40
50.0
  9
$CAMERAHEIGHT
 40
0.0
  9
$STEPSPERSEC
 40
2.0
  9
$STEPSIZE
 40
6.0
  9
$3DDWFPREC
 40
2.0
  9
$PSOLWIDTH
 40
0.25
  9
$PSOLHEIGHT
 40
4.0
  9
$LOFTANG1
 40
1.570796326794897
  9
$LOFTANG2
 40
1.570796326794897
  9
$LOFTMAG1
 40
0.0
  9
$LOFTMAG2
 40
0.0
  9
$LOFTPARAM
 70
     7
  9
$LOFTNORMALS
280
     1
  9
$LATITUDE
 40
37.795
  9
$LONGITUDE
 40
-122.394
  9
$NORTHDIRECTION
 40
0.0
  9
$TIMEZONE
 70
 -8000
  9
$LIGHTGLYPHDISPLAY
280
     1
  9
$TILEMODELIGHTSYNCH
280
     1
  9
$CMATERIAL
347
44
  9
$SOLIDHIST
280
     0
  9
$SHOWHIST
280
     1
  9
$DWFFRAME
280
     2
  9
$DGNFRAME
280
     2
  9
$REALWORLDSCALE
290
     1
  9
$INTERFERECOLOR
 62
   256
  9
$CSHADOW
280
     0
  9
$SHADOWPLANELOCATION
 40
0.0
  0
ENDSEC
  0
SECTION
  2
CLASSES
  0
CLASS
  1
ACDBDICTIONARYWDFLT
  2
AcDbDictionaryWithDefault
  3
ObjectDBX Classes
 90
        0
 91
        3
280
     0
281
     0
  0
CLASS
  1
VISUALSTYLE
  2
AcDbVisualStyle
  3
ObjectDBX Classes
 90
     4095
 91
        3
280
     0
281
     0
  0
CLASS
  1
MATERIAL
  2
AcDbMaterial
  3
ObjectDBX Classes
 90
     1153
 91
        3
280
     0
281
     0
  0
CLASS
  1
SCALE
  2
AcDbScale
  3
ObjectDBX Classes
 90
     1153
 91
        3
280
     0
281
     0
  0
CLASS
  1
TABLESTYLE
  2
AcDbTableStyle
  3
ObjectDBX Classes
 90
     4095
 91
        3
280
     0
281
     0
  0
CLASS
  1
MLEADERSTYLE
  2
AcDbMLeaderStyle
  3
ACDB_MLEADERSTYLE_CLASS
 90
     4095
 91
        3
280
     0
281
     0
  0
CLASS
  1
SUN
  2
AcDbSun
  3
SCENEOE
 90
     1153
 91
        3
280
     0
281
     0
  0
CLASS
  1
DICTIONARYVAR
  2
AcDbDictionaryVar
  3
ObjectDBX Classes
 90
        0
 91
        3
280
     0
281
     0
  0
CLASS
  1
CELLSTYLEMAP
  2
AcDbCellStyleMap
  3
ObjectDBX Classes
 90
     1152
 91
        3
280
     0
281
     0
  0
ENDSEC
  0
SECTION
  2
TABLES
  0
TABLE
  2
VPORT
  5
8
330
0
100
AcDbSymbolTable
 70
     1
  0
VPORT
  5
29
330
8
100
AcDbSymbolTableRecord
100
AcDbViewportTableRecord
  2
*Active
 70
     0
 10
0.0
 20
0.0
 11
1.0
 21
1.0
 12
10.42990654205607
 22
4.5
 13
0.0
 23
0.0
 14
0.5
 24
0.5
 15
0.5
 25
0.5
 16
0.0
 26
0.0
 36
1.0
 17
0.0
 27
0.0
 37
0.0
 40
9.0
 41
1.972972972850329
 42
50.0
 43
0.0
 44
0.0
 50
0.0
 51
0.0
 71
     0
 72
   100
 73
     1
 74
     3
 75
     0
 76
     0
 77
     0
 78
     0
281
     0
 65
     1
110
0.0
120
0.0
130
0.0
111
1.0
121
0.0
131
0.0
112
0.0
122
1.0
132
0.0
 79
     0
146
0.0
348
2F
 60
     3
 61
     5
292
     1
282
     1
141
0.0
142
0.0
 63
   250
361
6D
  0
ENDTAB
  0
TABLE
  2
LTYPE
  5
5
330
0
100
AcDbSymbolTable
 70
     1
  0
LTYPE
  5
14
330
5
100
AcDbSymbolTableRecord
100
AcDbLinetypeTableRecord
  2
ByBlock
 70
     0
  3

 72
    65
 73
     0
 40
0.0
  0
LTYPE
  5
15
330
5
100
AcDbSymbolTableRecord
100
AcDbLinetypeTableRecord
  2
ByLayer
 70
     0
  3

 72
    65
 73
     0
 40
0.0
  0
LTYPE
  5
16
330
5
100
AcDbSymbolTableRecord
100
AcDbLinetypeTableRecord
  2
Continuous
 70
     0
  3
Solid line
 72
    65
 73
     0
 40
0.0
  0
ENDTAB
  0
TABLE
  2
LAYER
  5
2
330
0
100
AcDbSymbolTable
 70
     2
  0
LAYER
  5
10
330
2
100
AcDbSymbolTableRecord
100
AcDbLayerTableRecord
  2
0
 70
     0
 62
     7
  6
Continuous
370
    -3
390
F
347
46
  0
LAYER
  5
6E
330
2
100
AcDbSymbolTableRecord
100
AcDbLayerTableRecord
  2
FISHER & PAYKEL
 70
     0
 62
    18
420
        0
  6
Continuous
370
    -3
390
F
347
46
  0
ENDTAB
  0
TABLE
  2
STYLE
  5
3
330
0
100
AcDbSymbolTable
 70
     1
  0
STYLE
  5
11
330
3
100
AcDbSymbolTableRecord
100
AcDbTextStyleTableRecord
  2
Standard
 70
     0
 40
0.0
 41
1.0
 50
0.0
 71
     0
 42
0.2
  3
txt
  4

  0
ENDTAB
  0
TABLE
  2
VIEW
  5
6
330
0
100
AcDbSymbolTable
 70
     0
  0
ENDTAB
  0
TABLE
  2
UCS
  5
7
330
0
100
AcDbSymbolTable
 70
     0
  0
ENDTAB
  0
TABLE
  2
APPID
  5
9
330
0
100
AcDbSymbolTable
 70
     2
  0
APPID
  5
12
330
9
100
AcDbSymbolTableRecord
100
AcDbRegAppTableRecord
  2
ACAD
 70
     0
  0
APPID
  5
317
330
9
100
AcDbSymbolTableRecord
100
AcDbRegAppTableRecord
  2
ACAD_MLEADERVER
 70
     0
  0
ENDTAB
  0
TABLE
  2
DIMSTYLE
  5
A
330
0
100
AcDbSymbolTable
 70
     1
100
AcDbDimStyleTable
  0
DIMSTYLE
105
27
330
A
100
AcDbSymbolTableRecord
100
AcDbDimStyleTableRecord
  2
STANDARD_ACAD
 70
     0
178
     0
340
11
  0
ENDTAB
  0
TABLE
  2
BLOCK_RECORD
  5
1
330
0
100
AcDbSymbolTable
 70
     1
  0
BLOCK_RECORD
  5
1F
330
1
100
AcDbSymbolTableRecord
100
AcDbBlockTableRecord
  2
*Model_Space
340
22
 70
     0
280
     1
281
     0
  0
BLOCK_RECORD
  5
1B
330
1
100
AcDbSymbolTableRecord
100
AcDbBlockTableRecord
  2
*Paper_Space
340
1E
 70
     0
280
     1
281
     0
  0
BLOCK_RECORD
  5
23
330
1
100
AcDbSymbolTableRecord
100
AcDbBlockTableRecord
  2
*Paper_Space0
340
26
 70
     0
280
     1
281
     0
  0
ENDTAB
  0
ENDSEC
  0
SECTION
  2
BLOCKS
  0
BLOCK
  5
20
330
1F
100
AcDbEntity
  8
0
100
AcDbBlockBegin
  2
*Model_Space
 70
     0
 10
0.0
 20
0.0
 30
0.0
  3
*Model_Space
  1

  0
ENDBLK
  5
21
330
1F
100
AcDbEntity
  8
0
100
AcDbBlockEnd
  0
BLOCK
  5
1C
330
1B
100
AcDbEntity
 67
     1
  8
0
100
AcDbBlockBegin
  2
*Paper_Space
 70
     0
 10
0.0
 20
0.0
 30
0.0
  3
*Paper_Space
  1

  0
ENDBLK
  5
1D
330
1B
100
AcDbEntity
 67
     1
  8
0
100
AcDbBlockEnd
  0
BLOCK
  5
24
330
23
100
AcDbEntity
  8
0
100
AcDbBlockBegin
  2
*Paper_Space0
 70
     0
 10
0.0
 20
0.0
 30
0.0
  3
*Paper_Space0
  1

  0
ENDBLK
  5
25
330
23
100
AcDbEntity
  8
0
100
AcDbBlockEnd
  0
ENDSEC
  0
SECTION
  2
ENTITIES
  0
LINE
  5
6F
330
1F
100
AcDbEntity
  8
FISHER & PAYKEL
  6
Continuous
 62
    18
420
        0
370
    25
100
AcDbLine
 10
1070.697606993383
 20
664.2418434539254
 30
0.0
 11
310.6976069933831
 21
664.2418434539254
 31
0.0
  0
LINE
  5
70
330
1F
100
AcDbEntity
  8
FISHER & PAYKEL
  6
Continuous
 62
    18
420
        0
370
    25
100
AcDbLine
 10
1070.697606993383
 20
667.2418434539253
 30
0.0
 11
1070.697606993383
 21
664.2418434539254
 31
0.0
  0
LINE
  5
71
330
1F
100
AcDbEntity
  8
FISHER & PAYKEL
  6
Continuous
 62
    18
420
        0
370
    25
100
AcDbLine
 10
310.6976069933831
 20
667.2418434539253
 30
0.0
 11
310.6976069933831
 21
664.2418434539254
 31
0.0
  0
LINE
  5
72
330
1F
100
AcDbEntity
  8
FISHER & PAYKEL
  6
Continuous
 62
    18
420
        0
370
    25
100
AcDbLine
 10
310.6976069933831
 20
667.2418434539253
 30
0.0
 11
1070.697606993383
 21
667.2418434539253
 31
0.0
  0
LINE
  5
73
330
1F
100
AcDbEntity
  8
FISHER & PAYKEL
  6
Continuous
 62
    18
420
        0
370
    25
100
AcDbLine
 10
1070.697606993383
 20
403.2418434539254
 30
0.0
 11
1070.697606993383
 21
400.2418434539254
 31
0.0
  0
LINE
  5
74
330
1F
100
AcDbEntity
  8
FISHER & PAYKEL
  6
Continuous
 62
    18
420
        0
370
    25
100
AcDbLine
 10
310.6976069933831
 20
403.2418434539254
 30
0.0
 11
1070.697606993383
 21
403.2418434539254
 31
0.0
  0
LINE
  5
75
330
1F
100
AcDbEntity
  8
FISHER & PAYKEL
  6
Continuous
 62
    18
420
        0
370
    25
100
AcDbLine
 10
310.6976069933831
 20
400.2418434539254
 30
0.0
 11
1070.697606993383
 21
400.2418434539254
 31
0.0
  0
LINE
  5
76
330
1F
100
AcDbEntity
  8
FISHER & PAYKEL
  6
Continuous
 62
    18
420
        0
370
    25
100
AcDbLine
 10
310.6976069933831
 20
403.2418434539254
 30
0.0
 11
310.6976069933831
 21
400.2418434539254
 31
0.0
  0
LINE
  5
77
330
1F
100
AcDbEntity
  8
FISHER & PAYKEL
  6
Continuous
 62
    18
420
        0
370
    25
100
AcDbLine
 10
310.9476069933831
 20
410.5189677984254
 30
0.0
 11
1070.447606993383
 21
410.5189677984254
 31
0.0
  0
LINE
  5
78
330
1F
100
AcDbEntity
  8
FISHER & PAYKEL
  6
Continuous
 62
    18
420
        0
370
    25
100
AcDbLine
 10
1070.447606993383
 20
409.8418434539254
 30
0.0
 11
1070.447606993383
 21
410.5189677984254
 31
0.0
  0
LINE
  5
79
330
1F
100
AcDbEntity
  8
FISHER & PAYKEL
  6
Continuous
 62
    18
420
        0
370
    25
100
AcDbLine
 10
1070.447606993383
 20
409.8418434539254
 30
0.0
 11
310.9476069933831
 21
409.8418434539254
 31
0.0
  0
LINE
  5
7A
330
1F
100
AcDbEntity
  8
FISHER & PAYKEL
  6
Continuous
 62
    18
420
        0
370
    25
100
AcDbLine
 10
310.9476069933831
 20
410.5189677984254
 30
0.0
 11
310.9476069933831
 21
409.8418434539254
 31
0.0
  0
LINE
  5
7B
330
1F
100
AcDbEntity
  8
FISHER & PAYKEL
  6
Continuous
 62
    18
420
        0
370
    25
100
AcDbLine
 10
1070.447606993383
 20
664.2418434539254
 30
0.0
 11
1070.447606993383
 21
410.5189677984254
 31
0.0
  0
ARC
  5
7C
330
1F
100
AcDbEntity
  8
FISHER & PAYKEL
  6
Continuous
 62
    18
420
        0
370
    25
100
AcDbCircle
 10
1025.447606993383
 20
628.2418434539254
 30
0.0
 40
2.0
100
AcDbArc
 50
0.0
 51
180.0
  0
ARC
  5
7D
330
1F
100
AcDbEntity
  8
FISHER & PAYKEL
  6
Continuous
 62
    18
420
        0
370
    25
100
AcDbCircle
 10
1025.447606993383
 20
628.2418434539254
 30
0.0
 40
2.0
100
AcDbArc
 50
180.0
 51
0.0
  0
LINE
  5
7E
330
1F
100
AcDbEntity
  8
FISHER & PAYKEL
  6
Continuous
 62
    18
420
        0
370
    25
100
AcDbLine
 10
310.9476069933831
 20
664.2418434539254
 30
0.0
 11
310.9476069933831
 21
410.5189677984254
 31
0.0
  0
LINE
  5
7F
330
1F
100
AcDbEntity
  8
FISHER & PAYKEL
  6
Continuous
 62
    18
420
        0
370
    25
100
AcDbLine
 10
1070.697606993383
 20
409.8418434539254
 30
0.0
 11
1070.447606993383
 21
409.8418434539254
 31
0.0
  0
LINE
  5
80
330
1F
100
AcDbEntity
  8
FISHER & PAYKEL
  6
Continuous
 62
    18
420
        0
370
    25
100
AcDbLine
 10
310.6976069933831
 20
406.8418434539254
 30
0.0
 11
1070.697606993383
 21
406.8418434539254
 31
0.0
  0
LINE
  5
81
330
1F
100
AcDbEntity
  8
FISHER & PAYKEL
  6
Continuous
 62
    18
420
        0
370
    25
100
AcDbLine
 10
310.9476069933831
 20
409.8418434539254
 30
0.0
 11
310.6976069933831
 21
409.8418434539254
 31
0.0
  0
LINE
  5
82
330
1F
100
AcDbEntity
  8
FISHER & PAYKEL
  6
Continuous
 62
    18
420
        0
370
    25
100
AcDbLine
 10
1070.697606993383
 20
406.8418434539254
 30
0.0
 11
1070.697606993383
 21
409.8418434539254
 31
0.0
  0
LINE
  5
83
330
1F
100
AcDbEntity
  8
FISHER & PAYKEL
  6
Continuous
 62
    18
420
        0
370
    25
100
AcDbLine
 10
310.6976069933831
 20
409.8418434539254
 30
0.0
 11
310.6976069933831
 21
406.8418434539254
 31
0.0
  0
LINE
  5
84
330
1F
100
AcDbEntity
  8
FISHER & PAYKEL
  6
Continuous
 62
    18
420
        0
370
    25
100
AcDbLine
 10
1070.697606993383
 20
406.8418434539254
 30
0.0
 11
1070.697606993383
 21
403.2418434539254
 31
0.0
  0
LINE
  5
85
330
1F
100
AcDbEntity
  8
FISHER & PAYKEL
  6
Continuous
 62
    18
420
        0
370
    25
100
AcDbLine
 10
310.6976069933831
 20
406.8418434539254
 30
0.0
 11
310.6976069933831
 21
403.2418434539254
 31
0.0
  0
LINE
  5
86
330
1F
100
AcDbEntity
  8
FISHER & PAYKEL
  6
Continuous
 62
    18
420
        0
370
    25
100
AcDbLine
 10
337.1976069933831
 20
667.7418434539254
 30
0.0
 11
1044.197606993383
 21
667.7418434539254
 31
0.0
  0
LINE
  5
87
330
1F
100
AcDbEntity
  8
FISHER & PAYKEL
  6
Continuous
 62
    18
420
        0
370
    25
100
AcDbLine
 10
1044.197606993383
 20
669.2418434539253
 30
0.0
 11
1044.197606993383
 21
667.7418434539254
 31
0.0
  0
LINE
  5
88
330
1F
100
AcDbEntity
  8
FISHER & PAYKEL
  6
Continuous
 62
    18
420
        0
370
    25
100
AcDbLine
 10
1070.197606993383
 20
669.2418434539253
 30
0.0
 11
1044.197606993383
 21
669.2418434539253
 31
0.0
  0
LINE
  5
89
330
1F
100
AcDbEntity
  8
FISHER & PAYKEL
  6
Continuous
 62
    18
420
        0
370
    25
100
AcDbLine
 10
1070.197606993383
 20
669.2418434539253
 30
0.0
 11
1070.197606993383
 21
667.2418434539253
 31
0.0
  0
LINE
  5
8A
330
1F
100
AcDbEntity
  8
FISHER & PAYKEL
  6
Continuous
 62
    18
420
        0
370
    25
100
AcDbLine
 10
1044.197606993383
 20
398.2418434539254
 30
0.0
 11
1044.197606993383
 21
400.2418434539254
 31
0.0
  0
LINE
  5
8B
330
1F
100
AcDbEntity
  8
FISHER & PAYKEL
  6
Continuous
 62
    18
420
        0
370
    25
100
AcDbLine
 10
337.1976069933831
 20
398.2418434539254
 30
0.0
 11
1044.197606993383
 21
398.2418434539254
 31
0.0
  0
LINE
  5
8C
330
1F
100
AcDbEntity
  8
FISHER & PAYKEL
  6
Continuous
 62
    18
420
        0
370
    25
100
AcDbLine
 10
337.1976069933831
 20
400.2418434539254
 30
0.0
 11
337.1976069933831
 21
398.2418434539254
 31
0.0
  0
LINE
  5
8D
330
1F
100
AcDbEntity
  8
FISHER & PAYKEL
  6
Continuous
 62
    18
420
        0
370
    25
100
AcDbLine
 10
311.1976069933831
 20
669.2418434539253
 30
0.0
 11
311.1976069933831
 21
667.2418434539253
 31
0.0
  0
LINE
  5
8E
330
1F
100
AcDbEntity
  8
FISHER & PAYKEL
  6
Continuous
 62
    18
420
        0
370
    25
100
AcDbLine
 10
337.1976069933831
 20
667.7418434539254
 30
0.0
 11
337.1976069933831
 21
669.2418434539253
 31
0.0
  0
LINE
  5
8F
330
1F
100
AcDbEntity
  8
FISHER & PAYKEL
  6
Continuous
 62
    18
420
        0
370
    25
100
AcDbLine
 10
337.1976069933831
 20
669.2418434539253
 30
0.0
 11
311.1976069933831
 21
669.2418434539253
 31
0.0
  0
LINE
  5
90
330
1F
100
AcDbEntity
  8
FISHER & PAYKEL
  6
Continuous
 62
    18
420
        0
370
    25
100
AcDbLine
 10
337.1976069933831
 20
669.2418434539253
 30
0.0
 11
1044.197606993383
 21
669.2418434539253
 31
0.0
  0
POLYLINE
  5
91
330
1F
100
AcDbEntity
  8
FISHER & PAYKEL
100
AcDb2dPolyline
 66
     1
 10
0.0
 20
0.0
 30
0.0
 70
     1
  0
VERTEX
  5
92
330
91
100
AcDbEntity
  8
FISHER & PAYKEL
100
AcDbVertex
100
AcDb2dVertex
 10
106.7207748215416
 20
-12.38650060991949
 30
0.0
  0
VERTEX
  5
93
330
91
100
AcDbEntity
  8
FISHER & PAYKEL
100
AcDbVertex
100
AcDb2dVertex
 10
506.7207748215416
 20
-12.38650060991949
 30
0.0
  0
VERTEX
  5
94
330
91
100
AcDbEntity
  8
FISHER & PAYKEL
100
AcDbVertex
100
AcDb2dVertex
 10
506.7207748215416
 20
17.61349939008051
 30
0.0
  0
VERTEX
  5
95
330
91
100
AcDbEntity
  8
FISHER & PAYKEL
100
AcDbVertex
100
AcDb2dVertex
 10
106.7207748215416
 20
17.61349939008051
 30
0.0
  0
SEQEND
  5
96
330
91
100
AcDbEntity
  8
FISHER & PAYKEL
  0
POLYLINE
  5
97
330
1F
100
AcDbEntity
  8
FISHER & PAYKEL
100
AcDb2dPolyline
 66
     1
 10
0.0
 20
0.0
 30
0.0
  0
VERTEX
  5
98
330
97
100
AcDbEntity
  8
FISHER & PAYKEL
100
AcDbVertex
100
AcDb2dVertex
 10
106.7207748215416
 20
-12.38650060991949
 30
0.0
  0
VERTEX
  5
99
330
97
100
AcDbEntity
  8
FISHER & PAYKEL
100
AcDbVertex
100
AcDb2dVertex
 10
106.7207748215416
 20
27.61349939008051
 30
0.0
  0
SEQEND
  5
9A
330
97
100
AcDbEntity
  8
FISHER & PAYKEL
  0
POLYLINE
  5
9B
330
1F
100
AcDbEntity
  8
FISHER & PAYKEL
100
AcDb2dPolyline
 66
     1
 10
0.0
 20
0.0
 30
0.0
  0
VERTEX
  5
9C
330
9B
100
AcDbEntity
  8
FISHER & PAYKEL
100
AcDbVertex
100
AcDb2dVertex
 10
206.7207748215416
 20
-12.38650060991949
 30
0.0
  0
VERTEX
  5
9D
330
9B
100
AcDbEntity
  8
FISHER & PAYKEL
100
AcDbVertex
100
AcDb2dVertex
 10
206.7207748215416
 20
27.61349939008051
 30
0.0
  0
SEQEND
  5
9E
330
9B
100
AcDbEntity
  8
FISHER & PAYKEL
  0
POLYLINE
  5
9F
330
1F
100
AcDbEntity
  8
FISHER & PAYKEL
100
AcDb2dPolyline
 66
     1
 10
0.0
 20
0.0
 30
0.0
  0
VERTEX
  5
A0
330
9F
100
AcDbEntity
  8
FISHER & PAYKEL
100
AcDbVertex
100
AcDb2dVertex
 10
306.7207748215416
 20
-12.38650060991949
 30
0.0
  0
VERTEX
  5
A1
330
9F
100
AcDbEntity
  8
FISHER & PAYKEL
100
AcDbVertex
100
AcDb2dVertex
 10
306.7207748215416
 20
27.61349939008051
 30
0.0
  0
SEQEND
  5
A2
330
9F
100
AcDbEntity
  8
FISHER & PAYKEL
  0
POLYLINE
  5
A3
330
1F
100
AcDbEntity
  8
FISHER & PAYKEL
100
AcDb2dPolyline
 66
     1
 10
0.0
 20
0.0
 30
0.0
  0
VERTEX
  5
A4
330
A3
100
AcDbEntity
  8
FISHER & PAYKEL
100
AcDbVertex
100
AcDb2dVertex
 10
506.7207748215416
 20
-12.38650060991949
 30
0.0
  0
VERTEX
  5
A5
330
A3
100
AcDbEntity
  8
FISHER & PAYKEL
100
AcDbVertex
100
AcDb2dVertex
 10
506.7207748215416
 20
27.61349939008051
 30
0.0
  0
SEQEND
  5
A6
330
A3
100
AcDbEntity
  8
FISHER & PAYKEL
  0
LINE
  5
A7
330
1F
100
AcDbEntity
  8
FISHER & PAYKEL
 62
   250
420
  1316376
370
     9
100
AcDbLine
 10
622.455242142381
 20
-10.68432055824996
 30
0.0
 11
623.0761409798807
 21
-9.858807331119806
 31
0.0
  0
SPLINE
  5
A8
330
1F
100
AcDbEntity
  8
FISHER & PAYKEL
 62
   250
420
  1316376
370
     9
100
AcDbSpline
210
0.0
220
0.0
230
1.0
 70
     8
 71
     3
 72
     8
 73
     4
 74
     0
 42
0.000000001
 43
0.0000000001
 40
0.292800273223734
 40
0.292800273223734
 40
0.292800273223734
 40
0.292800273223734
 40
1.292800273223734
 40
1.292800273223734
 40
1.292800273223734
 40
1.292800273223734
 10
623.0761409798807
 20
-9.858807331119806
 30
0.0
 10
624.2720768089299
 20
-10.76546074724183
 30
0.0
 10
625.5985425072255
 20
-11.27699672131848
 30
0.0
 10
626.9849813886884
 20
-11.27699672131848
 30
0.0
  0
SPLINE
  5
A9
330
1F
100
AcDbEntity
  8
FISHER & PAYKEL
 62
   250
420
  1316376
370
     9
100
AcDbSpline
210
0.0
220
0.0
230
1.0
 70
     8
 71
     3
 72
     8
 73
     4
 74
     0
 42
0.000000001
 43
0.0000000001
 40
1.292800273223734
 40
1.292800273223734
 40
1.292800273223734
 40
1.292800273223734
 40
2.292800273223734
 40
2.292800273223734
 40
2.292800273223734
 40
2.292800273223734
 10
626.9849813886884
 20
-11.27699672131848
 30
0.0
 10
628.459616127751
 20
-11.27699672131848
 30
0.0
 10
629.6132179451521
 20
-10.46912266570757
 30
0.0
 10
629.6132179451521
 20
-9.223797156403407
 30
0.0
  0
LINE
  5
AA
330
1F
100
AcDbEntity
  8
FISHER & PAYKEL
 62
   250
420
  1316376
370
     9
100
AcDbLine
 10
629.6132179451521
 20
-9.223797156403407
 30
0.0
 11
629.6132179451521
 21
-9.181463144755753
 31
0.0
  0
SPLINE
  5
AB
330
1F
100
AcDbEntity
  8
FISHER & PAYKEL
 62
   250
420
  1316376
370
     9
100
AcDbSpline
210
0.0
220
0.0
230
1.0
 70
     8
 71
     3
 72
     8
 73
     4
 74
     0
 42
0.000000001
 43
0.0000000001
 40
2.304800273223734
 40
2.304800273223734
 40
2.304800273223734
 40
2.304800273223734
 40
3.304800273223734
 40
3.304800273223734
 40
3.304800273223734
 40
3.304800273223734
 10
629.6132179451521
 20
-9.181463144755753
 30
0.0
 10
629.6132179451521
 20
-7.911442795323637
 30
0.0
 10
628.2479460695125
 20
-7.445768667198536
 30
0.0
 10
626.7274494844979
 20
-7.022428550721088
 30
0.0
  0
SPLINE
  5
AC
330
1F
100
AcDbEntity
  8
FISHER & PAYKEL
 62
   250
420
  1316376
370
     9
100
AcDbSpline
210
0.0
220
0.0
230
1.0
 70
     8
 71
     3
 72
     8
 73
     4
 74
     0
 42
0.000000001
 43
0.0000000001
 40
3.304800273223734
 40
3.304800273223734
 40
3.304800273223734
 40
3.304800273223734
 40
4.304800273223734
 40
4.304800273223734
 40
4.304800273223734
 40
4.304800273223734
 10
626.7274494844979
 20
-7.022428550721088
 30
0.0
 10
624.9529488295972
 20
-6.514420410948333
 30
0.0
 10
622.9879451222815
 20
-5.988773099655646
 30
0.0
 10
622.9879451222815
 20
-4.062575569683759
 30
0.0
  0
LINE
  5
AD
330
1F
100
AcDbEntity
  8
FISHER & PAYKEL
 62
   250
420
  1316376
370
     9
100
AcDbLine
 10
622.9879451222815
 20
-4.062575569683759
 30
0.0
 11
622.9879451222815
 21
-4.016713723732209
 31
0.0
  0
SPLINE
  5
AE
330
1F
100
AcDbEntity
  8
FISHER & PAYKEL
 62
   250
420
  1316376
370
     9
100
AcDbSpline
210
0.0
220
0.0
230
1.0
 70
     8
 71
     3
 72
     8
 73
     4
 74
     0
 42
0.000000001
 43
0.0000000001
 40
4.317800273223711
 40
4.317800273223711
 40
4.317800273223711
 40
4.317800273223711
 40
5.317800273223711
 40
5.317800273223711
 40
5.317800273223711
 40
5.317800273223711
 10
622.9879451222815
 20
-4.016713723732209
 30
0.0
 10
622.9879451222815
 20
-2.284547080479115
 30
0.0
 10
624.4625798613444
 20
-1.035693736870826
 30
0.0
 10
626.5792804437309
 20
-1.035693736870826
 30
0.0
  0
SPLINE
  5
AF
330
1F
100
AcDbEntity
  8
FISHER & PAYKEL
 62
   250
420
  1316376
370
     9
100
AcDbSpline
210
0.0
220
0.0
230
1.0
 70
     8
 71
     3
 72
     8
 73
     4
 74
     0
 42
0.000000001
 43
0.0000000001
 40
5.317800273223711
 40
5.317800273223711
 40
5.317800273223711
 40
5.317800273223711
 40
6.317800273223711
 40
6.317800273223711
 40
6.317800273223711
 40
6.317800273223711
 10
626.5792804437309
 20
-1.035693736870826
 30
0.0
 10
627.881051301899
 20
-1.035693736870826
 30
0.0
 10
629.3556860409616
 20
-1.5013678649957
 30
0.0
 10
630.4493146751951
 20
-2.221046063007179
 30
0.0
  0
LINE
  5
B0
330
1F
100
AcDbEntity
  8
FISHER & PAYKEL
 62
   250
420
  1316376
370
     9
100
AcDbLine
 10
630.4493146751951
 20
-2.221046063007179
 30
0.0
 11
629.8883890208627
 21
-3.088893301785674
 31
0.0
  0
SPLINE
  5
B1
330
1F
100
AcDbEntity
  8
FISHER & PAYKEL
 62
   250
420
  1316376
370
     9
100
AcDbSpline
210
0.0
220
0.0
230
1.0
 70
     8
 71
     3
 72
     8
 73
     4
 74
     0
 42
0.000000001
 43
0.0000000001
 40
6.610711522580898
 40
6.610711522580898
 40
6.610711522580898
 40
6.610711522580898
 40
7.610711522580898
 40
7.610711522580898
 40
7.610711522580898
 40
7.610711522580898
 10
629.8883890208627
 20
-3.088893301785674
 30
0.0
 10
628.8864840785328
 20
-2.432716121246131
 30
0.0
 10
627.6870204151802
 20
-2.009376004768683
 30
0.0
 10
626.5369464320833
 20
-2.009376004768683
 30
0.0
  0
SPLINE
  5
B2
330
1F
100
AcDbEntity
  8
FISHER & PAYKEL
 62
   250
420
  1316376
370
     9
100
AcDbSpline
210
0.0
220
0.0
230
1.0
 70
     8
 71
     3
 72
     8
 73
     4
 74
     0
 42
0.000000001
 43
0.0000000001
 40
7.610711522580898
 40
7.610711522580898
 40
7.610711522580898
 40
7.610711522580898
 40
8.610711522580898
 40
8.610711522580898
 40
8.610711522580898
 40
8.610711522580898
 10
626.5369464320833
 20
-2.009376004768683
 30
0.0
 10
625.0376168528927
 20
-2.009376004768683
 30
0.0
 10
624.0568789163873
 20
-2.81372222607547
 30
0.0
 10
624.0568789163873
 20
-3.893239523092689
 30
0.0
  0
LINE
  5
B3
330
1F
100
AcDbEntity
  8
FISHER & PAYKEL
 62
   250
420
  1316376
370
     9
100
AcDbLine
 10
624.0568789163873
 20
-3.893239523092689
 30
0.0
 11
624.0568789163873
 21
-3.935573534740342
 31
0.0
  0
SPLINE
  5
B4
330
1F
100
AcDbEntity
  8
FISHER & PAYKEL
 62
   250
420
  1316376
370
     9
100
AcDbSpline
210
0.0
220
0.0
230
1.0
 70
     8
 71
     3
 72
     8
 73
     4
 74
     0
 42
0.000000001
 43
0.0000000001
 40
8.622711522580898
 40
8.622711522580898
 40
8.622711522580898
 40
8.622711522580898
 40
9.622711522580898
 40
9.622711522580898
 40
9.622711522580898
 40
9.622711522580898
 10
624.0568789163873
 20
-3.935573534740342
 30
0.0
 10
624.0568789163873
 20
-5.142092866700978
 30
0.0
 10
625.5315136554499
 20
-5.586599989002252
 30
0.0
 10
627.0908164178082
 20
-6.031107111303299
 30
0.0
  0
SPLINE
  5
B5
330
1F
100
AcDbEntity
  8
FISHER & PAYKEL
 62
   250
420
  1316376
370
     9
100
AcDbSpline
210
0.0
220
0.0
230
1.0
 70
     8
 71
     3
 72
     8
 73
     4
 74
     0
 42
0.000000001
 43
0.0000000001
 40
9.622711522580898
 40
9.622711522580898
 40
9.622711522580898
 40
9.622711522580898
 40
10.6227115225809
 40
10.6227115225809
 40
10.6227115225809
 40
10.6227115225809
 10
627.0908164178082
 20
-6.031107111303299
 30
0.0
 10
628.8441500668852
 20
-6.514420410948333
 30
0.0
 10
630.6821517392574
 20
-7.149430585664504
 30
0.0
 10
630.6821517392574
 20
-9.054461109812337
 30
0.0
  0
LINE
  5
B6
330
1F
100
AcDbEntity
  8
FISHER & PAYKEL
 62
   250
420
  1316376
370
     9
100
AcDbLine
 10
630.6821517392574
 20
-9.054461109812337
 30
0.0
 11
630.6821517392574
 21
-9.09679512145999
 31
0.0
  0
SPLINE
  5
B7
330
1F
100
AcDbEntity
  8
FISHER & PAYKEL
 62
   250
420
  1316376
370
     9
100
AcDbSpline
210
0.0
220
0.0
230
1.0
 70
     8
 71
     3
 72
     8
 73
     4
 74
     0
 42
0.000000001
 43
0.0000000001
 40
10.6347115225809
 40
10.6347115225809
 40
10.6347115225809
 40
10.6347115225809
 40
11.6347115225809
 40
11.6347115225809
 40
11.6347115225809
 40
11.6347115225809
 10
630.6821517392574
 20
-9.09679512145999
 30
0.0
 10
630.6821517392574
 20
-11.02299265143211
 30
0.0
 10
629.013486113476
 20
-12.24715115491222
 30
0.0
 10
626.9214803712174
 20
-12.24715115491222
 30
0.0
  0
SPLINE
  5
B8
330
1F
100
AcDbEntity
  8
FISHER & PAYKEL
 62
   250
420
  1316376
370
     9
100
AcDbSpline
210
0.0
220
0.0
230
1.0
 70
     8
 71
     3
 72
     8
 73
     4
 74
     0
 42
0.000000001
 43
0.0000000001
 40
11.6347115225809
 40
11.6347115225809
 40
11.6347115225809
 40
11.6347115225809
 40
12.6347115225809
 40
12.6347115225809
 40
12.6347115225809
 40
12.6347115225809
 10
626.9214803712174
 20
-12.24715115491222
 30
0.0
 10
625.3374831463856
 20
-12.24715115491222
 30
0.0
 10
623.6088447840608
 20
-11.61566911561454
 30
0.0
 10
622.455242142381
 20
-10.68432055824996
 30
0.0
  0
SPLINE
  5
B9
330
1F
100
AcDbEntity
  8
FISHER & PAYKEL
 62
   250
420
  1316376
370
     9
100
AcDbSpline
210
0.0
220
0.0
230
1.0
 70
     8
 71
     3
 72
     8
 73
     4
 74
     0
 42
0.000000001
 43
0.0000000001
 40
0.0
 40
0.0
 40
0.0
 40
0.0
 40
1.0
 40
1.0
 40
1.0
 40
1.0
 10
619.2375044737229
 20
-6.133414306118539
 30
0.0
 10
619.0893354329561
 20
-3.956740540564169
 30
0.0
 10
617.8298985864359
 20
-1.945874987296975
 30
0.0
 10
615.3286640649154
 20
-1.945874987296975
 30
0.0
  0
SPLINE
  5
BA
330
1F
100
AcDbEntity
  8
FISHER & PAYKEL
 62
   250
420
  1316376
370
     9
100
AcDbSpline
210
0.0
220
0.0
230
1.0
 70
     8
 71
     3
 72
     8
 73
     4
 74
     0
 42
0.000000001
 43
0.0000000001
 40
1.0
 40
1.0
 40
1.0
 40
1.0
 40
2.0
 40
2.0
 40
2.0
 40
2.0
 10
615.3286640649154
 20
-1.945874987296975
 30
0.0
 10
613.169629470881
 20
-1.945874987296975
 30
0.0
 10
611.5044916794033
 20
-3.741542648021777
 30
0.0
 10
611.3104607926849
 20
-6.133414306118539
 30
0.0
  0
LINE
  5
BB
330
1F
100
AcDbEntity
  8
FISHER & PAYKEL
 62
   250
420
  1316376
370
     9
100
AcDbLine
 10
611.3104607926849
 20
-6.133414306118539
 30
0.0
 11
619.2375044737229
 21
-6.133414306118539
 31
0.0
  0
LINE
  5
BC
330
1F
100
AcDbEntity
  8
FISHER & PAYKEL
 62
   250
420
  1316376
370
     9
100
AcDbLine
 10
610.1991929869315
 20
-6.662589451715348
 30
0.0
 11
610.1991929869315
 21
-6.62378327437159
 31
0.0
  0
SPLINE
  5
BD
330
1F
100
AcDbEntity
  8
FISHER & PAYKEL
 62
   250
420
  1316376
370
     9
100
AcDbSpline
210
0.0
220
0.0
230
1.0
 70
     8
 71
     3
 72
     8
 73
     4
 74
     0
 42
0.000000001
 43
0.0000000001
 40
2.010999999999967
 40
2.010999999999967
 40
2.010999999999967
 40
2.010999999999967
 40
3.010999999999967
 40
3.010999999999967
 40
3.010999999999967
 40
3.010999999999967
 10
610.1991929869315
 20
-6.62378327437159
 30
0.0
 10
610.1991929869315
 20
-3.491066412439068
 30
0.0
 10
612.4217285984379
 20
-0.9933597252231721
 30
0.0
 10
615.3709980765631
 20
-0.9933597252231721
 30
0.0
  0
SPLINE
  5
BE
330
1F
100
AcDbEntity
  8
FISHER & PAYKEL
 62
   250
420
  1316376
370
     9
100
AcDbSpline
210
0.0
220
0.0
230
1.0
 70
     8
 71
     3
 72
     8
 73
     4
 74
     0
 42
0.000000001
 43
0.0000000001
 40
3.010999999999967
 40
3.010999999999967
 40
3.010999999999967
 40
3.010999999999967
 40
4.010999999999967
 40
4.010999999999967
 40
4.010999999999967
 40
4.010999999999967
 10
615.3709980765631
 20
-0.9933597252231721
 30
0.0
 10
618.4296304181122
 20
-0.9933597252231721
 30
0.0
 10
620.3699392853001
 20
-3.448732400791414
 30
0.0
 10
620.3699392853001
 20
-6.644950280195417
 30
0.0
  0
SPLINE
  5
BF
330
1F
100
AcDbEntity
  8
FISHER & PAYKEL
 62
   250
420
  1316376
370
     9
100
AcDbSpline
210
0.0
220
0.0
230
1.0
 70
     8
 71
     3
 72
     8
 73
     4
 74
     0
 42
0.000000001
 43
0.0000000001
 40
4.010999999999967
 40
4.010999999999967
 40
4.010999999999967
 40
4.010999999999967
 40
5.010999999999967
 40
5.010999999999967
 40
5.010999999999967
 40
5.010999999999967
 10
620.3699392853001
 20
-6.644950280195417
 30
0.0
 10
620.3699392853001
 20
-6.831925498306191
 30
0.0
 10
620.3699392853001
 20
-6.898954350081794
 30
0.0
 10
620.3487722794758
 20
-7.068290396672637
 30
0.0
  0
LINE
  5
C0
330
1F
100
AcDbEntity
  8
FISHER & PAYKEL
 62
   250
420
  1316376
370
     9
100
AcDbLine
 10
620.3487722794758
 20
-7.068290396672637
 30
0.0
 11
611.3104607926849
 21
-7.068290396672637
 31
0.0
  0
SPLINE
  5
C1
330
1F
100
AcDbEntity
  8
FISHER & PAYKEL
 62
   250
420
  1316376
370
     9
100
AcDbSpline
210
0.0
220
0.0
230
1.0
 70
     8
 71
     3
 72
     8
 73
     4
 74
     0
 42
0.000000001
 43
0.0000000001
 40
7.572999999999979
 40
7.572999999999979
 40
7.572999999999979
 40
7.572999999999979
 40
8.572999999999979
 40
8.572999999999979
 40
8.572999999999979
 40
8.572999999999979
 10
611.3104607926849
 20
-7.068290396672637
 30
0.0
 10
611.5044916794033
 20
-9.749444467696094
 30
0.0
 10
613.4448005465916
 20
-11.31933073296614
 30
0.0
 10
615.5861959691057
 20
-11.31933073296614
 30
0.0
  0
SPLINE
  5
C2
330
1F
100
AcDbEntity
  8
FISHER & PAYKEL
 62
   250
420
  1316376
370
     9
100
AcDbSpline
210
0.0
220
0.0
230
1.0
 70
     8
 71
     3
 72
     8
 73
     4
 74
     0
 42
0.000000001
 43
0.0000000001
 40
8.572999999999979
 40
8.572999999999979
 40
8.572999999999979
 40
8.572999999999979
 40
9.572999999999979
 40
9.572999999999979
 40
9.572999999999979
 40
9.572999999999979
 10
615.5861959691057
 20
-11.31933073296614
 30
0.0
 10
617.2725007664072
 20
-11.31933073296614
 30
0.0
 10
618.4296304181122
 20
-10.57848552913083
 30
0.0
 10
619.3221724970182
 20
-9.6259702670568
 30
0.0
  0
LINE
  5
C3
330
1F
100
AcDbEntity
  8
FISHER & PAYKEL
 62
   250
420
  1316376
370
     9
100
AcDbLine
 10
619.3221724970182
 20
-9.6259702670568
 30
0.0
 11
620.0489063636379
 21
-10.26098044177297
 31
0.0
  0
SPLINE
  5
C4
330
1F
100
AcDbEntity
  8
FISHER & PAYKEL
 62
   250
420
  1316376
370
     9
100
AcDbSpline
210
0.0
220
0.0
230
1.0
 70
     8
 71
     3
 72
     8
 73
     4
 74
     0
 42
0.000000001
 43
0.0000000001
 40
9.84656169322476
 40
9.84656169322476
 40
9.84656169322476
 40
9.84656169322476
 40
10.84656169322476
 40
10.84656169322476
 40
10.84656169322476
 40
10.84656169322476
 10
620.0489063636379
 20
-10.26098044177297
 30
0.0
 10
618.9411663921888
 20
-11.44633276790933
 30
0.0
 10
617.6358676997171
 20
-12.29301300086399
 30
0.0
 10
615.5403341231541
 20
-12.29301300086399
 30
0.0
  0
SPLINE
  5
C5
330
1F
100
AcDbEntity
  8
FISHER & PAYKEL
 62
   250
420
  1316376
370
     9
100
AcDbSpline
210
0.0
220
0.0
230
1.0
 70
     8
 71
     3
 72
     8
 73
     4
 74
     0
 42
0.000000001
 43
0.0000000001
 40
10.84656169322476
 40
10.84656169322476
 40
10.84656169322476
 40
10.84656169322476
 40
11.84656169322476
 40
11.84656169322476
 40
11.84656169322476
 40
11.84656169322476
 10
615.5403341231541
 20
-12.29301300086399
 30
0.0
 10
612.6792605026282
 20
-12.29301300086399
 30
0.0
 10
610.1991929869315
 20
-10.02814337771019
 30
0.0
 10
610.1991929869315
 20
-6.662589451715348
 30
0.0
  0
LINE
  5
C6
330
1F
100
AcDbEntity
  8
FISHER & PAYKEL
 62
   250
420
  1316376
370
     9
100
AcDbLine
 10
602.4284323655594
 20
-1.248069361970238
 30
0.0
 11
603.4761991538413
 21
-1.248069361970238
 31
0.0
  0
LINE
  5
C7
330
1F
100
AcDbEntity
  8
FISHER & PAYKEL
 62
   250
420
  1316376
370
     9
100
AcDbLine
 10
603.4761991538413
 20
-1.248069361970238
 30
0.0
 11
603.4761991538413
 21
-4.313757372127156
 31
0.0
  0
SPLINE
  5
C8
330
1F
100
AcDbEntity
  8
FISHER & PAYKEL
 62
   250
420
  1316376
370
     9
100
AcDbSpline
210
0.0
220
0.0
230
1.0
 70
     8
 71
     3
 72
     8
 73
     4
 74
     0
 42
0.000000001
 43
0.0000000001
 40
1.166000000000054
 40
1.166000000000054
 40
1.166000000000054
 40
1.166000000000054
 40
2.166000000000054
 40
2.166000000000054
 40
2.166000000000054
 40
2.166000000000054
 10
603.4761991538413
 20
-4.313757372127156
 30
0.0
 10
604.3299350554036
 20
-2.391087676458937
 30
0.0
 10
606.1467697219524
 20
-0.9940652920838602
 30
0.0
 10
608.3058043159868
 20
-1.078733315379168
 30
0.0
  0
LINE
  5
C9
330
1F
100
AcDbEntity
  8
FISHER & PAYKEL
 62
   250
420
  1316376
370
     9
100
AcDbLine
 10
608.3058043159868
 20
-1.078733315379168
 30
0.0
 11
608.3058043159868
 21
-2.218223795564199
 31
0.0
  0
LINE
  5
CA
330
1F
100
AcDbEntity
  8
FISHER & PAYKEL
 62
   250
420
  1316376
370
     9
100
AcDbLine
 10
608.3058043159868
 20
-2.218223795564199
 30
0.0
 11
608.1999692868673
 21
-2.218223795564199
 31
0.0
  0
SPLINE
  5
CB
330
1F
100
AcDbEntity
  8
FISHER & PAYKEL
 62
   250
420
  1316376
370
     9
100
AcDbSpline
210
0.0
220
0.0
230
1.0
 70
     8
 71
     3
 72
     8
 73
     4
 74
     0
 42
0.000000001
 43
0.0000000001
 40
2.519000000000005
 40
2.519000000000005
 40
2.519000000000005
 40
2.519000000000005
 40
3.519000000000005
 40
3.519000000000005
 40
3.519000000000005
 40
3.519000000000005
 10
608.1999692868673
 20
-2.218223795564199
 30
0.0
 10
605.6775677595234
 20
-2.218223795564199
 30
0.0
 10
603.4761991538413
 20
-4.105615148192101
 30
0.0
 10
603.4761991538413
 20
-7.615810280650294
 30
0.0
  0
LINE
  5
CC
330
1F
100
AcDbEntity
  8
FISHER & PAYKEL
 62
   250
420
  1316376
370
     9
100
AcDbLine
 10
603.4761991538413
 20
-7.615810280650294
 30
0.0
 11
603.4761991538413
 21
-12.03971449783853
 31
0.0
  0
LINE
  5
CD
330
1F
100
AcDbEntity
  8
FISHER & PAYKEL
 62
   250
420
  1316376
370
     9
100
AcDbLine
 10
603.4761991538413
 20
-12.03971449783853
 30
0.0
 11
602.4284323655594
 21
-12.03971449783853
 31
0.0
  0
LINE
  5
CE
330
1F
100
AcDbEntity
  8
FISHER & PAYKEL
 62
   250
420
  1316376
370
     9
100
AcDbLine
 10
602.4284323655594
 20
-12.03971449783853
 30
0.0
 11
602.4284323655594
 21
-1.248069361970238
 31
0.0
  0
LINE
  5
CF
330
1F
100
AcDbEntity
  8
FISHER & PAYKEL
 62
   250
420
  1316376
370
     9
100
AcDbLine
 10
594.487630130736
 20
-9.265072817759801
 30
0.0
 11
594.487630130736
 21
-2.19882070689232
 31
0.0
  0
LINE
  5
D0
330
1F
100
AcDbEntity
  8
FISHER & PAYKEL
 62
   250
420
  1316376
370
     9
100
AcDbLine
 10
594.487630130736
 20
-2.19882070689232
 30
0.0
 11
592.907160362554
 21
-2.19882070689232
 31
0.0
  0
LINE
  5
D1
330
1F
100
AcDbEntity
  8
FISHER & PAYKEL
 62
   250
420
  1316376
370
     9
100
AcDbLine
 10
592.907160362554
 20
-2.19882070689232
 30
0.0
 11
592.907160362554
 21
-1.249833279121958
 31
0.0
  0
LINE
  5
D2
330
1F
100
AcDbEntity
  8
FISHER & PAYKEL
 62
   250
420
  1316376
370
     9
100
AcDbLine
 10
592.907160362554
 20
-1.249833279121958
 30
0.0
 11
594.487630130736
 21
-1.249833279121958
 31
0.0
  0
LINE
  5
D3
330
1F
100
AcDbEntity
  8
FISHER & PAYKEL
 62
   250
420
  1316376
370
     9
100
AcDbLine
 10
594.487630130736
 20
-1.249833279121958
 30
0.0
 11
594.487630130736
 21
2.200388670168195
 31
0.0
  0
LINE
  5
D4
330
1F
100
AcDbEntity
  8
FISHER & PAYKEL
 62
   250
420
  1316376
370
     9
100
AcDbLine
 10
594.487630130736
 20
2.200388670168195
 30
0.0
 11
595.5353969190174
 21
2.200388670168195
 31
0.0
  0
LINE
  5
D5
330
1F
100
AcDbEntity
  8
FISHER & PAYKEL
 62
   250
420
  1316376
370
     9
100
AcDbLine
 10
595.5353969190174
 20
2.200388670168195
 30
0.0
 11
595.5353969190174
 21
-1.249833279121958
 31
0.0
  0
LINE
  5
D6
330
1F
100
AcDbEntity
  8
FISHER & PAYKEL
 62
   250
420
  1316376
370
     9
100
AcDbLine
 10
595.5353969190174
 20
-1.249833279121958
 30
0.0
 11
599.3595693045291
 21
-1.249833279121958
 31
0.0
  0
LINE
  5
D7
330
1F
100
AcDbEntity
  8
FISHER & PAYKEL
 62
   250
420
  1316376
370
     9
100
AcDbLine
 10
599.3595693045291
 20
-1.249833279121958
 30
0.0
 11
599.3595693045291
 21
-2.19882070689232
 31
0.0
  0
LINE
  5
D8
330
1F
100
AcDbEntity
  8
FISHER & PAYKEL
 62
   250
420
  1316376
370
     9
100
AcDbLine
 10
599.3595693045291
 20
-2.19882070689232
 30
0.0
 11
595.5353969190174
 21
-2.19882070689232
 31
0.0
  0
LINE
  5
D9
330
1F
100
AcDbEntity
  8
FISHER & PAYKEL
 62
   250
420
  1316376
370
     9
100
AcDbLine
 10
595.5353969190174
 20
-2.19882070689232
 30
0.0
 11
595.5353969190174
 21
-9.15923778864044
 31
0.0
  0
SPLINE
  5
DA
330
1F
100
AcDbEntity
  8
FISHER & PAYKEL
 62
   250
420
  1316376
370
     9
100
AcDbSpline
210
0.0
220
0.0
230
1.0
 70
     8
 71
     3
 72
     8
 73
     4
 74
     0
 42
0.000000001
 43
0.0000000001
 40
9.830999999999904
 40
9.830999999999904
 40
9.830999999999904
 40
9.830999999999904
 40
10.8309999999999
 40
10.8309999999999
 40
10.8309999999999
 40
10.8309999999999
 10
595.5353969190174
 20
-9.15923778864044
 30
0.0
 10
595.5353969190174
 20
-10.70442921378276
 30
0.0
 10
596.4561616723555
 20
-11.25124353089927
 30
0.0
 10
597.7155985188757
 20
-11.25124353089927
 30
0.0
  0
SPLINE
  5
DB
330
1F
100
AcDbEntity
  8
FISHER & PAYKEL
 62
   250
420
  1316376
370
     9
100
AcDbSpline
210
0.0
220
0.0
230
1.0
 70
     8
 71
     3
 72
     8
 73
     4
 74
     0
 42
0.000000001
 43
0.0000000001
 40
10.8309999999999
 40
10.8309999999999
 40
10.8309999999999
 40
10.8309999999999
 40
11.8309999999999
 40
11.8309999999999
 40
11.8309999999999
 40
11.8309999999999
 10
597.7155985188757
 20
-11.25124353089927
 30
0.0
 10
598.2483014987762
 20
-11.25124353089927
 30
0.0
 10
598.6963364553814
 20
-11.14893633608381
 30
0.0
 10
599.3172352928815
 20
-10.8737652603736
 30
0.0
  0
LINE
  5
DC
330
1F
100
AcDbEntity
  8
FISHER & PAYKEL
 62
   250
420
  1316376
370
     9
100
AcDbLine
 10
599.3172352928815
 20
-10.8737652603736
 30
0.0
 11
599.3172352928815
 21
-11.84391969396756
 31
0.0
  0
SPLINE
  5
DD
330
1F
100
AcDbEntity
  8
FISHER & PAYKEL
 62
   250
420
  1316376
370
     9
100
AcDbSpline
210
0.0
220
0.0
230
1.0
 70
     8
 71
     3
 72
     8
 73
     4
 74
     0
 42
0.000000001
 43
0.0000000001
 40
12.10599999999988
 40
12.10599999999988
 40
12.10599999999988
 40
12.10599999999988
 40
13.10599999999988
 40
13.10599999999988
 40
13.10599999999988
 40
13.10599999999988
 10
599.3172352928815
 20
-11.84391969396756
 30
0.0
 10
598.7633653071572
 20
-12.10145159815784
 30
0.0
 10
598.2306623272563
 20
-12.22845363310103
 30
0.0
 10
597.5427346379807
 20
-12.22845363310103
 30
0.0
  0
SPLINE
  5
DE
330
1F
100
AcDbEntity
  8
FISHER & PAYKEL
 62
   250
420
  1316376
370
     9
100
AcDbSpline
210
0.0
220
0.0
230
1.0
 70
     8
 71
     3
 72
     8
 73
     4
 74
     0
 42
0.000000001
 43
0.0000000001
 40
13.10599999999988
 40
13.10599999999988
 40
13.10599999999988
 40
13.10599999999988
 40
14.10599999999988
 40
14.10599999999988
 40
14.10599999999988
 40
14.10599999999988
 10
597.5427346379807
 20
-12.22845363310103
 30
0.0
 10
595.8564298406792
 20
-12.22845363310103
 30
0.0
 10
594.487630130736
 20
-11.31827238267465
 30
0.0
 10
594.487630130736
 20
-9.265072817759801
 30
0.0
  0
SPLINE
  5
DF
330
1F
100
AcDbEntity
  8
FISHER & PAYKEL
 62
   250
420
  1316376
370
     9
100
AcDbSpline
210
0.0
220
0.0
230
1.0
 70
     8
 71
     3
 72
     8
 73
     4
 74
     0
 42
0.000000001
 43
0.0000000001
 40
0.0
 40
0.0
 40
0.0
 40
0.0
 40
1.0
 40
1.0
 40
1.0
 40
1.0
 10
589.7539820616581
 20
-6.133414306118539
 30
0.0
 10
589.6058130208913
 20
-3.956740540564169
 30
0.0
 10
588.3463761743711
 20
-1.945874987296975
 30
0.0
 10
585.8451416528507
 20
-1.945874987296975
 30
0.0
  0
SPLINE
  5
E0
330
1F
100
AcDbEntity
  8
FISHER & PAYKEL
 62
   250
420
  1316376
370
     9
100
AcDbSpline
210
0.0
220
0.0
230
1.0
 70
     8
 71
     3
 72
     8
 73
     4
 74
     0
 42
0.000000001
 43
0.0000000001
 40
1.0
 40
1.0
 40
1.0
 40
1.0
 40
2.0
 40
2.0
 40
2.0
 40
2.0
 10
585.8451416528507
 20
-1.945874987296975
 30
0.0
 10
583.6861070588162
 20
-1.945874987296975
 30
0.0
 10
582.020969267339
 20
-3.741542648021777
 30
0.0
 10
581.8269383806202
 20
-6.133414306118539
 30
0.0
  0
LINE
  5
E1
330
1F
100
AcDbEntity
  8
FISHER & PAYKEL
 62
   250
420
  1316376
370
     9
100
AcDbLine
 10
581.8269383806202
 20
-6.133414306118539
 30
0.0
 11
589.7539820616581
 21
-6.133414306118539
 31
0.0
  0
LINE
  5
E2
330
1F
100
AcDbEntity
  8
FISHER & PAYKEL
 62
   250
420
  1316376
370
     9
100
AcDbLine
 10
580.7156705748672
 20
-6.662589451715348
 30
0.0
 11
580.7156705748672
 21
-6.62378327437159
 31
0.0
  0
SPLINE
  5
E3
330
1F
100
AcDbEntity
  8
FISHER & PAYKEL
 62
   250
420
  1316376
370
     9
100
AcDbSpline
210
0.0
220
0.0
230
1.0
 70
     8
 71
     3
 72
     8
 73
     4
 74
     0
 42
0.000000001
 43
0.0000000001
 40
2.010999999999967
 40
2.010999999999967
 40
2.010999999999967
 40
2.010999999999967
 40
3.010999999999967
 40
3.010999999999967
 40
3.010999999999967
 40
3.010999999999967
 10
580.7156705748672
 20
-6.62378327437159
 30
0.0
 10
580.7156705748672
 20
-3.491066412439068
 30
0.0
 10
582.9382061863731
 20
-0.9933597252231721
 30
0.0
 10
585.8874756644988
 20
-0.9933597252231721
 30
0.0
  0
SPLINE
  5
E4
330
1F
100
AcDbEntity
  8
FISHER & PAYKEL
 62
   250
420
  1316376
370
     9
100
AcDbSpline
210
0.0
220
0.0
230
1.0
 70
     8
 71
     3
 72
     8
 73
     4
 74
     0
 42
0.000000001
 43
0.0000000001
 40
3.010999999999967
 40
3.010999999999967
 40
3.010999999999967
 40
3.010999999999967
 40
4.010999999999967
 40
4.010999999999967
 40
4.010999999999967
 40
4.010999999999967
 10
585.8874756644988
 20
-0.9933597252231721
 30
0.0
 10
588.9461080060474
 20
-0.9933597252231721
 30
0.0
 10
590.8864168732354
 20
-3.448732400791414
 30
0.0
 10
590.8864168732354
 20
-6.644950280195417
 30
0.0
  0
SPLINE
  5
E5
330
1F
100
AcDbEntity
  8
FISHER & PAYKEL
 62
   250
420
  1316376
370
     9
100
AcDbSpline
210
0.0
220
0.0
230
1.0
 70
     8
 71
     3
 72
     8
 73
     4
 74
     0
 42
0.000000001
 43
0.0000000001
 40
4.010999999999967
 40
4.010999999999967
 40
4.010999999999967
 40
4.010999999999967
 40
5.010999999999967
 40
5.010999999999967
 40
5.010999999999967
 40
5.010999999999967
 10
590.8864168732354
 20
-6.644950280195417
 30
0.0
 10
590.8864168732354
 20
-6.831925498306191
 30
0.0
 10
590.8864168732354
 20
-6.898954350081794
 30
0.0
 10
590.8652498674111
 20
-7.068290396672637
 30
0.0
  0
LINE
  5
E6
330
1F
100
AcDbEntity
  8
FISHER & PAYKEL
 62
   250
420
  1316376
370
     9
100
AcDbLine
 10
590.8652498674111
 20
-7.068290396672637
 30
0.0
 11
581.8269383806202
 21
-7.068290396672637
 31
0.0
  0
SPLINE
  5
E7
330
1F
100
AcDbEntity
  8
FISHER & PAYKEL
 62
   250
420
  1316376
370
     9
100
AcDbSpline
210
0.0
220
0.0
230
1.0
 70
     8
 71
     3
 72
     8
 73
     4
 74
     0
 42
0.000000001
 43
0.0000000001
 40
7.572999999999979
 40
7.572999999999979
 40
7.572999999999979
 40
7.572999999999979
 40
8.572999999999979
 40
8.572999999999979
 40
8.572999999999979
 40
8.572999999999979
 10
581.8269383806202
 20
-7.068290396672637
 30
0.0
 10
582.020969267339
 20
-9.749444467696094
 30
0.0
 10
583.9612781345269
 20
-11.31933073296614
 30
0.0
 10
586.1026735570409
 20
-11.31933073296614
 30
0.0
  0
SPLINE
  5
E8
330
1F
100
AcDbEntity
  8
FISHER & PAYKEL
 62
   250
420
  1316376
370
     9
100
AcDbSpline
210
0.0
220
0.0
230
1.0
 70
     8
 71
     3
 72
     8
 73
     4
 74
     0
 42
0.000000001
 43
0.0000000001
 40
8.572999999999979
 40
8.572999999999979
 40
8.572999999999979
 40
8.572999999999979
 40
9.572999999999979
 40
9.572999999999979
 40
9.572999999999979
 40
9.572999999999979
 10
586.1026735570409
 20
-11.31933073296614
 30
0.0
 10
587.7889783543425
 20
-11.31933073296614
 30
0.0
 10
588.9461080060474
 20
-10.57848552913083
 30
0.0
 10
589.8386500849539
 20
-9.6259702670568
 30
0.0
  0
LINE
  5
E9
330
1F
100
AcDbEntity
  8
FISHER & PAYKEL
 62
   250
420
  1316376
370
     9
100
AcDbLine
 10
589.8386500849539
 20
-9.6259702670568
 30
0.0
 11
590.5653839515732
 21
-10.26098044177297
 31
0.0
  0
SPLINE
  5
EA
330
1F
100
AcDbEntity
  8
FISHER & PAYKEL
 62
   250
420
  1316376
370
     9
100
AcDbSpline
210
0.0
220
0.0
230
1.0
 70
     8
 71
     3
 72
     8
 73
     4
 74
     0
 42
0.000000001
 43
0.0000000001
 40
9.84656169322476
 40
9.84656169322476
 40
9.84656169322476
 40
9.84656169322476
 40
10.84656169322476
 40
10.84656169322476
 40
10.84656169322476
 40
10.84656169322476
 10
590.5653839515732
 20
-10.26098044177297
 30
0.0
 10
589.4576439801241
 20
-11.44633276790933
 30
0.0
 10
588.1523452876523
 20
-12.29301300086399
 30
0.0
 10
586.0568117110894
 20
-12.29301300086399
 30
0.0
  0
SPLINE
  5
EB
330
1F
100
AcDbEntity
  8
FISHER & PAYKEL
 62
   250
420
  1316376
370
     9
100
AcDbSpline
210
0.0
220
0.0
230
1.0
 70
     8
 71
     3
 72
     8
 73
     4
 74
     0
 42
0.000000001
 43
0.0000000001
 40
10.84656169322476
 40
10.84656169322476
 40
10.84656169322476
 40
10.84656169322476
 40
11.84656169322476
 40
11.84656169322476
 40
11.84656169322476
 40
11.84656169322476
 10
586.0568117110894
 20
-12.29301300086399
 30
0.0
 10
583.1957380905639
 20
-12.29301300086399
 30
0.0
 10
580.7156705748672
 20
-10.02814337771019
 30
0.0
 10
580.7156705748672
 20
-6.662589451715348
 30
0.0
  0
LINE
  5
EC
330
1F
100
AcDbEntity
  8
FISHER & PAYKEL
 62
   250
420
  1316376
370
     9
100
AcDbLine
 10
561.1799353331595
 20
-1.248069361970238
 30
0.0
 11
562.227702121441
 21
-1.248069361970238
 31
0.0
  0
LINE
  5
ED
330
1F
100
AcDbEntity
  8
FISHER & PAYKEL
 62
   250
420
  1316376
370
     9
100
AcDbLine
 10
562.227702121441
 20
-1.248069361970238
 30
0.0
 11
562.227702121441
 21
-3.174266891942125
 31
0.0
  0
SPLINE
  5
EE
330
1F
100
AcDbEntity
  8
FISHER & PAYKEL
 62
   250
420
  1316376
370
     9
100
AcDbSpline
210
0.0
220
0.0
230
1.0
 70
     8
 71
     3
 72
     8
 73
     4
 74
     0
 42
0.000000001
 43
0.0000000001
 40
0.8430000000000177
 40
0.8430000000000177
 40
0.8430000000000177
 40
0.8430000000000177
 40
1.843000000000018
 40
1.843000000000018
 40
1.843000000000018
 40
1.843000000000018
 10
562.227702121441
 20
-3.174266891942125
 30
0.0
 10
562.9332689822364
 20
-2.05594341758092
 30
0.0
 10
563.9140069187421
 20
-0.9940652920838602
 30
0.0
 10
565.8613714545378
 20
-0.9940652920838602
 30
0.0
  0
SPLINE
  5
EF
330
1F
100
AcDbEntity
  8
FISHER & PAYKEL
 62
   250
420
  1316376
370
     9
100
AcDbSpline
210
0.0
220
0.0
230
1.0
 70
     8
 71
     3
 72
     8
 73
     4
 74
     0
 42
0.000000001
 43
0.0000000001
 40
1.843000000000018
 40
1.843000000000018
 40
1.843000000000018
 40
1.843000000000018
 40
2.843000000000018
 40
2.843000000000018
 40
2.843000000000018
 40
2.843000000000018
 10
565.8613714545378
 20
-0.9940652920838602
 30
0.0
 10
567.762874144382
 20
-0.9940652920838602
 30
0.0
 10
568.9376429676068
 20
-2.073582589100852
 30
0.0
 10
569.5373747992827
 20
-3.322435932709368
 30
0.0
  0
SPLINE
  5
F0
330
1F
100
AcDbEntity
  8
FISHER & PAYKEL
 62
   250
420
  1316376
370
     9
100
AcDbSpline
210
0.0
220
0.0
230
1.0
 70
     8
 71
     3
 72
     8
 73
     4
 74
     0
 42
0.000000001
 43
0.0000000001
 40
2.843000000000018
 40
2.843000000000018
 40
2.843000000000018
 40
2.843000000000018
 40
3.843000000000018
 40
3.843000000000018
 40
3.843000000000018
 40
3.843000000000018
 10
569.5373747992827
 20
-3.322435932709368
 30
0.0
 10
570.2394138257742
 20
-2.115916600748506
 30
0.0
 10
571.4141826489991
 20
-0.9940652920838602
 30
0.0
 10
573.467382213914
 20
-0.9940652920838602
 30
0.0
  0
SPLINE
  5
F1
330
1F
100
AcDbEntity
  8
FISHER & PAYKEL
 62
   250
420
  1316376
370
     9
100
AcDbSpline
210
0.0
220
0.0
230
1.0
 70
     8
 71
     3
 72
     8
 73
     4
 74
     0
 42
0.000000001
 43
0.0000000001
 40
3.843000000000018
 40
3.843000000000018
 40
3.843000000000018
 40
3.843000000000018
 40
4.843000000000018
 40
4.843000000000018
 40
4.843000000000018
 40
4.843000000000018
 10
573.467382213914
 20
-0.9940652920838602
 30
0.0
 10
576.0568125930337
 20
-0.9940652920838602
 30
0.0
 10
577.6584493670399
 20
-2.789732952808663
 30
0.0
 10
577.6584493670399
 20
-5.49910969826351
 30
0.0
  0
LINE
  5
F2
330
1F
100
AcDbEntity
  8
FISHER & PAYKEL
 62
   250
420
  1316376
370
     9
100
AcDbLine
 10
577.6584493670399
 20
-5.49910969826351
 30
0.0
 11
577.6584493670399
 21
-12.03971449783853
 31
0.0
  0
LINE
  5
F3
330
1F
100
AcDbEntity
  8
FISHER & PAYKEL
 62
   250
420
  1316376
370
     9
100
AcDbLine
 10
577.6584493670399
 20
-12.03971449783853
 30
0.0
 11
576.6106825787584
 21
-12.03971449783853
 31
0.0
  0
LINE
  5
F4
330
1F
100
AcDbEntity
  8
FISHER & PAYKEL
 62
   250
420
  1316376
370
     9
100
AcDbLine
 10
576.6106825787584
 20
-12.03971449783853
 30
0.0
 11
576.6106825787584
 21
-5.626111733206699
 31
0.0
  0
SPLINE
  5
F5
330
1F
100
AcDbEntity
  8
FISHER & PAYKEL
 62
   250
420
  1316376
370
     9
100
AcDbSpline
210
0.0
220
0.0
230
1.0
 70
     8
 71
     3
 72
     8
 73
     4
 74
     0
 42
0.000000001
 43
0.0000000001
 40
8.812000000000069
 40
8.812000000000069
 40
8.812000000000069
 40
8.812000000000069
 40
9.812000000000069
 40
9.812000000000069
 40
9.812000000000069
 40
9.812000000000069
 10
576.6106825787584
 20
-5.626111733206699
 30
0.0
 10
576.6106825787584
 20
-3.301268926885314
 30
0.0
 10
575.390051909582
 20
-1.946580554157663
 30
0.0
 10
573.3827141906187
 20
-1.946580554157663
 30
0.0
  0
SPLINE
  5
F6
330
1F
100
AcDbEntity
  8
FISHER & PAYKEL
 62
   250
420
  1316376
370
     9
100
AcDbSpline
210
0.0
220
0.0
230
1.0
 70
     8
 71
     3
 72
     8
 73
     4
 74
     0
 42
0.000000001
 43
0.0000000001
 40
9.812000000000069
 40
9.812000000000069
 40
9.812000000000069
 40
9.812000000000069
 40
10.81200000000007
 40
10.81200000000007
 40
10.81200000000007
 40
10.81200000000007
 10
573.3827141906187
 20
-1.946580554157663
 30
0.0
 10
571.5447125182465
 20
-1.946580554157663
 30
0.0
 10
569.9395479099363
 20
-3.343602938532968
 30
0.0
 10
569.9395479099363
 20
-5.753113768149888
 30
0.0
  0
LINE
  5
F7
330
1F
100
AcDbEntity
  8
FISHER & PAYKEL
 62
   250
420
  1316376
370
     9
100
AcDbLine
 10
569.9395479099363
 20
-5.753113768149888
 30
0.0
 11
569.9395479099363
 21
-12.03971449783853
 31
0.0
  0
LINE
  5
F8
330
1F
100
AcDbEntity
  8
FISHER & PAYKEL
 62
   250
420
  1316376
370
     9
100
AcDbLine
 10
569.9395479099363
 20
-12.03971449783853
 30
0.0
 11
568.8953089559587
 21
-12.03971449783853
 31
0.0
  0
LINE
  5
F9
330
1F
100
AcDbEntity
  8
FISHER & PAYKEL
 62
   250
420
  1316376
370
     9
100
AcDbLine
 10
568.8953089559587
 20
-12.03971449783853
 30
0.0
 11
568.8953089559587
 21
-5.566138550039113
 31
0.0
  0
SPLINE
  5
FA
330
1F
100
AcDbEntity
  8
FISHER & PAYKEL
 62
   250
420
  1316376
370
     9
100
AcDbSpline
210
0.0
220
0.0
230
1.0
 70
     8
 71
     3
 72
     8
 73
     4
 74
     0
 42
0.000000001
 43
0.0000000001
 40
14.72500000000014
 40
14.72500000000014
 40
14.72500000000014
 40
14.72500000000014
 40
15.72500000000014
 40
15.72500000000014
 40
15.72500000000014
 40
15.72500000000014
 10
568.8953089559587
 20
-5.566138550039113
 30
0.0
 10
568.8953089559587
 20
-3.322435932709368
 30
0.0
 10
567.6570391152628
 20
-1.946580554157663
 30
0.0
 10
565.7096745794667
 20
-1.946580554157663
 30
0.0
  0
SPLINE
  5
FB
330
1F
100
AcDbEntity
  8
FISHER & PAYKEL
 62
   250
420
  1316376
370
     9
100
AcDbSpline
210
0.0
220
0.0
230
1.0
 70
     8
 71
     3
 72
     8
 73
     4
 74
     0
 42
0.000000001
 43
0.0000000001
 40
15.72500000000014
 40
15.72500000000014
 40
15.72500000000014
 40
15.72500000000014
 40
16.72500000000014
 40
16.72500000000014
 40
16.72500000000014
 40
16.72500000000014
 10
565.7096745794667
 20
-1.946580554157663
 30
0.0
 10
563.7658378779753
 20
-1.946580554157663
 30
0.0
 10
562.227702121441
 20
-3.639941020067226
 30
0.0
 10
562.227702121441
 20
-5.816614785621596
 30
0.0
  0
LINE
  5
FC
330
1F
100
AcDbEntity
  8
FISHER & PAYKEL
 62
   250
420
  1316376
370
     9
100
AcDbLine
 10
562.227702121441
 20
-5.816614785621596
 30
0.0
 11
562.227702121441
 21
-12.03971449783853
 31
0.0
  0
LINE
  5
FD
330
1F
100
AcDbEntity
  8
FISHER & PAYKEL
 62
   250
420
  1316376
370
     9
100
AcDbLine
 10
562.227702121441
 20
-12.03971449783853
 30
0.0
 11
561.1799353331595
 21
-12.03971449783853
 31
0.0
  0
LINE
  5
FE
330
1F
100
AcDbEntity
  8
FISHER & PAYKEL
 62
   250
420
  1316376
370
     9
100
AcDbLine
 10
561.1799353331595
 20
-12.03971449783853
 30
0.0
 11
561.1799353331595
 21
-1.248069361970238
 31
0.0
  0
POLYLINE
  5
FF
330
1F
100
AcDbEntity
  8
FISHER & PAYKEL
 62
   250
420
  1316376
370
     9
100
AcDb2dPolyline
 66
     1
 10
0.0
 20
0.0
 30
0.0
 70
     1
  0
VERTEX
  5
100
330
FF
100
AcDbEntity
  8
FISHER & PAYKEL
 62
   250
420
  1316376
370
     9
100
AcDbVertex
100
AcDb2dVertex
 10
556.0356473510989
 20
-1.248774928830926
 30
0.0
  0
VERTEX
  5
101
330
FF
100
AcDbEntity
  8
FISHER & PAYKEL
 62
   250
420
  1316376
370
     9
100
AcDbVertex
100
AcDb2dVertex
 10
557.0834141393804
 20
-1.248774928830926
 30
0.0
  0
VERTEX
  5
102
330
FF
100
AcDbEntity
  8
FISHER & PAYKEL
 62
   250
420
  1316376
370
     9
100
AcDbVertex
100
AcDb2dVertex
 10
557.0834141393804
 20
-12.04042006469945
 30
0.0
  0
VERTEX
  5
103
330
FF
100
AcDbEntity
  8
FISHER & PAYKEL
 62
   250
420
  1316376
370
     9
100
AcDbVertex
100
AcDb2dVertex
 10
556.0356473510989
 20
-12.04042006469945
 30
0.0
  0
SEQEND
  5
104
330
FF
100
AcDbEntity
  8
FISHER & PAYKEL
 62
   250
420
  1316376
370
     9
  0
POLYLINE
  5
105
330
1F
100
AcDbEntity
  8
FISHER & PAYKEL
 62
   250
420
  1316376
370
     9
100
AcDb2dPolyline
 66
     1
 10
0.0
 20
0.0
 30
0.0
 70
     1
  0
VERTEX
  5
106
330
105
100
AcDbEntity
  8
FISHER & PAYKEL
 62
   250
420
  1316376
370
     9
100
AcDbVertex
100
AcDb2dVertex
 10
555.9086453161559
 20
2.981098401638292
 30
0.0
  0
VERTEX
  5
107
330
105
100
AcDbEntity
  8
FISHER & PAYKEL
 62
   250
420
  1316376
370
     9
100
AcDbVertex
100
AcDb2dVertex
 10
557.2104161743238
 20
2.981098401638292
 30
0.0
  0
VERTEX
  5
108
330
105
100
AcDbEntity
  8
FISHER & PAYKEL
 62
   250
420
  1316376
370
     9
100
AcDbVertex
100
AcDb2dVertex
 10
557.2104161743238
 20
1.566436845743056
 30
0.0
  0
VERTEX
  5
109
330
105
100
AcDbEntity
  8
FISHER & PAYKEL
 62
   250
420
  1316376
370
     9
100
AcDbVertex
100
AcDb2dVertex
 10
555.9086453161559
 20
1.566436845743056
 30
0.0
  0
SEQEND
  5
10A
330
105
100
AcDbEntity
  8
FISHER & PAYKEL
 62
   250
420
  1316376
370
     9
  0
POLYLINE
  5
10B
330
1F
100
AcDbEntity
  8
FISHER & PAYKEL
 62
   250
420
  1316376
370
     9
100
AcDb2dPolyline
 66
     1
 10
0.0
 20
0.0
 30
0.0
 70
     1
  0
VERTEX
  5
10C
330
10B
100
AcDbEntity
  8
FISHER & PAYKEL
 62
   250
420
  1316376
370
     9
100
AcDbVertex
100
AcDb2dVertex
 10
550.7403680608282
 20
3.407966352419862
 30
0.0
  0
VERTEX
  5
10D
330
10B
100
AcDbEntity
  8
FISHER & PAYKEL
 62
   250
420
  1316376
370
     9
100
AcDbVertex
100
AcDb2dVertex
 10
551.7881348491097
 20
3.407966352419862
 30
0.0
  0
VERTEX
  5
10E
330
10B
100
AcDbEntity
  8
FISHER & PAYKEL
 62
   250
420
  1316376
370
     9
100
AcDbVertex
100
AcDb2dVertex
 10
551.7881348491097
 20
-12.0368922303951
 30
0.0
  0
VERTEX
  5
10F
330
10B
100
AcDbEntity
  8
FISHER & PAYKEL
 62
   250
420
  1316376
370
     9
100
AcDbVertex
100
AcDb2dVertex
 10
550.7403680608282
 20
-12.0368922303951
 30
0.0
  0
SEQEND
  5
110
330
10B
100
AcDbEntity
  8
FISHER & PAYKEL
 62
   250
420
  1316376
370
     9
  0
POLYLINE
  5
111
330
1F
100
AcDbEntity
  8
FISHER & PAYKEL
 62
   250
420
  1316376
370
     9
100
AcDb2dPolyline
 66
     1
 10
0.0
 20
0.0
 30
0.0
 70
     1
  0
VERTEX
  5
112
330
111
100
AcDbEntity
  8
FISHER & PAYKEL
 62
   250
420
  1316376
370
     9
100
AcDbVertex
100
AcDb2dVertex
 10
545.4450887705576
 20
3.407966352419862
 30
0.0
  0
VERTEX
  5
113
330
111
100
AcDbEntity
  8
FISHER & PAYKEL
 62
   250
420
  1316376
370
     9
100
AcDbVertex
100
AcDb2dVertex
 10
546.4928555588391
 20
3.407966352419862
 30
0.0
  0
VERTEX
  5
114
330
111
100
AcDbEntity
  8
FISHER & PAYKEL
 62
   250
420
  1316376
370
     9
100
AcDbVertex
100
AcDb2dVertex
 10
546.4928555588391
 20
-12.0368922303951
 30
0.0
  0
VERTEX
  5
115
330
111
100
AcDbEntity
  8
FISHER & PAYKEL
 62
   250
420
  1316376
370
     9
100
AcDbVertex
100
AcDb2dVertex
 10
545.4450887705576
 20
-12.0368922303951
 30
0.0
  0
SEQEND
  5
116
330
111
100
AcDbEntity
  8
FISHER & PAYKEL
 62
   250
420
  1316376
370
     9
  0
POLYLINE
  5
117
330
1F
100
AcDbEntity
  8
FISHER & PAYKEL
 62
   250
420
  1316376
370
     9
100
AcDb2dPolyline
 66
     1
 10
0.0
 20
0.0
 30
0.0
 70
     1
  0
VERTEX
  5
118
330
117
100
AcDbEntity
  8
FISHER & PAYKEL
 62
   250
420
  1316376
370
     9
100
AcDbVertex
100
AcDb2dVertex
 10
540.1533373145909
 20
-1.248774928830926
 30
0.0
  0
VERTEX
  5
119
330
117
100
AcDbEntity
  8
FISHER & PAYKEL
 62
   250
420
  1316376
370
     9
100
AcDbVertex
100
AcDb2dVertex
 10
541.2011041028724
 20
-1.248774928830926
 30
0.0
  0
VERTEX
  5
11A
330
117
100
AcDbEntity
  8
FISHER & PAYKEL
 62
   250
420
  1316376
370
     9
100
AcDbVertex
100
AcDb2dVertex
 10
541.2011041028724
 20
-12.04042006469945
 30
0.0
  0
VERTEX
  5
11B
330
117
100
AcDbEntity
  8
FISHER & PAYKEL
 62
   250
420
  1316376
370
     9
100
AcDbVertex
100
AcDb2dVertex
 10
540.1533373145909
 20
-12.04042006469945
 30
0.0
  0
SEQEND
  5
11C
330
117
100
AcDbEntity
  8
FISHER & PAYKEL
 62
   250
420
  1316376
370
     9
  0
POLYLINE
  5
11D
330
1F
100
AcDbEntity
  8
FISHER & PAYKEL
 62
   250
420
  1316376
370
     9
100
AcDb2dPolyline
 66
     1
 10
0.0
 20
0.0
 30
0.0
 70
     1
  0
VERTEX
  5
11E
330
11D
100
AcDbEntity
  8
FISHER & PAYKEL
 62
   250
420
  1316376
370
     9
100
AcDbVertex
100
AcDb2dVertex
 10
540.0228074453436
 20
2.981098401638292
 30
0.0
  0
VERTEX
  5
11F
330
11D
100
AcDbEntity
  8
FISHER & PAYKEL
 62
   250
420
  1316376
370
     9
100
AcDbVertex
100
AcDb2dVertex
 10
541.3281061378153
 20
2.981098401638292
 30
0.0
  0
VERTEX
  5
120
330
11D
100
AcDbEntity
  8
FISHER & PAYKEL
 62
   250
420
  1316376
370
     9
100
AcDbVertex
100
AcDb2dVertex
 10
541.3281061378153
 20
1.566436845743056
 30
0.0
  0
VERTEX
  5
121
330
11D
100
AcDbEntity
  8
FISHER & PAYKEL
 62
   250
420
  1316376
370
     9
100
AcDbVertex
100
AcDb2dVertex
 10
540.0228074453436
 20
1.566436845743056
 30
0.0
  0
SEQEND
  5
122
330
11D
100
AcDbEntity
  8
FISHER & PAYKEL
 62
   250
420
  1316376
370
     9
  0
POLYLINE
  5
123
330
1F
100
AcDbEntity
  8
FISHER & PAYKEL
 62
   250
420
  1316376
370
     9
100
AcDb2dPolyline
 66
     1
 10
0.0
 20
0.0
 30
0.0
 70
     1
  0
VERTEX
  5
124
330
123
100
AcDbEntity
  8
FISHER & PAYKEL
 62
   250
420
  1316376
370
     9
100
AcDbVertex
100
AcDb2dVertex
 10
521.7260476111929
 20
2.772603394273347
 30
0.0
  0
VERTEX
  5
125
330
123
100
AcDbEntity
  8
FISHER & PAYKEL
 62
   250
420
  1316376
370
     9
100
AcDbVertex
100
AcDb2dVertex
 10
522.7738143994744
 20
2.772603394273347
 30
0.0
  0
VERTEX
  5
126
330
123
100
AcDbEntity
  8
FISHER & PAYKEL
 62
   250
420
  1316376
370
     9
100
AcDbVertex
100
AcDb2dVertex
 10
528.7781883848448
 20
-5.987009182503698
 30
0.0
  0
VERTEX
  5
127
330
123
100
AcDbEntity
  8
FISHER & PAYKEL
 62
   250
420
  1316376
370
     9
100
AcDbVertex
100
AcDb2dVertex
 10
534.7825623702153
 20
2.772603394273347
 30
0.0
  0
VERTEX
  5
128
330
123
100
AcDbEntity
  8
FISHER & PAYKEL
 62
   250
420
  1316376
370
     9
100
AcDbVertex
100
AcDb2dVertex
 10
535.8303291584963
 20
2.772603394273347
 30
0.0
  0
VERTEX
  5
129
330
123
100
AcDbEntity
  8
FISHER & PAYKEL
 62
   250
420
  1316376
370
     9
100
AcDbVertex
100
AcDb2dVertex
 10
535.8303291584963
 20
-12.03724501382567
 30
0.0
  0
VERTEX
  5
12A
330
123
100
AcDbEntity
  8
FISHER & PAYKEL
 62
   250
420
  1316376
370
     9
100
AcDbVertex
100
AcDb2dVertex
 10
534.7225891870472
 20
-12.03724501382567
 30
0.0
  0
VERTEX
  5
12B
330
123
100
AcDbEntity
  8
FISHER & PAYKEL
 62
   250
420
  1316376
370
     9
100
AcDbVertex
100
AcDb2dVertex
 10
534.7225891870472
 20
0.8252388584776327
 30
0.0
  0
VERTEX
  5
12C
330
123
100
AcDbEntity
  8
FISHER & PAYKEL
 62
   250
420
  1316376
370
     9
100
AcDbVertex
100
AcDb2dVertex
 10
528.8028832249726
 20
-7.701536654236861
 30
0.0
  0
VERTEX
  5
12D
330
123
100
AcDbEntity
  8
FISHER & PAYKEL
 62
   250
420
  1316376
370
     9
100
AcDbVertex
100
AcDb2dVertex
 10
528.7146873673729
 20
-7.701536654236861
 30
0.0
  0
VERTEX
  5
12E
330
123
100
AcDbEntity
  8
FISHER & PAYKEL
 62
   250
420
  1316376
370
     9
100
AcDbVertex
100
AcDb2dVertex
 10
522.7985092396021
 20
0.8252388584776327
 30
0.0
  0
VERTEX
  5
12F
330
123
100
AcDbEntity
  8
FISHER & PAYKEL
 62
   250
420
  1316376
370
     9
100
AcDbVertex
100
AcDb2dVertex
 10
522.7985092396021
 20
-12.03724501382567
 30
0.0
  0
VERTEX
  5
130
330
123
100
AcDbEntity
  8
FISHER & PAYKEL
 62
   250
420
  1316376
370
     9
100
AcDbVertex
100
AcDb2dVertex
 10
521.7260476111929
 20
-12.03724501382567
 30
0.0
  0
SEQEND
  5
131
330
123
100
AcDbEntity
  8
FISHER & PAYKEL
 62
   250
420
  1316376
370
     9
  0
LINE
  5
132
330
1F
100
AcDbEntity
  8
FISHER & PAYKEL
 62
   250
420
  1316376
370
     9
100
AcDbLine
 10
111.7666538654095
 20
44.5792038135628
 30
0.0
 11
111.7666538654095
 21
44.62153782521045
 31
0.0
  0
SPLINE
  5
133
330
1F
100
AcDbEntity
  8
FISHER & PAYKEL
 62
   250
420
  1316376
370
     9
100
AcDbSpline
210
0.0
220
0.0
230
1.0
 70
     8
 71
     3
 72
     8
 73
     4
 74
     0
 42
0.000000001
 43
0.0000000001
 40
0.0120000000000005
 40
0.0120000000000005
 40
0.0120000000000005
 40
0.0120000000000005
 40
1.012
 40
1.012
 40
1.012
 40
1.012
 10
111.7666538654095
 20
44.62153782521045
 30
0.0
 10
111.7666538654095
 20
48.06823194019694
 30
0.0
 10
109.8016501580938
 20
51.28561682542477
 30
0.0
 10
106.700683804897
 20
51.28561682542477
 30
0.0
  0
SPLINE
  5
134
330
1F
100
AcDbEntity
  8
FISHER & PAYKEL
 62
   250
420
  1316376
370
     9
100
AcDbSpline
210
0.0
220
0.0
230
1.0
 70
     8
 71
     3
 72
     8
 73
     4
 74
     0
 42
0.000000001
 43
0.0000000001
 40
1.012
 40
1.012
 40
1.012
 40
1.012
 40
2.012
 40
2.012
 40
2.012
 40
2.012
 10
106.700683804897
 20
51.28561682542477
 30
0.0
 10
103.6067731203085
 20
51.28561682542477
 30
0.0
 10
101.6805755903366
 20
48.11056595184459
 30
0.0
 10
101.6805755903366
 20
44.66387183685811
 30
0.0
  0
LINE
  5
135
330
1F
100
AcDbEntity
  8
FISHER & PAYKEL
 62
   250
420
  1316376
370
     9
100
AcDbLine
 10
101.6805755903366
 20
44.66387183685811
 30
0.0
 11
101.6805755903366
 21
44.62153782521045
 31
0.0
  0
SPLINE
  5
136
330
1F
100
AcDbEntity
  8
FISHER & PAYKEL
 62
   250
420
  1316376
370
     9
100
AcDbSpline
210
0.0
220
0.0
230
1.0
 70
     8
 71
     3
 72
     8
 73
     4
 74
     0
 42
0.000000001
 43
0.0000000001
 40
2.024000000000001
 40
2.024000000000001
 40
2.024000000000001
 40
2.024000000000001
 40
3.024000000000001
 40
3.024000000000001
 40
3.024000000000001
 40
3.024000000000001
 10
101.6805755903366
 20
44.62153782521045
 30
0.0
 10
101.6805755903366
 20
41.19601071604802
 30
0.0
 10
103.6455792976523
 20
37.95745882499614
 30
0.0
 10
106.7465456508486
 20
37.95745882499614
 30
0.0
  0
SPLINE
  5
137
330
1F
100
AcDbEntity
  8
FISHER & PAYKEL
 62
   250
420
  1316376
370
     9
100
AcDbSpline
210
0.0
220
0.0
230
1.0
 70
     8
 71
     3
 72
     8
 73
     4
 74
     0
 42
0.000000001
 43
0.0000000001
 40
3.024000000000001
 40
3.024000000000001
 40
3.024000000000001
 40
3.024000000000001
 40
4.024000000000001
 40
4.024000000000001
 40
4.024000000000001
 40
4.024000000000001
 10
106.7465456508486
 20
37.95745882499614
 30
0.0
 10
109.8439841697415
 20
37.95745882499614
 30
0.0
 10
111.7666538654095
 20
41.15014887009647
 30
0.0
 10
111.7666538654095
 20
44.5792038135628
 30
0.0
  0
LINE
  5
138
330
1F
100
AcDbEntity
  8
FISHER & PAYKEL
 62
   250
420
  1316376
370
     9
100
AcDbLine
 10
100.5234459386319
 20
44.5792038135628
 30
0.0
 11
100.5234459386319
 21
44.62153782521045
 31
0.0
  0
SPLINE
  5
139
330
1F
100
AcDbEntity
  8
FISHER & PAYKEL
 62
   250
420
  1316376
370
     9
100
AcDbSpline
210
0.0
220
0.0
230
1.0
 70
     8
 71
     3
 72
     8
 73
     4
 74
     0
 42
0.000000001
 43
0.0000000001
 40
2.012
 40
2.012
 40
2.012
 40
2.012
 40
3.012
 40
3.012
 40
3.012
 40
3.012
 10
100.5234459386319
 20
44.62153782521045
 30
0.0
 10
100.5234459386319
 20
48.70324211491265
 30
0.0
 10
102.9400124368566
 20
52.28046609914645
 30
0.0
 10
106.7465456508486
 20
52.28046609914645
 30
0.0
  0
SPLINE
  5
13A
330
1F
100
AcDbEntity
  8
FISHER & PAYKEL
 62
   250
420
  1316376
370
     9
100
AcDbSpline
210
0.0
220
0.0
230
1.0
 70
     8
 71
     3
 72
     8
 73
     4
 74
     0
 42
0.000000001
 43
0.0000000001
 40
3.012
 40
3.012
 40
3.012
 40
3.012
 40
4.012
 40
4.012
 40
4.012
 40
4.012
 10
106.7465456508486
 20
52.28046609914645
 30
0.0
 10
110.5495510305369
 20
52.28046609914645
 30
0.0
 10
112.9202556828101
 20
48.74910396086466
 30
0.0
 10
112.9202556828101
 20
44.66387183685811
 30
0.0
  0
LINE
  5
13B
330
1F
100
AcDbEntity
  8
FISHER & PAYKEL
 62
   250
420
  1316376
370
     9
100
AcDbLine
 10
112.9202556828101
 20
44.66387183685811
 30
0.0
 11
112.9202556828101
 21
44.62153782521045
 31
0.0
  0
SPLINE
  5
13C
330
1F
100
AcDbEntity
  8
FISHER & PAYKEL
 62
   250
420
  1316376
370
     9
100
AcDbSpline
210
0.0
220
0.0
230
1.0
 70
     8
 71
     3
 72
     8
 73
     4
 74
     0
 42
0.000000001
 43
0.0000000001
 40
4.024000000000001
 40
4.024000000000001
 40
4.024000000000001
 40
4.024000000000001
 40
5.024000000000001
 40
5.024000000000001
 40
5.024000000000001
 40
5.024000000000001
 10
112.9202556828101
 20
44.62153782521045
 30
0.0
 10
112.9202556828101
 20
40.53630570120413
 30
0.0
 10
110.5072170188893
 20
36.96260955127445
 30
0.0
 10
106.700683804897
 20
36.96260955127445
 30
0.0
  0
SPLINE
  5
13D
330
1F
100
AcDbEntity
  8
FISHER & PAYKEL
 62
   250
420
  1316376
370
     9
100
AcDbSpline
210
0.0
220
0.0
230
1.0
 70
     8
 71
     3
 72
     8
 73
     4
 74
     0
 42
0.000000001
 43
0.0000000001
 40
5.024000000000001
 40
5.024000000000001
 40
5.024000000000001
 40
5.024000000000001
 40
6.024000000000001
 40
6.024000000000001
 40
6.024000000000001
 40
6.024000000000001
 10
106.700683804897
 20
36.96260955127445
 30
0.0
 10
102.8976784252089
 20
36.96260955127445
 30
0.0
 10
100.5234459386319
 20
40.49749952386037
 30
0.0
 10
100.5234459386319
 20
44.5792038135628
 30
0.0
  0
LINE
  5
13E
330
1F
100
AcDbEntity
  8
FISHER & PAYKEL
 62
   250
420
  1316376
370
     9
100
AcDbLine
 10
526.4215950697873
 20
44.5792038135628
 30
0.0
 11
526.4215950697873
 21
44.62153782521045
 31
0.0
  0
SPLINE
  5
13F
330
1F
100
AcDbEntity
  8
FISHER & PAYKEL
 62
   250
420
  1316376
370
     9
100
AcDbSpline
210
0.0
220
0.0
230
1.0
 70
     8
 71
     3
 72
     8
 73
     4
 74
     0
 42
0.000000001
 43
0.0000000001
 40
0.0120000000000005
 40
0.0120000000000005
 40
0.0120000000000005
 40
0.0120000000000005
 40
1.012
 40
1.012
 40
1.012
 40
1.012
 10
526.4215950697873
 20
44.62153782521045
 30
0.0
 10
526.4215950697873
 20
48.06823194019694
 30
0.0
 10
524.4530635281677
 20
51.28561682542477
 30
0.0
 10
521.3556250092753
 20
51.28561682542477
 30
0.0
  0
SPLINE
  5
140
330
1F
100
AcDbEntity
  8
FISHER & PAYKEL
 62
   250
420
  1316376
370
     9
100
AcDbSpline
210
0.0
220
0.0
230
1.0
 70
     8
 71
     3
 72
     8
 73
     4
 74
     0
 42
0.000000001
 43
0.0000000001
 40
1.012
 40
1.012
 40
1.012
 40
1.012
 40
2.012
 40
2.012
 40
2.012
 40
2.012
 10
521.3556250092753
 20
51.28561682542477
 30
0.0
 10
518.2581864903824
 20
51.28561682542477
 30
0.0
 10
516.3355167947149
 20
48.11056595184459
 30
0.0
 10
516.3355167947149
 20
44.66387183685811
 30
0.0
  0
LINE
  5
141
330
1F
100
AcDbEntity
  8
FISHER & PAYKEL
 62
   250
420
  1316376
370
     9
100
AcDbLine
 10
516.3355167947149
 20
44.66387183685811
 30
0.0
 11
516.3355167947149
 21
44.62153782521045
 31
0.0
  0
SPLINE
  5
142
330
1F
100
AcDbEntity
  8
FISHER & PAYKEL
 62
   250
420
  1316376
370
     9
100
AcDbSpline
210
0.0
220
0.0
230
1.0
 70
     8
 71
     3
 72
     8
 73
     4
 74
     0
 42
0.000000001
 43
0.0000000001
 40
2.024000000000001
 40
2.024000000000001
 40
2.024000000000001
 40
2.024000000000001
 40
3.024000000000001
 40
3.024000000000001
 40
3.024000000000001
 40
3.024000000000001
 10
516.3355167947149
 20
44.62153782521045
 30
0.0
 10
516.3355167947149
 20
41.19601071604802
 30
0.0
 10
518.30052050203
 20
37.95745882499614
 30
0.0
 10
521.3979590209229
 20
37.95745882499614
 30
0.0
  0
SPLINE
  5
143
330
1F
100
AcDbEntity
  8
FISHER & PAYKEL
 62
   250
420
  1316376
370
     9
100
AcDbSpline
210
0.0
220
0.0
230
1.0
 70
     8
 71
     3
 72
     8
 73
     4
 74
     0
 42
0.000000001
 43
0.0000000001
 40
3.024000000000001
 40
3.024000000000001
 40
3.024000000000001
 40
3.024000000000001
 40
4.024000000000001
 40
4.024000000000001
 40
4.024000000000001
 40
4.024000000000001
 10
521.3979590209229
 20
37.95745882499614
 30
0.0
 10
524.4989253741193
 20
37.95745882499614
 30
0.0
 10
526.4215950697873
 20
41.15014887009647
 30
0.0
 10
526.4215950697873
 20
44.5792038135628
 30
0.0
  0
LINE
  5
144
330
1F
100
AcDbEntity
  8
FISHER & PAYKEL
 62
   250
420
  1316376
370
     9
100
AcDbLine
 10
515.1783871430099
 20
44.5792038135628
 30
0.0
 11
515.1783871430099
 21
44.62153782521045
 31
0.0
  0
SPLINE
  5
145
330
1F
100
AcDbEntity
  8
FISHER & PAYKEL
 62
   250
420
  1316376
370
     9
100
AcDbSpline
210
0.0
220
0.0
230
1.0
 70
     8
 71
     3
 72
     8
 73
     4
 74
     0
 42
0.000000001
 43
0.0000000001
 40
2.012
 40
2.012
 40
2.012
 40
2.012
 40
3.012
 40
3.012
 40
3.012
 40
3.012
 10
515.1783871430099
 20
44.62153782521045
 30
0.0
 10
515.1783871430099
 20
48.70324211491265
 30
0.0
 10
517.5949536412346
 20
52.28046609914645
 30
0.0
 10
521.3979590209229
 20
52.28046609914645
 30
0.0
  0
SPLINE
  5
146
330
1F
100
AcDbEntity
  8
FISHER & PAYKEL
 62
   250
420
  1316376
370
     9
100
AcDbSpline
210
0.0
220
0.0
230
1.0
 70
     8
 71
     3
 72
     8
 73
     4
 74
     0
 42
0.000000001
 43
0.0000000001
 40
3.012
 40
3.012
 40
3.012
 40
3.012
 40
4.012
 40
4.012
 40
4.012
 40
4.012
 10
521.3979590209229
 20
52.28046609914645
 30
0.0
 10
525.2009644006108
 20
52.28046609914645
 30
0.0
 10
527.5751968871879
 20
48.74910396086466
 30
0.0
 10
527.5751968871879
 20
44.66387183685811
 30
0.0
  0
LINE
  5
147
330
1F
100
AcDbEntity
  8
FISHER & PAYKEL
 62
   250
420
  1316376
370
     9
100
AcDbLine
 10
527.5751968871879
 20
44.66387183685811
 30
0.0
 11
527.5751968871879
 21
44.62153782521045
 31
0.0
  0
SPLINE
  5
148
330
1F
100
AcDbEntity
  8
FISHER & PAYKEL
 62
   250
420
  1316376
370
     9
100
AcDbSpline
210
0.0
220
0.0
230
1.0
 70
     8
 71
     3
 72
     8
 73
     4
 74
     0
 42
0.000000001
 43
0.0000000001
 40
4.024000000000001
 40
4.024000000000001
 40
4.024000000000001
 40
4.024000000000001
 40
5.024000000000001
 40
5.024000000000001
 40
5.024000000000001
 40
5.024000000000001
 10
527.5751968871879
 20
44.62153782521045
 30
0.0
 10
527.5751968871879
 20
40.53630570120413
 30
0.0
 10
525.162158223267
 20
36.96260955127445
 30
0.0
 10
521.3556250092753
 20
36.96260955127445
 30
0.0
  0
SPLINE
  5
149
330
1F
100
AcDbEntity
  8
FISHER & PAYKEL
 62
   250
420
  1316376
370
     9
100
AcDbSpline
210
0.0
220
0.0
230
1.0
 70
     8
 71
     3
 72
     8
 73
     4
 74
     0
 42
0.000000001
 43
0.0000000001
 40
5.024000000000001
 40
5.024000000000001
 40
5.024000000000001
 40
5.024000000000001
 40
6.024000000000001
 40
6.024000000000001
 40
6.024000000000001
 40
6.024000000000001
 10
521.3556250092753
 20
36.96260955127445
 30
0.0
 10
517.5490917952831
 20
36.96260955127445
 30
0.0
 10
515.1783871430099
 20
40.49749952386037
 30
0.0
 10
515.1783871430099
 20
44.5792038135628
 30
0.0
  0
LINE
  5
14A
330
1F
100
AcDbEntity
  8
FISHER & PAYKEL
 62
   250
420
  1316376
370
     9
100
AcDbLine
 10
511.2836580714185
 20
44.5792038135628
 30
0.0
 11
511.2836580714185
 21
44.62153782521045
 31
0.0
  0
SPLINE
  5
14B
330
1F
100
AcDbEntity
  8
FISHER & PAYKEL
 62
   250
420
  1316376
370
     9
100
AcDbSpline
210
0.0
220
0.0
230
1.0
 70
     8
 71
     3
 72
     8
 73
     4
 74
     0
 42
0.000000001
 43
0.0000000001
 40
0.0120000000000005
 40
0.0120000000000005
 40
0.0120000000000005
 40
0.0120000000000005
 40
1.012
 40
1.012
 40
1.012
 40
1.012
 10
511.2836580714185
 20
44.62153782521045
 30
0.0
 10
511.2836580714185
 20
48.06823194019694
 30
0.0
 10
509.3151265297989
 20
51.28561682542477
 30
0.0
 10
506.2176880109065
 20
51.28561682542477
 30
0.0
  0
SPLINE
  5
14C
330
1F
100
AcDbEntity
  8
FISHER & PAYKEL
 62
   250
420
  1316376
370
     9
100
AcDbSpline
210
0.0
220
0.0
230
1.0
 70
     8
 71
     3
 72
     8
 73
     4
 74
     0
 42
0.000000001
 43
0.0000000001
 40
1.012
 40
1.012
 40
1.012
 40
1.012
 40
2.012
 40
2.012
 40
2.012
 40
2.012
 10
506.2176880109065
 20
51.28561682542477
 30
0.0
 10
503.1202494920136
 20
51.28561682542477
 30
0.0
 10
501.1975797963456
 20
48.11056595184459
 30
0.0
 10
501.1975797963456
 20
44.66387183685811
 30
0.0
  0
LINE
  5
14D
330
1F
100
AcDbEntity
  8
FISHER & PAYKEL
 62
   250
420
  1316376
370
     9
100
AcDbLine
 10
501.1975797963456
 20
44.66387183685811
 30
0.0
 11
501.1975797963456
 21
44.62153782521045
 31
0.0
  0
SPLINE
  5
14E
330
1F
100
AcDbEntity
  8
FISHER & PAYKEL
 62
   250
420
  1316376
370
     9
100
AcDbSpline
210
0.0
220
0.0
230
1.0
 70
     8
 71
     3
 72
     8
 73
     4
 74
     0
 42
0.000000001
 43
0.0000000001
 40
2.024000000000001
 40
2.024000000000001
 40
2.024000000000001
 40
2.024000000000001
 40
3.024000000000001
 40
3.024000000000001
 40
3.024000000000001
 40
3.024000000000001
 10
501.1975797963456
 20
44.62153782521045
 30
0.0
 10
501.1975797963456
 20
41.19601071604802
 30
0.0
 10
503.1625835036613
 20
37.95745882499614
 30
0.0
 10
506.2600220225542
 20
37.95745882499614
 30
0.0
  0
SPLINE
  5
14F
330
1F
100
AcDbEntity
  8
FISHER & PAYKEL
 62
   250
420
  1316376
370
     9
100
AcDbSpline
210
0.0
220
0.0
230
1.0
 70
     8
 71
     3
 72
     8
 73
     4
 74
     0
 42
0.000000001
 43
0.0000000001
 40
3.024000000000001
 40
3.024000000000001
 40
3.024000000000001
 40
3.024000000000001
 40
4.024000000000001
 40
4.024000000000001
 40
4.024000000000001
 40
4.024000000000001
 10
506.2600220225542
 20
37.95745882499614
 30
0.0
 10
509.3609883757505
 20
37.95745882499614
 30
0.0
 10
511.2836580714185
 20
41.15014887009647
 30
0.0
 10
511.2836580714185
 20
44.5792038135628
 30
0.0
  0
LINE
  5
150
330
1F
100
AcDbEntity
  8
FISHER & PAYKEL
 62
   250
420
  1316376
370
     9
100
AcDbLine
 10
500.0404501446411
 20
44.5792038135628
 30
0.0
 11
500.0404501446411
 21
44.62153782521045
 31
0.0
  0
SPLINE
  5
151
330
1F
100
AcDbEntity
  8
FISHER & PAYKEL
 62
   250
420
  1316376
370
     9
100
AcDbSpline
210
0.0
220
0.0
230
1.0
 70
     8
 71
     3
 72
     8
 73
     4
 74
     0
 42
0.000000001
 43
0.0000000001
 40
2.012
 40
2.012
 40
2.012
 40
2.012
 40
3.012
 40
3.012
 40
3.012
 40
3.012
 10
500.0404501446411
 20
44.62153782521045
 30
0.0
 10
500.0404501446411
 20
48.70324211491265
 30
0.0
 10
502.4570166428658
 20
52.28046609914645
 30
0.0
 10
506.2600220225542
 20
52.28046609914645
 30
0.0
  0
SPLINE
  5
152
330
1F
100
AcDbEntity
  8
FISHER & PAYKEL
 62
   250
420
  1316376
370
     9
100
AcDbSpline
210
0.0
220
0.0
230
1.0
 70
     8
 71
     3
 72
     8
 73
     4
 74
     0
 42
0.000000001
 43
0.0000000001
 40
3.012
 40
3.012
 40
3.012
 40
3.012
 40
4.012
 40
4.012
 40
4.012
 40
4.012
 10
506.2600220225542
 20
52.28046609914645
 30
0.0
 10
510.063027402242
 20
52.28046609914645
 30
0.0
 10
512.4372598888191
 20
48.74910396086466
 30
0.0
 10
512.4372598888191
 20
44.66387183685811
 30
0.0
  0
LINE
  5
153
330
1F
100
AcDbEntity
  8
FISHER & PAYKEL
 62
   250
420
  1316376
370
     9
100
AcDbLine
 10
512.4372598888191
 20
44.66387183685811
 30
0.0
 11
512.4372598888191
 21
44.62153782521045
 31
0.0
  0
SPLINE
  5
154
330
1F
100
AcDbEntity
  8
FISHER & PAYKEL
 62
   250
420
  1316376
370
     9
100
AcDbSpline
210
0.0
220
0.0
230
1.0
 70
     8
 71
     3
 72
     8
 73
     4
 74
     0
 42
0.000000001
 43
0.0000000001
 40
4.024000000000001
 40
4.024000000000001
 40
4.024000000000001
 40
4.024000000000001
 40
5.024000000000001
 40
5.024000000000001
 40
5.024000000000001
 40
5.024000000000001
 10
512.4372598888191
 20
44.62153782521045
 30
0.0
 10
512.4372598888191
 20
40.53630570120413
 30
0.0
 10
510.0242212248983
 20
36.96260955127445
 30
0.0
 10
506.2176880109065
 20
36.96260955127445
 30
0.0
  0
SPLINE
  5
155
330
1F
100
AcDbEntity
  8
FISHER & PAYKEL
 62
   250
420
  1316376
370
     9
100
AcDbSpline
210
0.0
220
0.0
230
1.0
 70
     8
 71
     3
 72
     8
 73
     4
 74
     0
 42
0.000000001
 43
0.0000000001
 40
5.024000000000001
 40
5.024000000000001
 40
5.024000000000001
 40
5.024000000000001
 40
6.024000000000001
 40
6.024000000000001
 40
6.024000000000001
 40
6.024000000000001
 10
506.2176880109065
 20
36.96260955127445
 30
0.0
 10
502.4111547969143
 20
36.96260955127445
 30
0.0
 10
500.0404501446411
 20
40.49749952386037
 30
0.0
 10
500.0404501446411
 20
44.5792038135628
 30
0.0
  0
POLYLINE
  5
156
330
1F
100
AcDbEntity
  8
FISHER & PAYKEL
 62
   250
420
  1316376
370
     9
100
AcDb2dPolyline
 66
     1
 10
0.0
 20
0.0
 30
0.0
 70
     1
  0
VERTEX
  5
157
330
156
100
AcDbEntity
  8
FISHER & PAYKEL
 62
   250
420
  1316376
370
     9
100
AcDbVertex
100
AcDb2dVertex
 10
494.009617401991
 20
41.78692296196436
 30
0.0
  0
VERTEX
  5
158
330
156
100
AcDbEntity
  8
FISHER & PAYKEL
 62
   250
420
  1316376
370
     9
100
AcDbVertex
100
AcDb2dVertex
 10
494.009617401991
 20
50.54300770443751
 30
0.0
  0
VERTEX
  5
159
330
156
100
AcDbEntity
  8
FISHER & PAYKEL
 62
   250
420
  1316376
370
     9
100
AcDbVertex
100
AcDb2dVertex
 10
486.8728086050438
 20
41.78692296196436
 30
0.0
  0
SEQEND
  5
15A
330
156
100
AcDbEntity
  8
FISHER & PAYKEL
 62
   250
420
  1316376
370
     9
  0
POLYLINE
  5
15B
330
1F
100
AcDbEntity
  8
FISHER & PAYKEL
 62
   250
420
  1316376
370
     9
100
AcDb2dPolyline
 66
     1
 10
0.0
 20
0.0
 30
0.0
 70
     1
  0
VERTEX
  5
15C
330
15B
100
AcDbEntity
  8
FISHER & PAYKEL
 62
   250
420
  1316376
370
     9
100
AcDbVertex
100
AcDb2dVertex
 10
494.009617401991
 20
40.83440769989056
 30
0.0
  0
VERTEX
  5
15D
330
15B
100
AcDbEntity
  8
FISHER & PAYKEL
 62
   250
420
  1316376
370
     9
100
AcDbVertex
100
AcDb2dVertex
 10
485.9097098400576
 20
40.83440769989056
 30
0.0
  0
VERTEX
  5
15E
330
15B
100
AcDbEntity
  8
FISHER & PAYKEL
 62
   250
420
  1316376
370
     9
100
AcDbVertex
100
AcDb2dVertex
 10
485.5251759009244
 20
41.6599209270214
 30
0.0
  0
VERTEX
  5
15F
330
15B
100
AcDbEntity
  8
FISHER & PAYKEL
 62
   250
420
  1316376
370
     9
100
AcDbVertex
100
AcDb2dVertex
 10
494.0731184194625
 20
52.13053314122772
 30
0.0
  0
VERTEX
  5
160
330
15B
100
AcDbEntity
  8
FISHER & PAYKEL
 62
   250
420
  1316376
370
     9
100
AcDbVertex
100
AcDb2dVertex
 10
495.0785511960963
 20
52.13053314122772
 30
0.0
  0
VERTEX
  5
161
330
15B
100
AcDbEntity
  8
FISHER & PAYKEL
 62
   250
420
  1316376
370
     9
100
AcDbVertex
100
AcDb2dVertex
 10
495.0785511960963
 20
41.78692296196436
 30
0.0
  0
VERTEX
  5
162
330
15B
100
AcDbEntity
  8
FISHER & PAYKEL
 62
   250
420
  1316376
370
     9
100
AcDbVertex
100
AcDb2dVertex
 10
497.512756865841
 20
41.78692296196436
 30
0.0
  0
VERTEX
  5
163
330
15B
100
AcDbEntity
  8
FISHER & PAYKEL
 62
   250
420
  1316376
370
     9
100
AcDbVertex
100
AcDb2dVertex
 10
497.512756865841
 20
40.83440769989056
 30
0.0
  0
VERTEX
  5
164
330
15B
100
AcDbEntity
  8
FISHER & PAYKEL
 62
   250
420
  1316376
370
     9
100
AcDbVertex
100
AcDb2dVertex
 10
495.0785511960963
 20
40.83440769989056
 30
0.0
  0
VERTEX
  5
165
330
15B
100
AcDbEntity
  8
FISHER & PAYKEL
 62
   250
420
  1316376
370
     9
100
AcDbVertex
100
AcDb2dVertex
 10
495.0785511960963
 20
37.21837753831323
 30
0.0
  0
VERTEX
  5
166
330
15B
100
AcDbEntity
  8
FISHER & PAYKEL
 62
   250
420
  1316376
370
     9
100
AcDbVertex
100
AcDb2dVertex
 10
494.009617401991
 20
37.21837753831323
 30
0.0
  0
SEQEND
  5
167
330
15B
100
AcDbEntity
  8
FISHER & PAYKEL
 62
   250
420
  1316376
370
     9
  0
LINE
  5
168
330
1F
100
AcDbEntity
  8
FISHER & PAYKEL
 62
   250
420
  1316376
370
     9
100
AcDbLine
 10
325.6278499902807
 20
44.5792038135628
 30
0.0
 11
325.6278499902807
 21
44.62153782521045
 31
0.0
  0
SPLINE
  5
169
330
1F
100
AcDbEntity
  8
FISHER & PAYKEL
 62
   250
420
  1316376
370
     9
100
AcDbSpline
210
0.0
220
0.0
230
1.0
 70
     8
 71
     3
 72
     8
 73
     4
 74
     0
 42
0.000000001
 43
0.0000000001
 40
0.0120000000000005
 40
0.0120000000000005
 40
0.0120000000000005
 40
0.0120000000000005
 40
1.012
 40
1.012
 40
1.012
 40
1.012
 10
325.6278499902807
 20
44.62153782521045
 30
0.0
 10
325.6278499902807
 20
48.06823194019694
 30
0.0
 10
323.6628462829648
 20
51.28561682542477
 30
0.0
 10
320.5618799297682
 20
51.28561682542477
 30
0.0
  0
SPLINE
  5
16A
330
1F
100
AcDbEntity
  8
FISHER & PAYKEL
 62
   250
420
  1316376
370
     9
100
AcDbSpline
210
0.0
220
0.0
230
1.0
 70
     8
 71
     3
 72
     8
 73
     4
 74
     0
 42
0.000000001
 43
0.0000000001
 40
1.012
 40
1.012
 40
1.012
 40
1.012
 40
2.012
 40
2.012
 40
2.012
 40
2.012
 10
320.5618799297682
 20
51.28561682542477
 30
0.0
 10
317.4679692451797
 20
51.28561682542477
 30
0.0
 10
315.5417717152078
 20
48.11056595184459
 30
0.0
 10
315.5417717152078
 20
44.66387183685811
 30
0.0
  0
LINE
  5
16B
330
1F
100
AcDbEntity
  8
FISHER & PAYKEL
 62
   250
420
  1316376
370
     9
100
AcDbLine
 10
315.5417717152078
 20
44.66387183685811
 30
0.0
 11
315.5417717152078
 21
44.62153782521045
 31
0.0
  0
SPLINE
  5
16C
330
1F
100
AcDbEntity
  8
FISHER & PAYKEL
 62
   250
420
  1316376
370
     9
100
AcDbSpline
210
0.0
220
0.0
230
1.0
 70
     8
 71
     3
 72
     8
 73
     4
 74
     0
 42
0.000000001
 43
0.0000000001
 40
2.024000000000001
 40
2.024000000000001
 40
2.024000000000001
 40
2.024000000000001
 40
3.024000000000001
 40
3.024000000000001
 40
3.024000000000001
 40
3.024000000000001
 10
315.5417717152078
 20
44.62153782521045
 30
0.0
 10
315.5417717152078
 20
41.19601071604802
 30
0.0
 10
317.5067754225234
 20
37.95745882499614
 30
0.0
 10
320.6077417757202
 20
37.95745882499614
 30
0.0
  0
SPLINE
  5
16D
330
1F
100
AcDbEntity
  8
FISHER & PAYKEL
 62
   250
420
  1316376
370
     9
100
AcDbSpline
210
0.0
220
0.0
230
1.0
 70
     8
 71
     3
 72
     8
 73
     4
 74
     0
 42
0.000000001
 43
0.0000000001
 40
3.024000000000001
 40
3.024000000000001
 40
3.024000000000001
 40
3.024000000000001
 40
4.024000000000001
 40
4.024000000000001
 40
4.024000000000001
 40
4.024000000000001
 10
320.6077417757202
 20
37.95745882499614
 30
0.0
 10
323.7051802946124
 20
37.95745882499614
 30
0.0
 10
325.6278499902807
 20
41.15014887009647
 30
0.0
 10
325.6278499902807
 20
44.5792038135628
 30
0.0
  0
LINE
  5
16E
330
1F
100
AcDbEntity
  8
FISHER & PAYKEL
 62
   250
420
  1316376
370
     9
100
AcDbLine
 10
314.3846420635031
 20
44.5792038135628
 30
0.0
 11
314.3846420635031
 21
44.62153782521045
 31
0.0
  0
SPLINE
  5
16F
330
1F
100
AcDbEntity
  8
FISHER & PAYKEL
 62
   250
420
  1316376
370
     9
100
AcDbSpline
210
0.0
220
0.0
230
1.0
 70
     8
 71
     3
 72
     8
 73
     4
 74
     0
 42
0.000000001
 43
0.0000000001
 40
2.012
 40
2.012
 40
2.012
 40
2.012
 40
3.012
 40
3.012
 40
3.012
 40
3.012
 10
314.3846420635031
 20
44.62153782521045
 30
0.0
 10
314.3846420635031
 20
48.70324211491265
 30
0.0
 10
316.801208561728
 20
52.28046609914645
 30
0.0
 10
320.6077417757202
 20
52.28046609914645
 30
0.0
  0
SPLINE
  5
170
330
1F
100
AcDbEntity
  8
FISHER & PAYKEL
 62
   250
420
  1316376
370
     9
100
AcDbSpline
210
0.0
220
0.0
230
1.0
 70
     8
 71
     3
 72
     8
 73
     4
 74
     0
 42
0.000000001
 43
0.0000000001
 40
3.012
 40
3.012
 40
3.012
 40
3.012
 40
4.012
 40
4.012
 40
4.012
 40
4.012
 10
320.6077417757202
 20
52.28046609914645
 30
0.0
 10
324.4107471554081
 20
52.28046609914645
 30
0.0
 10
326.7814518076813
 20
48.74910396086466
 30
0.0
 10
326.7814518076813
 20
44.66387183685811
 30
0.0
  0
LINE
  5
171
330
1F
100
AcDbEntity
  8
FISHER & PAYKEL
 62
   250
420
  1316376
370
     9
100
AcDbLine
 10
326.7814518076813
 20
44.66387183685811
 30
0.0
 11
326.7814518076813
 21
44.62153782521045
 31
0.0
  0
SPLINE
  5
172
330
1F
100
AcDbEntity
  8
FISHER & PAYKEL
 62
   250
420
  1316376
370
     9
100
AcDbSpline
210
0.0
220
0.0
230
1.0
 70
     8
 71
     3
 72
     8
 73
     4
 74
     0
 42
0.000000001
 43
0.0000000001
 40
4.024000000000001
 40
4.024000000000001
 40
4.024000000000001
 40
4.024000000000001
 40
5.024000000000001
 40
5.024000000000001
 40
5.024000000000001
 40
5.024000000000001
 10
326.7814518076813
 20
44.62153782521045
 30
0.0
 10
326.7814518076813
 20
40.53630570120413
 30
0.0
 10
324.3684131437604
 20
36.96260955127445
 30
0.0
 10
320.5618799297682
 20
36.96260955127445
 30
0.0
  0
SPLINE
  5
173
330
1F
100
AcDbEntity
  8
FISHER & PAYKEL
 62
   250
420
  1316376
370
     9
100
AcDbSpline
210
0.0
220
0.0
230
1.0
 70
     8
 71
     3
 72
     8
 73
     4
 74
     0
 42
0.000000001
 43
0.0000000001
 40
5.024000000000001
 40
5.024000000000001
 40
5.024000000000001
 40
5.024000000000001
 40
6.024000000000001
 40
6.024000000000001
 40
6.024000000000001
 40
6.024000000000001
 10
320.5618799297682
 20
36.96260955127445
 30
0.0
 10
316.7588745500801
 20
36.96260955127445
 30
0.0
 10
314.3846420635031
 20
40.49749952386037
 30
0.0
 10
314.3846420635031
 20
44.5792038135628
 30
0.0
  0
LINE
  5
174
330
1F
100
AcDbEntity
  8
FISHER & PAYKEL
 62
   250
420
  1316376
370
     9
100
AcDbLine
 10
310.4899129919114
 20
44.5792038135628
 30
0.0
 11
310.4899129919114
 21
44.62153782521045
 31
0.0
  0
SPLINE
  5
175
330
1F
100
AcDbEntity
  8
FISHER & PAYKEL
 62
   250
420
  1316376
370
     9
100
AcDbSpline
210
0.0
220
0.0
230
1.0
 70
     8
 71
     3
 72
     8
 73
     4
 74
     0
 42
0.000000001
 43
0.0000000001
 40
0.0120000000000005
 40
0.0120000000000005
 40
0.0120000000000005
 40
0.0120000000000005
 40
1.012
 40
1.012
 40
1.012
 40
1.012
 10
310.4899129919114
 20
44.62153782521045
 30
0.0
 10
310.4899129919114
 20
48.06823194019694
 30
0.0
 10
308.5249092845958
 20
51.28561682542477
 30
0.0
 10
305.4239429313994
 20
51.28561682542477
 30
0.0
  0
SPLINE
  5
176
330
1F
100
AcDbEntity
  8
FISHER & PAYKEL
 62
   250
420
  1316376
370
     9
100
AcDbSpline
210
0.0
220
0.0
230
1.0
 70
     8
 71
     3
 72
     8
 73
     4
 74
     0
 42
0.000000001
 43
0.0000000001
 40
1.012
 40
1.012
 40
1.012
 40
1.012
 40
2.012
 40
2.012
 40
2.012
 40
2.012
 10
305.4239429313994
 20
51.28561682542477
 30
0.0
 10
302.3300322468109
 20
51.28561682542477
 30
0.0
 10
300.403834716839
 20
48.11056595184459
 30
0.0
 10
300.403834716839
 20
44.66387183685811
 30
0.0
  0
LINE
  5
177
330
1F
100
AcDbEntity
  8
FISHER & PAYKEL
 62
   250
420
  1316376
370
     9
100
AcDbLine
 10
300.403834716839
 20
44.66387183685811
 30
0.0
 11
300.403834716839
 21
44.62153782521045
 31
0.0
  0
SPLINE
  5
178
330
1F
100
AcDbEntity
  8
FISHER & PAYKEL
 62
   250
420
  1316376
370
     9
100
AcDbSpline
210
0.0
220
0.0
230
1.0
 70
     8
 71
     3
 72
     8
 73
     4
 74
     0
 42
0.000000001
 43
0.0000000001
 40
2.024000000000001
 40
2.024000000000001
 40
2.024000000000001
 40
2.024000000000001
 40
3.024000000000001
 40
3.024000000000001
 40
3.024000000000001
 40
3.024000000000001
 10
300.403834716839
 20
44.62153782521045
 30
0.0
 10
300.403834716839
 20
41.19601071604802
 30
0.0
 10
302.3688384241544
 20
37.95745882499614
 30
0.0
 10
305.469804777351
 20
37.95745882499614
 30
0.0
  0
SPLINE
  5
179
330
1F
100
AcDbEntity
  8
FISHER & PAYKEL
 62
   250
420
  1316376
370
     9
100
AcDbSpline
210
0.0
220
0.0
230
1.0
 70
     8
 71
     3
 72
     8
 73
     4
 74
     0
 42
0.000000001
 43
0.0000000001
 40
3.024000000000001
 40
3.024000000000001
 40
3.024000000000001
 40
3.024000000000001
 40
4.024000000000001
 40
4.024000000000001
 40
4.024000000000001
 40
4.024000000000001
 10
305.469804777351
 20
37.95745882499614
 30
0.0
 10
308.5672432962436
 20
37.95745882499614
 30
0.0
 10
310.4899129919114
 20
41.15014887009647
 30
0.0
 10
310.4899129919114
 20
44.5792038135628
 30
0.0
  0
LINE
  5
17A
330
1F
100
AcDbEntity
  8
FISHER & PAYKEL
 62
   250
420
  1316376
370
     9
100
AcDbLine
 10
299.2467050651343
 20
44.5792038135628
 30
0.0
 11
299.2467050651343
 21
44.62153782521045
 31
0.0
  0
SPLINE
  5
17B
330
1F
100
AcDbEntity
  8
FISHER & PAYKEL
 62
   250
420
  1316376
370
     9
100
AcDbSpline
210
0.0
220
0.0
230
1.0
 70
     8
 71
     3
 72
     8
 73
     4
 74
     0
 42
0.000000001
 43
0.0000000001
 40
2.012
 40
2.012
 40
2.012
 40
2.012
 40
3.012
 40
3.012
 40
3.012
 40
3.012
 10
299.2467050651343
 20
44.62153782521045
 30
0.0
 10
299.2467050651343
 20
48.70324211491265
 30
0.0
 10
301.663271563359
 20
52.28046609914645
 30
0.0
 10
305.469804777351
 20
52.28046609914645
 30
0.0
  0
SPLINE
  5
17C
330
1F
100
AcDbEntity
  8
FISHER & PAYKEL
 62
   250
420
  1316376
370
     9
100
AcDbSpline
210
0.0
220
0.0
230
1.0
 70
     8
 71
     3
 72
     8
 73
     4
 74
     0
 42
0.000000001
 43
0.0000000001
 40
3.012
 40
3.012
 40
3.012
 40
3.012
 40
4.012
 40
4.012
 40
4.012
 40
4.012
 10
305.469804777351
 20
52.28046609914645
 30
0.0
 10
309.2728101570391
 20
52.28046609914645
 30
0.0
 10
311.6435148093125
 20
48.74910396086466
 30
0.0
 10
311.6435148093125
 20
44.66387183685811
 30
0.0
  0
LINE
  5
17D
330
1F
100
AcDbEntity
  8
FISHER & PAYKEL
 62
   250
420
  1316376
370
     9
100
AcDbLine
 10
311.6435148093125
 20
44.66387183685811
 30
0.0
 11
311.6435148093125
 21
44.62153782521045
 31
0.0
  0
SPLINE
  5
17E
330
1F
100
AcDbEntity
  8
FISHER & PAYKEL
 62
   250
420
  1316376
370
     9
100
AcDbSpline
210
0.0
220
0.0
230
1.0
 70
     8
 71
     3
 72
     8
 73
     4
 74
     0
 42
0.000000001
 43
0.0000000001
 40
4.024000000000001
 40
4.024000000000001
 40
4.024000000000001
 40
4.024000000000001
 40
5.024000000000001
 40
5.024000000000001
 40
5.024000000000001
 40
5.024000000000001
 10
311.6435148093125
 20
44.62153782521045
 30
0.0
 10
311.6435148093125
 20
40.53630570120413
 30
0.0
 10
309.2304761453912
 20
36.96260955127445
 30
0.0
 10
305.4239429313994
 20
36.96260955127445
 30
0.0
  0
SPLINE
  5
17F
330
1F
100
AcDbEntity
  8
FISHER & PAYKEL
 62
   250
420
  1316376
370
     9
100
AcDbSpline
210
0.0
220
0.0
230
1.0
 70
     8
 71
     3
 72
     8
 73
     4
 74
     0
 42
0.000000001
 43
0.0000000001
 40
5.024000000000001
 40
5.024000000000001
 40
5.024000000000001
 40
5.024000000000001
 40
6.024000000000001
 40
6.024000000000001
 40
6.024000000000001
 40
6.024000000000001
 10
305.4239429313994
 20
36.96260955127445
 30
0.0
 10
301.6209375517113
 20
36.96260955127445
 30
0.0
 10
299.2467050651343
 20
40.49749952386037
 30
0.0
 10
299.2467050651343
 20
44.5792038135628
 30
0.0
  0
LINE
  5
180
330
1F
100
AcDbEntity
  8
FISHER & PAYKEL
 62
   250
420
  1316376
370
     9
100
AcDbLine
 10
286.3119005895998
 20
38.04212684829213
 30
0.0
 11
291.8894066241886
 21
43.0375402227246
 31
0.0
  0
SPLINE
  5
181
330
1F
100
AcDbEntity
  8
FISHER & PAYKEL
 62
   250
420
  1316376
370
     9
100
AcDbSpline
210
0.0
220
0.0
230
1.0
 70
     8
 71
     3
 72
     8
 73
     4
 74
     0
 42
0.000000001
 43
0.0000000001
 40
2.122408301906088
 40
2.122408301906088
 40
2.122408301906088
 40
2.122408301906088
 40
3.122408301906088
 40
3.122408301906088
 40
3.122408301906088
 40
3.122408301906088
 10
291.8894066241886
 20
43.0375402227246
 30
0.0
 10
294.3447792997569
 20
45.25654799992662
 30
0.0
 10
295.2020430356234
 20
46.52656834935829
 30
0.0
 10
295.2020430356234
 20
48.08939894602076
 30
0.0
  0
SPLINE
  5
182
330
1F
100
AcDbEntity
  8
FISHER & PAYKEL
 62
   250
420
  1316376
370
     9
100
AcDbSpline
210
0.0
220
0.0
230
1.0
 70
     8
 71
     3
 72
     8
 73
     4
 74
     0
 42
0.000000001
 43
0.0000000001
 40
3.122408301906088
 40
3.122408301906088
 40
3.122408301906088
 40
3.122408301906088
 40
4.122408301906088
 40
4.122408301906088
 40
4.122408301906088
 40
4.122408301906088
 10
295.2020430356234
 20
48.08939894602076
 30
0.0
 10
295.2020430356234
 20
50.01559647599265
 30
0.0
 10
293.6180454331376
 20
51.26444981960071
 30
0.0
 10
291.822377772413
 20
51.26444981960071
 30
0.0
  0
SPLINE
  5
183
330
1F
100
AcDbEntity
  8
FISHER & PAYKEL
 62
   250
420
  1316376
370
     9
100
AcDbSpline
210
0.0
220
0.0
230
1.0
 70
     8
 71
     3
 72
     8
 73
     4
 74
     0
 42
0.000000001
 43
0.0000000001
 40
4.122408301906088
 40
4.122408301906088
 40
4.122408301906088
 40
4.122408301906088
 40
5.122408301906088
 40
5.122408301906088
 40
5.122408301906088
 40
5.122408301906088
 10
291.822377772413
 20
51.26444981960071
 30
0.0
 10
289.9208750825688
 20
51.26444981960071
 30
0.0
 10
288.6861330761764
 20
50.29076755170263
 30
0.0
 10
287.4443354011765
 20
48.51273906249821
 30
0.0
  0
LINE
  5
184
330
1F
100
AcDbEntity
  8
FISHER & PAYKEL
 62
   250
420
  1316376
370
     9
100
AcDbLine
 10
287.4443354011765
 20
48.51273906249821
 30
0.0
 11
286.6117665054375
 21
49.06660904822252
 31
0.0
  0
SPLINE
  5
185
330
1F
100
AcDbEntity
  8
FISHER & PAYKEL
 62
   250
420
  1316376
370
     9
100
AcDbSpline
210
0.0
220
0.0
230
1.0
 70
     8
 71
     3
 72
     8
 73
     4
 74
     0
 42
0.000000001
 43
0.0000000001
 40
5.405860237867048
 40
5.405860237867048
 40
5.405860237867048
 40
5.405860237867048
 40
6.405860237867048
 40
6.405860237867048
 40
6.405860237867048
 40
6.405860237867048
 10
286.6117665054375
 20
49.06660904822252
 30
0.0
 10
287.9135373636055
 20
51.03161275553839
 30
0.0
 10
289.3035040793726
 20
52.23813208749857
 30
0.0
 10
291.931740635836
 20
52.23813208749857
 30
0.0
  0
SPLINE
  5
186
330
1F
100
AcDbEntity
  8
FISHER & PAYKEL
 62
   250
420
  1316376
370
     9
100
AcDbSpline
210
0.0
220
0.0
230
1.0
 70
     8
 71
     3
 72
     8
 73
     4
 74
     0
 42
0.000000001
 43
0.0000000001
 40
6.405860237867048
 40
6.405860237867048
 40
6.405860237867048
 40
6.405860237867048
 40
7.405860237867048
 40
7.405860237867048
 40
7.405860237867048
 40
7.405860237867048
 10
291.931740635836
 20
52.23813208749857
 30
0.0
 10
294.4753091690042
 20
52.23813208749857
 30
0.0
 10
296.3803396931522
 20
50.48127060411775
 30
0.0
 10
296.3803396931522
 20
48.1775948036202
 30
0.0
  0
LINE
  5
187
330
1F
100
AcDbEntity
  8
FISHER & PAYKEL
 62
   250
420
  1316376
370
     9
100
AcDbLine
 10
296.3803396931522
 20
48.1775948036202
 30
0.0
 11
296.3803396931522
 21
48.13173295766842
 31
0.0
  0
SPLINE
  5
188
330
1F
100
AcDbEntity
  8
FISHER & PAYKEL
 62
   250
420
  1316376
370
     9
100
AcDbSpline
210
0.0
220
0.0
230
1.0
 70
     8
 71
     3
 72
     8
 73
     4
 74
     0
 42
0.000000001
 43
0.0000000001
 40
7.418860237867025
 40
7.418860237867025
 40
7.418860237867025
 40
7.418860237867025
 40
8.418860237867026
 40
8.418860237867026
 40
8.418860237867026
 40
8.418860237867026
 10
296.3803396931522
 20
48.13173295766842
 30
0.0
 10
296.3803396931522
 20
46.10322823288107
 30
0.0
 10
295.2655440530954
 20
44.74853986015364
 30
0.0
 10
292.6373074966319
 20
42.37783520788048
 30
0.0
  0
LINE
  5
189
330
1F
100
AcDbEntity
  8
FISHER & PAYKEL
 62
   250
420
  1316376
370
     9
100
AcDbLine
 10
292.6373074966319
 20
42.37783520788048
 30
0.0
 11
288.0652342386765
 21
38.27496391235445
 31
0.0
  0
LINE
  5
18A
330
1F
100
AcDbEntity
  8
FISHER & PAYKEL
 62
   250
420
  1316376
370
     9
100
AcDbLine
 10
288.0652342386765
 20
38.27496391235445
 30
0.0
 11
296.5285087339195
 21
38.27496391235445
 31
0.0
  0
LINE
  5
18B
330
1F
100
AcDbEntity
  8
FISHER & PAYKEL
 62
   250
420
  1316376
370
     9
100
AcDbLine
 10
296.5285087339195
 20
38.27496391235445
 30
0.0
 11
296.5285087339195
 21
37.21661362116106
 31
0.0
  0
LINE
  5
18C
330
1F
100
AcDbEntity
  8
FISHER & PAYKEL
 62
   250
420
  1316376
370
     9
100
AcDbLine
 10
296.5285087339195
 20
37.21661362116106
 30
0.0
 11
286.3119005895993
 21
37.21661362116106
 31
0.0
  0
LINE
  5
18D
330
1F
100
AcDbEntity
  8
FISHER & PAYKEL
 62
   250
420
  1316376
370
     9
100
AcDbLine
 10
286.3119005895993
 20
37.21661362116106
 30
0.0
 11
286.3119005895998
 21
38.04212684829213
 31
0.0
  0
LINE
  5
18E
330
1F
100
AcDbEntity
  8
FISHER & PAYKEL
 62
   250
420
  1316376
370
     9
100
AcDbLine
 10
222.904017943623
 20
44.5792038135628
 30
0.0
 11
222.904017943623
 21
44.62153782521045
 31
0.0
  0
SPLINE
  5
18F
330
1F
100
AcDbEntity
  8
FISHER & PAYKEL
 62
   250
420
  1316376
370
     9
100
AcDbSpline
210
0.0
220
0.0
230
1.0
 70
     8
 71
     3
 72
     8
 73
     4
 74
     0
 42
0.000000001
 43
0.0000000001
 40
0.0120000000000005
 40
0.0120000000000005
 40
0.0120000000000005
 40
0.0120000000000005
 40
1.012
 40
1.012
 40
1.012
 40
1.012
 10
222.904017943623
 20
44.62153782521045
 30
0.0
 10
222.904017943623
 20
48.06823194019694
 30
0.0
 10
220.9390142363073
 20
51.28561682542477
 30
0.0
 10
217.838047883111
 20
51.28561682542477
 30
0.0
  0
SPLINE
  5
190
330
1F
100
AcDbEntity
  8
FISHER & PAYKEL
 62
   250
420
  1316376
370
     9
100
AcDbSpline
210
0.0
220
0.0
230
1.0
 70
     8
 71
     3
 72
     8
 73
     4
 74
     0
 42
0.000000001
 43
0.0000000001
 40
1.012
 40
1.012
 40
1.012
 40
1.012
 40
2.012
 40
2.012
 40
2.012
 40
2.012
 10
217.838047883111
 20
51.28561682542477
 30
0.0
 10
214.7441371985225
 20
51.28561682542477
 30
0.0
 10
212.8179396685506
 20
48.11056595184459
 30
0.0
 10
212.8179396685506
 20
44.66387183685811
 30
0.0
  0
LINE
  5
191
330
1F
100
AcDbEntity
  8
FISHER & PAYKEL
 62
   250
420
  1316376
370
     9
100
AcDbLine
 10
212.8179396685506
 20
44.66387183685811
 30
0.0
 11
212.8179396685506
 21
44.62153782521045
 31
0.0
  0
SPLINE
  5
192
330
1F
100
AcDbEntity
  8
FISHER & PAYKEL
 62
   250
420
  1316376
370
     9
100
AcDbSpline
210
0.0
220
0.0
230
1.0
 70
     8
 71
     3
 72
     8
 73
     4
 74
     0
 42
0.000000001
 43
0.0000000001
 40
2.024000000000001
 40
2.024000000000001
 40
2.024000000000001
 40
2.024000000000001
 40
3.024000000000001
 40
3.024000000000001
 40
3.024000000000001
 40
3.024000000000001
 10
212.8179396685506
 20
44.62153782521045
 30
0.0
 10
212.8179396685506
 20
41.19601071604802
 30
0.0
 10
214.7829433758662
 20
37.95745882499614
 30
0.0
 10
217.8839097290626
 20
37.95745882499614
 30
0.0
  0
SPLINE
  5
193
330
1F
100
AcDbEntity
  8
FISHER & PAYKEL
 62
   250
420
  1316376
370
     9
100
AcDbSpline
210
0.0
220
0.0
230
1.0
 70
     8
 71
     3
 72
     8
 73
     4
 74
     0
 42
0.000000001
 43
0.0000000001
 40
3.024000000000001
 40
3.024000000000001
 40
3.024000000000001
 40
3.024000000000001
 40
4.024000000000001
 40
4.024000000000001
 40
4.024000000000001
 40
4.024000000000001
 10
217.8839097290626
 20
37.95745882499614
 30
0.0
 10
220.9813482479552
 20
37.95745882499614
 30
0.0
 10
222.904017943623
 20
41.15014887009647
 30
0.0
 10
222.904017943623
 20
44.5792038135628
 30
0.0
  0
LINE
  5
194
330
1F
100
AcDbEntity
  8
FISHER & PAYKEL
 62
   250
420
  1316376
370
     9
100
AcDbLine
 10
211.6608100168459
 20
44.5792038135628
 30
0.0
 11
211.6608100168459
 21
44.62153782521045
 31
0.0
  0
SPLINE
  5
195
330
1F
100
AcDbEntity
  8
FISHER & PAYKEL
 62
   250
420
  1316376
370
     9
100
AcDbSpline
210
0.0
220
0.0
230
1.0
 70
     8
 71
     3
 72
     8
 73
     4
 74
     0
 42
0.000000001
 43
0.0000000001
 40
2.012
 40
2.012
 40
2.012
 40
2.012
 40
3.012
 40
3.012
 40
3.012
 40
3.012
 10
211.6608100168459
 20
44.62153782521045
 30
0.0
 10
211.6608100168459
 20
48.70324211491265
 30
0.0
 10
214.0773765150706
 20
52.28046609914645
 30
0.0
 10
217.8839097290626
 20
52.28046609914645
 30
0.0
  0
SPLINE
  5
196
330
1F
100
AcDbEntity
  8
FISHER & PAYKEL
 62
   250
420
  1316376
370
     9
100
AcDbSpline
210
0.0
220
0.0
230
1.0
 70
     8
 71
     3
 72
     8
 73
     4
 74
     0
 42
0.000000001
 43
0.0000000001
 40
3.012
 40
3.012
 40
3.012
 40
3.012
 40
4.012
 40
4.012
 40
4.012
 40
4.012
 10
217.8839097290626
 20
52.28046609914645
 30
0.0
 10
221.6869151087509
 20
52.28046609914645
 30
0.0
 10
224.0576197610238
 20
48.74910396086466
 30
0.0
 10
224.0576197610238
 20
44.66387183685811
 30
0.0
  0
LINE
  5
197
330
1F
100
AcDbEntity
  8
FISHER & PAYKEL
 62
   250
420
  1316376
370
     9
100
AcDbLine
 10
224.0576197610238
 20
44.66387183685811
 30
0.0
 11
224.0576197610238
 21
44.62153782521045
 31
0.0
  0
SPLINE
  5
198
330
1F
100
AcDbEntity
  8
FISHER & PAYKEL
 62
   250
420
  1316376
370
     9
100
AcDbSpline
210
0.0
220
0.0
230
1.0
 70
     8
 71
     3
 72
     8
 73
     4
 74
     0
 42
0.000000001
 43
0.0000000001
 40
4.024000000000001
 40
4.024000000000001
 40
4.024000000000001
 40
4.024000000000001
 40
5.024000000000001
 40
5.024000000000001
 40
5.024000000000001
 40
5.024000000000001
 10
224.0576197610238
 20
44.62153782521045
 30
0.0
 10
224.0576197610238
 20
40.53630570120413
 30
0.0
 10
221.6445810971028
 20
36.96260955127445
 30
0.0
 10
217.838047883111
 20
36.96260955127445
 30
0.0
  0
SPLINE
  5
199
330
1F
100
AcDbEntity
  8
FISHER & PAYKEL
 62
   250
420
  1316376
370
     9
100
AcDbSpline
210
0.0
220
0.0
230
1.0
 70
     8
 71
     3
 72
     8
 73
     4
 74
     0
 42
0.000000001
 43
0.0000000001
 40
5.024000000000001
 40
5.024000000000001
 40
5.024000000000001
 40
5.024000000000001
 40
6.024000000000001
 40
6.024000000000001
 40
6.024000000000001
 40
6.024000000000001
 10
217.838047883111
 20
36.96260955127445
 30
0.0
 10
214.0350425034229
 20
36.96260955127445
 30
0.0
 10
211.6608100168459
 20
40.49749952386037
 30
0.0
 10
211.6608100168459
 20
44.5792038135628
 30
0.0
  0
LINE
  5
19A
330
1F
100
AcDbEntity
  8
FISHER & PAYKEL
 62
   250
420
  1316376
370
     9
100
AcDbLine
 10
207.769255996128
 20
44.5792038135628
 30
0.0
 11
207.769255996128
 21
44.62153782521045
 31
0.0
  0
SPLINE
  5
19B
330
1F
100
AcDbEntity
  8
FISHER & PAYKEL
 62
   250
420
  1316376
370
     9
100
AcDbSpline
210
0.0
220
0.0
230
1.0
 70
     8
 71
     3
 72
     8
 73
     4
 74
     0
 42
0.000000001
 43
0.0000000001
 40
0.0120000000000005
 40
0.0120000000000005
 40
0.0120000000000005
 40
0.0120000000000005
 40
1.012
 40
1.012
 40
1.012
 40
1.012
 10
207.769255996128
 20
44.62153782521045
 30
0.0
 10
207.769255996128
 20
48.06823194019694
 30
0.0
 10
205.8007244545084
 20
51.28561682542477
 30
0.0
 10
202.7032859356158
 20
51.28561682542477
 30
0.0
  0
SPLINE
  5
19C
330
1F
100
AcDbEntity
  8
FISHER & PAYKEL
 62
   250
420
  1316376
370
     9
100
AcDbSpline
210
0.0
220
0.0
230
1.0
 70
     8
 71
     3
 72
     8
 73
     4
 74
     0
 42
0.000000001
 43
0.0000000001
 40
1.012
 40
1.012
 40
1.012
 40
1.012
 40
2.012
 40
2.012
 40
2.012
 40
2.012
 10
202.7032859356158
 20
51.28561682542477
 30
0.0
 10
199.6058474167231
 20
51.28561682542477
 30
0.0
 10
197.6831777210551
 20
48.11056595184459
 30
0.0
 10
197.6831777210551
 20
44.66387183685811
 30
0.0
  0
LINE
  5
19D
330
1F
100
AcDbEntity
  8
FISHER & PAYKEL
 62
   250
420
  1316376
370
     9
100
AcDbLine
 10
197.6831777210551
 20
44.66387183685811
 30
0.0
 11
197.6831777210551
 21
44.62153782521045
 31
0.0
  0
SPLINE
  5
19E
330
1F
100
AcDbEntity
  8
FISHER & PAYKEL
 62
   250
420
  1316376
370
     9
100
AcDbSpline
210
0.0
220
0.0
230
1.0
 70
     8
 71
     3
 72
     8
 73
     4
 74
     0
 42
0.000000001
 43
0.0000000001
 40
2.024000000000001
 40
2.024000000000001
 40
2.024000000000001
 40
2.024000000000001
 40
3.024000000000001
 40
3.024000000000001
 40
3.024000000000001
 40
3.024000000000001
 10
197.6831777210551
 20
44.62153782521045
 30
0.0
 10
197.6831777210551
 20
41.19601071604802
 30
0.0
 10
199.648181428371
 20
37.95745882499614
 30
0.0
 10
202.7456199472637
 20
37.95745882499614
 30
0.0
  0
SPLINE
  5
19F
330
1F
100
AcDbEntity
  8
FISHER & PAYKEL
 62
   250
420
  1316376
370
     9
100
AcDbSpline
210
0.0
220
0.0
230
1.0
 70
     8
 71
     3
 72
     8
 73
     4
 74
     0
 42
0.000000001
 43
0.0000000001
 40
3.024000000000001
 40
3.024000000000001
 40
3.024000000000001
 40
3.024000000000001
 40
4.024000000000001
 40
4.024000000000001
 40
4.024000000000001
 40
4.024000000000001
 10
202.7456199472637
 20
37.95745882499614
 30
0.0
 10
205.84658630046
 20
37.95745882499614
 30
0.0
 10
207.769255996128
 20
41.15014887009647
 30
0.0
 10
207.769255996128
 20
44.5792038135628
 30
0.0
  0
LINE
  5
1A0
330
1F
100
AcDbEntity
  8
FISHER & PAYKEL
 62
   250
420
  1316376
370
     9
100
AcDbLine
 10
196.5260480693506
 20
44.5792038135628
 30
0.0
 11
196.5260480693506
 21
44.62153782521045
 31
0.0
  0
SPLINE
  5
1A1
330
1F
100
AcDbEntity
  8
FISHER & PAYKEL
 62
   250
420
  1316376
370
     9
100
AcDbSpline
210
0.0
220
0.0
230
1.0
 70
     8
 71
     3
 72
     8
 73
     4
 74
     0
 42
0.000000001
 43
0.0000000001
 40
2.012
 40
2.012
 40
2.012
 40
2.012
 40
3.012
 40
3.012
 40
3.012
 40
3.012
 10
196.5260480693506
 20
44.62153782521045
 30
0.0
 10
196.5260480693506
 20
48.70324211491265
 30
0.0
 10
198.9426145675753
 20
52.28046609914645
 30
0.0
 10
202.7456199472637
 20
52.28046609914645
 30
0.0
  0
SPLINE
  5
1A2
330
1F
100
AcDbEntity
  8
FISHER & PAYKEL
 62
   250
420
  1316376
370
     9
100
AcDbSpline
210
0.0
220
0.0
230
1.0
 70
     8
 71
     3
 72
     8
 73
     4
 74
     0
 42
0.000000001
 43
0.0000000001
 40
3.012
 40
3.012
 40
3.012
 40
3.012
 40
4.012
 40
4.012
 40
4.012
 40
4.012
 10
202.7456199472637
 20
52.28046609914645
 30
0.0
 10
206.5486253269515
 20
52.28046609914645
 30
0.0
 10
208.9228578135286
 20
48.74910396086466
 30
0.0
 10
208.9228578135286
 20
44.66387183685811
 30
0.0
  0
LINE
  5
1A3
330
1F
100
AcDbEntity
  8
FISHER & PAYKEL
 62
   250
420
  1316376
370
     9
100
AcDbLine
 10
208.9228578135286
 20
44.66387183685811
 30
0.0
 11
208.9228578135286
 21
44.62153782521045
 31
0.0
  0
SPLINE
  5
1A4
330
1F
100
AcDbEntity
  8
FISHER & PAYKEL
 62
   250
420
  1316376
370
     9
100
AcDbSpline
210
0.0
220
0.0
230
1.0
 70
     8
 71
     3
 72
     8
 73
     4
 74
     0
 42
0.000000001
 43
0.0000000001
 40
4.024000000000001
 40
4.024000000000001
 40
4.024000000000001
 40
4.024000000000001
 40
5.024000000000001
 40
5.024000000000001
 40
5.024000000000001
 40
5.024000000000001
 10
208.9228578135286
 20
44.62153782521045
 30
0.0
 10
208.9228578135286
 20
40.53630570120413
 30
0.0
 10
206.5098191496078
 20
36.96260955127445
 30
0.0
 10
202.7032859356158
 20
36.96260955127445
 30
0.0
  0
SPLINE
  5
1A5
330
1F
100
AcDbEntity
  8
FISHER & PAYKEL
 62
   250
420
  1316376
370
     9
100
AcDbSpline
210
0.0
220
0.0
230
1.0
 70
     8
 71
     3
 72
     8
 73
     4
 74
     0
 42
0.000000001
 43
0.0000000001
 40
5.024000000000001
 40
5.024000000000001
 40
5.024000000000001
 40
5.024000000000001
 40
6.024000000000001
 40
6.024000000000001
 40
6.024000000000001
 40
6.024000000000001
 10
202.7032859356158
 20
36.96260955127445
 30
0.0
 10
198.8967527216238
 20
36.96260955127445
 30
0.0
 10
196.5260480693506
 20
40.49749952386037
 30
0.0
 10
196.5260480693506
 20
44.5792038135628
 30
0.0
  0
POLYLINE
  5
1A6
330
1F
100
AcDbEntity
  8
FISHER & PAYKEL
 62
   250
420
  1316376
370
     9
100
AcDb2dPolyline
 66
     1
 10
0.0
 20
0.0
 30
0.0
 70
     1
  0
VERTEX
  5
1A7
330
1A6
100
AcDbEntity
  8
FISHER & PAYKEL
 62
   250
420
  1316376
370
     9
100
AcDbVertex
100
AcDb2dVertex
 10
191.8319117444777
 20
50.98892596046016
 30
0.0
  0
VERTEX
  5
1A8
330
1A6
100
AcDbEntity
  8
FISHER & PAYKEL
 62
   250
420
  1316376
370
     9
100
AcDbVertex
100
AcDb2dVertex
 10
188.9496711181279
 20
50.01524369256208
 30
0.0
  0
VERTEX
  5
1A9
330
1A6
100
AcDbEntity
  8
FISHER & PAYKEL
 62
   250
420
  1316376
370
     9
100
AcDbVertex
100
AcDb2dVertex
 10
188.6498052022895
 20
50.8830909313408
 30
0.0
  0
VERTEX
  5
1AA
330
1A6
100
AcDbEntity
  8
FISHER & PAYKEL
 62
   250
420
  1316376
370
     9
100
AcDbVertex
100
AcDb2dVertex
 10
192.0647488085402
 20
52.13194427494886
 30
0.0
  0
VERTEX
  5
1AB
330
1A6
100
AcDbEntity
  8
FISHER & PAYKEL
 62
   250
420
  1316376
370
     9
100
AcDbVertex
100
AcDb2dVertex
 10
192.9220125444068
 20
52.13194427494886
 30
0.0
  0
VERTEX
  5
1AC
330
1A6
100
AcDbEntity
  8
FISHER & PAYKEL
 62
   250
420
  1316376
370
     9
100
AcDbVertex
100
AcDb2dVertex
 10
192.9220125444068
 20
37.21626083773072
 30
0.0
  0
VERTEX
  5
1AD
330
1A6
100
AcDbEntity
  8
FISHER & PAYKEL
 62
   250
420
  1316376
370
     9
100
AcDbVertex
100
AcDb2dVertex
 10
191.8319117444777
 20
37.21626083773072
 30
0.0
  0
SEQEND
  5
1AE
330
1A6
100
AcDbEntity
  8
FISHER & PAYKEL
 62
   250
420
  1316376
370
     9
  0
POLYLINE
  5
1AF
330
1F
100
AcDbEntity
  8
FISHER & PAYKEL
100
AcDb2dPolyline
 66
     1
 10
0.0
 20
0.0
 30
0.0
  0
VERTEX
  5
1B0
330
1AF
100
AcDbEntity
  8
FISHER & PAYKEL
100
AcDbVertex
100
AcDb2dVertex
 10
106.7207748215416
 20
2.613499390080506
 30
0.0
  0
VERTEX
  5
1B1
330
1AF
100
AcDbEntity
  8
FISHER & PAYKEL
100
AcDbVertex
100
AcDb2dVertex
 10
506.7207748215416
 20
2.613499390080392
 30
0.0
  0
SEQEND
  5
1B2
330
1AF
100
AcDbEntity
  8
FISHER & PAYKEL
  0
POLYLINE
  5
1B3
330
1F
100
AcDbEntity
  8
FISHER & PAYKEL
 62
   250
420
  1316376
370
     9
100
AcDb2dPolyline
 66
     1
 10
0.0
 20
0.0
 30
0.0
  0
VERTEX
  5
1B4
330
1B3
100
AcDbEntity
  8
FISHER & PAYKEL
 62
   250
420
  1316376
370
     9
100
AcDbVertex
100
AcDb2dVertex
 10
233.7242208984654
 20
-80.84585450408792
 30
0.0
  0
VERTEX
  5
1B5
330
1B3
100
AcDbEntity
  8
FISHER & PAYKEL
 62
   250
420
  1316376
370
     9
100
AcDbVertex
100
AcDb2dVertex
 10
233.7242208984654
 20
-120.8479676768926
 30
0.0
  0
SEQEND
  5
1B6
330
1B3
100
AcDbEntity
  8
FISHER & PAYKEL
 62
   250
420
  1316376
370
     9
  0
POLYLINE
  5
1B7
330
1F
100
AcDbEntity
  8
FISHER & PAYKEL
 62
   250
420
  1316376
370
     9
100
AcDb2dPolyline
 66
     1
 10
0.0
 20
0.0
 30
0.0
  0
VERTEX
  5
1B8
330
1B7
100
AcDbEntity
  8
FISHER & PAYKEL
 62
   250
420
  1316376
370
     9
100
AcDbVertex
100
AcDb2dVertex
 10
360.7262558416679
 20
-80.84585450408792
 30
0.0
  0
VERTEX
  5
1B9
330
1B7
100
AcDbEntity
  8
FISHER & PAYKEL
 62
   250
420
  1316376
370
     9
100
AcDbVertex
100
AcDb2dVertex
 10
360.7262558416679
 20
-120.8479676768926
 30
0.0
  0
SEQEND
  5
1BA
330
1B7
100
AcDbEntity
  8
FISHER & PAYKEL
 62
   250
420
  1316376
370
     9
  0
POLYLINE
  5
1BB
330
1F
100
AcDbEntity
  8
FISHER & PAYKEL
 62
   250
420
  1316376
370
     9
100
AcDb2dPolyline
 66
     1
 10
0.0
 20
0.0
 30
0.0
  0
VERTEX
  5
1BC
330
1BB
100
AcDbEntity
  8
FISHER & PAYKEL
 62
   250
420
  1316376
370
     9
100
AcDbVertex
100
AcDb2dVertex
 10
614.7303257280724
 20
-80.84585450408792
 30
0.0
  0
VERTEX
  5
1BD
330
1BB
100
AcDbEntity
  8
FISHER & PAYKEL
 62
   250
420
  1316376
370
     9
100
AcDbVertex
100
AcDb2dVertex
 10
614.7303257280724
 20
-120.8479676768926
 30
0.0
  0
SEQEND
  5
1BE
330
1BB
100
AcDbEntity
  8
FISHER & PAYKEL
 62
   250
420
  1316376
370
     9
  0
POLYLINE
  5
1BF
330
1F
100
AcDbEntity
  8
FISHER & PAYKEL
 62
   250
420
  1316376
370
     9
100
AcDb2dPolyline
 66
     1
 10
0.0
 20
0.0
 30
0.0
 70
     1
  0
VERTEX
  5
1C0
330
1BF
100
AcDbEntity
  8
FISHER & PAYKEL
 62
   250
420
  1316376
370
     9
100
AcDbVertex
100
AcDb2dVertex
 10
106.7207748215416
 20
-120.8465565431712
 30
0.0
  0
VERTEX
  5
1C1
330
1BF
100
AcDbEntity
  8
FISHER & PAYKEL
 62
   250
420
  1316376
370
     9
100
AcDbVertex
100
AcDb2dVertex
 10
614.7289145943511
 20
-120.8465565431712
 30
0.0
  0
VERTEX
  5
1C2
330
1BF
100
AcDbEntity
  8
FISHER & PAYKEL
 62
   250
420
  1316376
370
     9
100
AcDbVertex
100
AcDb2dVertex
 10
614.7289145943511
 20
-90.84585362214364
 30
0.0
  0
VERTEX
  5
1C3
330
1BF
100
AcDbEntity
  8
FISHER & PAYKEL
 62
   250
420
  1316376
370
     9
100
AcDbVertex
100
AcDb2dVertex
 10
106.7207748215416
 20
-90.84585362214364
 30
0.0
  0
SEQEND
  5
1C4
330
1BF
100
AcDbEntity
  8
FISHER & PAYKEL
 62
   250
420
  1316376
370
     9
  0
POLYLINE
  5
1C5
330
1F
100
AcDbEntity
  8
FISHER & PAYKEL
 62
   250
420
  1316376
370
     9
100
AcDb2dPolyline
 66
     1
 10
0.0
 20
0.0
 30
0.0
 70
     1
  0
VERTEX
  5
1C6
330
1C5
100
AcDbEntity
  8
FISHER & PAYKEL
 62
   250
420
  1316376
370
     9
100
AcDbVertex
100
AcDb2dVertex
 10
360.7248447079465
 20
-120.8465565431712
 30
0.0
  0
VERTEX
  5
1C7
330
1C5
100
AcDbEntity
  8
FISHER & PAYKEL
 62
   250
420
  1316376
370
     9
100
AcDbVertex
100
AcDb2dVertex
 10
614.7289145943511
 20
-120.8465565431712
 30
0.0
  0
VERTEX
  5
1C8
330
1C5
100
AcDbEntity
  8
FISHER & PAYKEL
 62
   250
420
  1316376
370
     9
100
AcDbVertex
100
AcDb2dVertex
 10
614.7289145943511
 20
-105.8462050826573
 30
0.0
  0
VERTEX
  5
1C9
330
1C5
100
AcDbEntity
  8
FISHER & PAYKEL
 62
   250
420
  1316376
370
     9
100
AcDbVertex
100
AcDb2dVertex
 10
360.7248447079465
 20
-105.8462050826573
 30
0.0
  0
SEQEND
  5
1CA
330
1C5
100
AcDbEntity
  8
FISHER & PAYKEL
 62
   250
420
  1316376
370
     9
  0
POLYLINE
  5
1CB
330
1F
100
AcDbEntity
  8
FISHER & PAYKEL
 62
   250
420
  1316376
370
     9
100
AcDb2dPolyline
 66
     1
 10
0.0
 20
0.0
 30
0.0
 70
     1
  0
VERTEX
  5
1CC
330
1CB
100
AcDbEntity
  8
FISHER & PAYKEL
 62
   250
420
  1316376
370
     9
100
AcDbVertex
100
AcDb2dVertex
 10
233.7228097647441
 20
-105.8462050826573
 30
0.0
  0
VERTEX
  5
1CD
330
1CB
100
AcDbEntity
  8
FISHER & PAYKEL
 62
   250
420
  1316376
370
     9
100
AcDbVertex
100
AcDb2dVertex
 10
360.7248447079465
 20
-105.8462050826573
 30
0.0
  0
VERTEX
  5
1CE
330
1CB
100
AcDbEntity
  8
FISHER & PAYKEL
 62
   250
420
  1316376
370
     9
100
AcDbVertex
100
AcDb2dVertex
 10
360.7248447079465
 20
-90.84585362214364
 30
0.0
  0
VERTEX
  5
1CF
330
1CB
100
AcDbEntity
  8
FISHER & PAYKEL
 62
   250
420
  1316376
370
     9
100
AcDbVertex
100
AcDb2dVertex
 10
233.7228097647441
 20
-90.84585362214364
 30
0.0
  0
SEQEND
  5
1D0
330
1CB
100
AcDbEntity
  8
FISHER & PAYKEL
 62
   250
420
  1316376
370
     9
  0
POLYLINE
  5
1D1
330
1F
100
AcDbEntity
  8
FISHER & PAYKEL
 62
   250
420
  1316376
370
     9
100
AcDb2dPolyline
 66
     1
 10
0.0
 20
0.0
 30
0.0
 70
     1
  0
VERTEX
  5
1D2
330
1D1
100
AcDbEntity
  8
FISHER & PAYKEL
 62
   250
420
  1316376
370
     9
100
AcDbVertex
100
AcDb2dVertex
 10
106.7207748215416
 20
-120.8465565431712
 30
0.0
  0
VERTEX
  5
1D3
330
1D1
100
AcDbEntity
  8
FISHER & PAYKEL
 62
   250
420
  1316376
370
     9
100
AcDbVertex
100
AcDb2dVertex
 10
233.7228097647441
 20
-120.8465565431712
 30
0.0
  0
VERTEX
  5
1D4
330
1D1
100
AcDbEntity
  8
FISHER & PAYKEL
 62
   250
420
  1316376
370
     9
100
AcDbVertex
100
AcDb2dVertex
 10
233.7228097647441
 20
-105.8462050826573
 30
0.0
  0
VERTEX
  5
1D5
330
1D1
100
AcDbEntity
  8
FISHER & PAYKEL
 62
   250
420
  1316376
370
     9
100
AcDbVertex
100
AcDb2dVertex
 10
106.7207748215416
 20
-105.8462050826573
 30
0.0
  0
SEQEND
  5
1D6
330
1D1
100
AcDbEntity
  8
FISHER & PAYKEL
 62
   250
420
  1316376
370
     9
  0
POLYLINE
  5
1D7
330
1F
100
AcDbEntity
  8
FISHER & PAYKEL
 62
   250
420
  1316376
370
     9
100
AcDb2dPolyline
 66
     1
 10
0.0
 20
0.0
 30
0.0
  0
VERTEX
  5
1D8
330
1D7
100
AcDbEntity
  8
FISHER & PAYKEL
 62
   250
420
  1316376
370
     9
100
AcDbVertex
100
AcDb2dVertex
 10
106.7221859552632
 20
-80.84585450408792
 30
0.0
  0
VERTEX
  5
1D9
330
1D7
100
AcDbEntity
  8
FISHER & PAYKEL
 62
   250
420
  1316376
370
     9
100
AcDbVertex
100
AcDb2dVertex
 10
106.7221859552632
 20
-120.8479676768926
 30
0.0
  0
SEQEND
  5
1DA
330
1D7
100
AcDbEntity
  8
FISHER & PAYKEL
 62
   250
420
  1316376
370
     9
  0
LINE
  5
1DB
330
1F
100
AcDbEntity
  8
FISHER & PAYKEL
 62
   250
420
  1316376
370
     9
100
AcDbLine
 10
685.6383841043056
 20
-119.1457876252235
 30
0.0
 11
686.2592829418055
 21
-118.3238022323968
 31
0.0
  0
SPLINE
  5
1DC
330
1F
100
AcDbEntity
  8
FISHER & PAYKEL
 62
   250
420
  1316376
370
     9
100
AcDbSpline
210
0.0
220
0.0
230
1.0
 70
     8
 71
     3
 72
     8
 73
     4
 74
     0
 42
0.000000001
 43
0.0000000001
 40
0.2920017123236627
 40
0.2920017123236627
 40
0.2920017123236627
 40
0.2920017123236627
 40
1.292001712323663
 40
1.292001712323663
 40
1.292001712323663
 40
1.292001712323663
 10
686.2592829418055
 20
-118.3238022323968
 30
0.0
 10
687.4587466051581
 20
-119.2304556485191
 30
0.0
 10
688.7816844691498
 20
-119.7384637882918
 30
0.0
 10
690.1716511849173
 20
-119.7384637882918
 30
0.0
  0
SPLINE
  5
1DD
330
1F
100
AcDbEntity
  8
FISHER & PAYKEL
 62
   250
420
  1316376
370
     9
100
AcDbSpline
210
0.0
220
0.0
230
1.0
 70
     8
 71
     3
 72
     8
 73
     4
 74
     0
 42
0.000000001
 43
0.0000000001
 40
1.292001712323663
 40
1.292001712323663
 40
1.292001712323663
 40
1.292001712323663
 40
2.292001712323663
 40
2.292001712323663
 40
2.292001712323663
 40
2.292001712323663
 10
690.1716511849173
 20
-119.7384637882918
 30
0.0
 10
691.6462859239797
 20
-119.7384637882918
 30
0.0
 10
692.7963599070766
 20
-118.9341175669848
 30
0.0
 10
692.7963599070766
 20
-117.6852642233767
 30
0.0
  0
LINE
  5
1DE
330
1F
100
AcDbEntity
  8
FISHER & PAYKEL
 62
   250
420
  1316376
370
     9
100
AcDbLine
 10
692.7963599070766
 20
-117.6852642233767
 30
0.0
 11
692.7963599070766
 21
-117.6429302117291
 31
0.0
  0
SPLINE
  5
1DF
330
1F
100
AcDbEntity
  8
FISHER & PAYKEL
 62
   250
420
  1316376
370
     9
100
AcDbSpline
210
0.0
220
0.0
230
1.0
 70
     8
 71
     3
 72
     8
 73
     4
 74
     0
 42
0.000000001
 43
0.0000000001
 40
2.304001712323663
 40
2.304001712323663
 40
2.304001712323663
 40
2.304001712323663
 40
3.304001712323663
 40
3.304001712323663
 40
3.304001712323663
 40
3.304001712323663
 10
692.7963599070766
 20
-117.6429302117291
 30
0.0
 10
692.7963599070766
 20
-116.3764376966009
 30
0.0
 10
691.4346158657412
 20
-115.910763568476
 30
0.0
 10
689.9141192807266
 20
-115.4874234519986
 30
0.0
  0
SPLINE
  5
1E0
330
1F
100
AcDbEntity
  8
FISHER & PAYKEL
 62
   250
420
  1316376
370
     9
100
AcDbSpline
210
0.0
220
0.0
230
1.0
 70
     8
 71
     3
 72
     8
 73
     4
 74
     0
 42
0.000000001
 43
0.0000000001
 40
3.304001712323663
 40
3.304001712323663
 40
3.304001712323663
 40
3.304001712323663
 40
4.304001712323663
 40
4.304001712323663
 40
4.304001712323663
 40
4.304001712323663
 10
689.9141192807266
 20
-115.4874234519986
 30
0.0
 10
688.1396186258258
 20
-114.9758874779217
 30
0.0
 10
686.1746149185102
 20
-114.450240166629
 30
0.0
 10
686.1746149185102
 20
-112.5240426366571
 30
0.0
  0
LINE
  5
1E1
330
1F
100
AcDbEntity
  8
FISHER & PAYKEL
 62
   250
420
  1316376
370
     9
100
AcDbLine
 10
686.1746149185102
 20
-112.5240426366571
 30
0.0
 11
686.1746149185102
 21
-112.4817086250094
 31
0.0
  0
SPLINE
  5
1E2
330
1F
100
AcDbEntity
  8
FISHER & PAYKEL
 62
   250
420
  1316376
370
     9
100
AcDbSpline
210
0.0
220
0.0
230
1.0
 70
     8
 71
     3
 72
     8
 73
     4
 74
     0
 42
0.000000001
 43
0.0000000001
 40
4.316001712323663
 40
4.316001712323663
 40
4.316001712323663
 40
4.316001712323663
 40
5.316001712323663
 40
5.316001712323663
 40
5.316001712323663
 40
5.316001712323663
 10
686.1746149185102
 20
-112.4817086250094
 30
0.0
 10
686.1746149185102
 20
-110.7460141474525
 30
0.0
 10
687.6492496575728
 20
-109.5006886381483
 30
0.0
 10
689.7659502399596
 20
-109.5006886381483
 30
0.0
  0
SPLINE
  5
1E3
330
1F
100
AcDbEntity
  8
FISHER & PAYKEL
 62
   250
420
  1316376
370
     9
100
AcDbSpline
210
0.0
220
0.0
230
1.0
 70
     8
 71
     3
 72
     8
 73
     4
 74
     0
 42
0.000000001
 43
0.0000000001
 40
5.316001712323663
 40
5.316001712323663
 40
5.316001712323663
 40
5.316001712323663
 40
6.316001712323663
 40
6.316001712323663
 40
6.316001712323663
 40
6.316001712323663
 10
689.7659502399596
 20
-109.5006886381483
 30
0.0
 10
691.0677210981272
 20
-109.5006886381483
 30
0.0
 10
692.54235583719
 20
-109.9628349319693
 30
0.0
 10
693.6324566371194
 20
-110.6860409642846
 30
0.0
  0
LINE
  5
1E4
330
1F
100
AcDbEntity
  8
FISHER & PAYKEL
 62
   250
420
  1316376
370
     9
100
AcDbLine
 10
693.6324566371194
 20
-110.6860409642846
 30
0.0
 11
693.0750588170907
 21
-111.5538882030634
 31
0.0
  0
SPLINE
  5
1E5
330
1F
100
AcDbEntity
  8
FISHER & PAYKEL
 62
   250
420
  1316376
370
     9
100
AcDbSpline
210
0.0
220
0.0
230
1.0
 70
     8
 71
     3
 72
     8
 73
     4
 74
     0
 42
0.000000001
 43
0.0000000001
 40
6.608371341389377
 40
6.608371341389377
 40
6.608371341389377
 40
6.608371341389377
 40
7.608371341389377
 40
7.608371341389377
 40
7.608371341389377
 40
7.608371341389377
 10
693.0750588170907
 20
-111.5538882030634
 30
0.0
 10
692.0731538747613
 20
-110.8977110225234
 30
0.0
 10
690.8736902114086
 20
-110.470843071742
 30
0.0
 10
689.720088394008
 20
-110.470843071742
 30
0.0
  0
SPLINE
  5
1E6
330
1F
100
AcDbEntity
  8
FISHER & PAYKEL
 62
   250
420
  1316376
370
     9
100
AcDbSpline
210
0.0
220
0.0
230
1.0
 70
     8
 71
     3
 72
     8
 73
     4
 74
     0
 42
0.000000001
 43
0.0000000001
 40
7.608371341389377
 40
7.608371341389377
 40
7.608371341389377
 40
7.608371341389377
 40
8.608371341389377
 40
8.608371341389377
 40
8.608371341389377
 40
8.608371341389377
 10
689.720088394008
 20
-110.470843071742
 30
0.0
 10
688.2242866491214
 20
-110.470843071742
 30
0.0
 10
687.2435487126153
 20
-111.2787171273529
 30
0.0
 10
687.2435487126153
 20
-112.3547065900663
 30
0.0
  0
LINE
  5
1E7
330
1F
100
AcDbEntity
  8
FISHER & PAYKEL
 62
   250
420
  1316376
370
     9
100
AcDbLine
 10
687.2435487126153
 20
-112.3547065900663
 30
0.0
 11
687.2435487126153
 21
-112.400568436018
 31
0.0
  0
SPLINE
  5
1E8
330
1F
100
AcDbEntity
  8
FISHER & PAYKEL
 62
   250
420
  1316376
370
     9
100
AcDbSpline
210
0.0
220
0.0
230
1.0
 70
     8
 71
     3
 72
     8
 73
     4
 74
     0
 42
0.000000001
 43
0.0000000001
 40
8.62137134138941
 40
8.62137134138941
 40
8.62137134138941
 40
8.62137134138941
 40
9.62137134138941
 40
9.62137134138941
 40
9.62137134138941
 40
9.62137134138941
 10
687.2435487126153
 20
-112.400568436018
 30
0.0
 10
687.2435487126153
 20
-113.6070877679782
 30
0.0
 10
688.7181834516781
 20
-114.0480670559756
 30
0.0
 10
690.2739583797326
 20
-114.4925741782766
 30
0.0
  0
SPLINE
  5
1E9
330
1F
100
AcDbEntity
  8
FISHER & PAYKEL
 62
   250
420
  1316376
370
     9
100
AcDbSpline
210
0.0
220
0.0
230
1.0
 70
     8
 71
     3
 72
     8
 73
     4
 74
     0
 42
0.000000001
 43
0.0000000001
 40
9.62137134138941
 40
9.62137134138941
 40
9.62137134138941
 40
9.62137134138941
 40
10.62137134138941
 40
10.62137134138941
 40
10.62137134138941
 40
10.62137134138941
 10
690.2739583797326
 20
-114.4925741782766
 30
0.0
 10
692.0308198631134
 20
-114.9758874779217
 30
0.0
 10
693.8652937011817
 20
-115.6144254869417
 30
0.0
 10
693.8652937011817
 20
-117.5194560110898
 30
0.0
  0
LINE
  5
1EA
330
1F
100
AcDbEntity
  8
FISHER & PAYKEL
 62
   250
420
  1316376
370
     9
100
AcDbLine
 10
693.8652937011817
 20
-117.5194560110898
 30
0.0
 11
693.8652937011817
 21
-117.5617900227375
 31
0.0
  0
SPLINE
  5
1EB
330
1F
100
AcDbEntity
  8
FISHER & PAYKEL
 62
   250
420
  1316376
370
     9
100
AcDbSpline
210
0.0
220
0.0
230
1.0
 70
     8
 71
     3
 72
     8
 73
     4
 74
     0
 42
0.000000001
 43
0.0000000001
 40
10.63337134138941
 40
10.63337134138941
 40
10.63337134138941
 40
10.63337134138941
 40
11.63337134138941
 40
11.63337134138941
 40
11.63337134138941
 40
11.63337134138941
 10
693.8652937011817
 20
-117.5617900227375
 30
0.0
 10
693.8652937011817
 20
-119.4844597184054
 30
0.0
 10
692.2001559097042
 20
-120.7121460561897
 30
0.0
 10
690.1081501674454
 20
-120.7121460561897
 30
0.0
  0
SPLINE
  5
1EC
330
1F
100
AcDbEntity
  8
FISHER & PAYKEL
 62
   250
420
  1316376
370
     9
100
AcDbSpline
210
0.0
220
0.0
230
1.0
 70
     8
 71
     3
 72
     8
 73
     4
 74
     0
 42
0.000000001
 43
0.0000000001
 40
11.63337134138941
 40
11.63337134138941
 40
11.63337134138941
 40
11.63337134138941
 40
12.63337134138941
 40
12.63337134138941
 40
12.63337134138941
 40
12.63337134138941
 10
690.1081501674454
 20
-120.7121460561897
 30
0.0
 10
688.524152942614
 20
-120.7121460561897
 30
0.0
 10
686.7955145802895
 20
-120.07713618427
 30
0.0
 10
685.6383841043056
 20
-119.1457876252235
 30
0.0
  0
SPLINE
  5
1ED
330
1F
100
AcDbEntity
  8
FISHER & PAYKEL
 62
   250
420
  1316376
370
     9
100
AcDbSpline
210
0.0
220
0.0
230
1.0
 70
     8
 71
     3
 72
     8
 73
     4
 74
     0
 42
0.000000001
 43
0.0000000001
 40
0.0
 40
0.0
 40
0.0
 40
0.0
 40
1.0
 40
1.0
 40
1.0
 40
1.0
 10
682.4241742699515
 20
-114.5980564239657
 30
0.0
 10
682.2760052291845
 20
-112.4213826584113
 30
0.0
 10
681.0165683826643
 20
-110.4105171051439
 30
0.0
 10
678.5153338611441
 20
-110.4105171051439
 30
0.0
  0
SPLINE
  5
1EE
330
1F
100
AcDbEntity
  8
FISHER & PAYKEL
 62
   250
420
  1316376
370
     9
100
AcDbSpline
210
0.0
220
0.0
230
1.0
 70
     8
 71
     3
 72
     8
 73
     4
 74
     0
 42
0.000000001
 43
0.0000000001
 40
1.0
 40
1.0
 40
1.0
 40
1.0
 40
2.0
 40
2.0
 40
2.0
 40
2.0
 10
678.5153338611441
 20
-110.4105171051439
 30
0.0
 10
676.3562992671096
 20
-110.4105171051439
 30
0.0
 10
674.6911614756322
 20
-112.2061847658687
 30
0.0
 10
674.4971305889131
 20
-114.5980564239657
 30
0.0
  0
LINE
  5
1EF
330
1F
100
AcDbEntity
  8
FISHER & PAYKEL
 62
   250
420
  1316376
370
     9
100
AcDbLine
 10
674.4971305889131
 20
-114.5980564239657
 30
0.0
 11
682.4241742699515
 21
-114.5980564239657
 31
0.0
  0
LINE
  5
1F0
330
1F
100
AcDbEntity
  8
FISHER & PAYKEL
 62
   250
420
  1316376
370
     9
100
AcDbLine
 10
673.3858627831602
 20
-115.1272315695622
 30
0.0
 11
673.3858627831602
 21
-115.0848975579146
 31
0.0
  0
SPLINE
  5
1F1
330
1F
100
AcDbEntity
  8
FISHER & PAYKEL
 62
   250
420
  1316376
370
     9
100
AcDbSpline
210
0.0
220
0.0
230
1.0
 70
     8
 71
     3
 72
     8
 73
     4
 74
     0
 42
0.000000001
 43
0.0000000001
 40
2.012
 40
2.012
 40
2.012
 40
2.012
 40
3.012
 40
3.012
 40
3.012
 40
3.012
 10
673.3858627831602
 20
-115.0848975579146
 30
0.0
 10
673.3858627831602
 20
-111.9521806959823
 30
0.0
 10
675.6048705603622
 20
-109.4580018430701
 30
0.0
 10
678.5541400384878
 20
-109.4580018430701
 30
0.0
  0
SPLINE
  5
1F2
330
1F
100
AcDbEntity
  8
FISHER & PAYKEL
 62
   250
420
  1316376
370
     9
100
AcDbSpline
210
0.0
220
0.0
230
1.0
 70
     8
 71
     3
 72
     8
 73
     4
 74
     0
 42
0.000000001
 43
0.0000000001
 40
3.012
 40
3.012
 40
3.012
 40
3.012
 40
4.012
 40
4.012
 40
4.012
 40
4.012
 10
678.5541400384878
 20
-109.4580018430701
 30
0.0
 10
681.6163002143406
 20
-109.4580018430701
 30
0.0
 10
683.5566090815286
 20
-111.9098466843346
 30
0.0
 10
683.5566090815286
 20
-115.1095923980423
 30
0.0
  0
SPLINE
  5
1F3
330
1F
100
AcDbEntity
  8
FISHER & PAYKEL
 62
   250
420
  1316376
370
     9
100
AcDbSpline
210
0.0
220
0.0
230
1.0
 70
     8
 71
     3
 72
     8
 73
     4
 74
     0
 42
0.000000001
 43
0.0000000001
 40
4.012
 40
4.012
 40
4.012
 40
4.012
 40
5.012
 40
5.012
 40
5.012
 40
5.012
 10
683.5566090815286
 20
-115.1095923980423
 30
0.0
 10
683.5566090815286
 20
-115.2965676161531
 30
0.0
 10
683.5566090815286
 20
-115.3600686336248
 30
0.0
 10
683.5354420757043
 20
-115.5294046802159
 30
0.0
  0
LINE
  5
1F4
330
1F
100
AcDbEntity
  8
FISHER & PAYKEL
 62
   250
420
  1316376
370
     9
100
AcDbLine
 10
683.5354420757043
 20
-115.5294046802159
 30
0.0
 11
674.4971305889131
 21
-115.5294046802159
 31
0.0
  0
SPLINE
  5
1F5
330
1F
100
AcDbEntity
  8
FISHER & PAYKEL
 62
   250
420
  1316376
370
     9
100
AcDbSpline
210
0.0
220
0.0
230
1.0
 70
     8
 71
     3
 72
     8
 73
     4
 74
     0
 42
0.000000001
 43
0.0000000001
 40
7.574000000000012
 40
7.574000000000012
 40
7.574000000000012
 40
7.574000000000012
 40
8.574000000000012
 40
8.574000000000012
 40
8.574000000000012
 40
8.574000000000012
 10
674.4971305889131
 20
-115.5294046802159
 30
0.0
 10
674.6911614756322
 20
-118.214086585543
 30
0.0
 10
676.6314703428199
 20
-119.7804450165091
 30
0.0
 10
678.7693379310305
 20
-119.7804450165091
 30
0.0
  0
SPLINE
  5
1F6
330
1F
100
AcDbEntity
  8
FISHER & PAYKEL
 62
   250
420
  1316376
370
     9
100
AcDbSpline
210
0.0
220
0.0
230
1.0
 70
     8
 71
     3
 72
     8
 73
     4
 74
     0
 42
0.000000001
 43
0.0000000001
 40
8.574000000000012
 40
8.574000000000012
 40
8.574000000000012
 40
8.574000000000012
 40
9.574000000000012
 40
9.574000000000012
 40
9.574000000000012
 40
9.574000000000012
 10
678.7693379310305
 20
-119.7804450165091
 30
0.0
 10
680.4556427283318
 20
-119.7804450165091
 30
0.0
 10
681.6163002143406
 20
-119.0431276469777
 30
0.0
 10
682.5088422932469
 20
-118.0870845505996
 30
0.0
  0
LINE
  5
1F7
330
1F
100
AcDbEntity
  8
FISHER & PAYKEL
 62
   250
420
  1316376
370
     9
100
AcDbLine
 10
682.5088422932469
 20
-118.0870845505996
 30
0.0
 11
683.2355761598664
 21
-118.7256225596199
 31
0.0
  0
SPLINE
  5
1F8
330
1F
100
AcDbEntity
  8
FISHER & PAYKEL
 62
   250
420
  1316376
370
     9
100
AcDbSpline
210
0.0
220
0.0
230
1.0
 70
     8
 71
     3
 72
     8
 73
     4
 74
     0
 42
0.000000001
 43
0.0000000001
 40
9.848220714024357
 40
9.848220714024357
 40
9.848220714024357
 40
9.848220714024357
 40
10.84822071402436
 40
10.84822071402436
 40
10.84822071402436
 40
10.84822071402436
 10
683.2355761598664
 20
-118.7256225596199
 30
0.0
 10
682.1243083541134
 20
-119.9074470514523
 30
0.0
 10
680.8225374959455
 20
-120.754127284407
 30
0.0
 10
678.7270039193826
 20
-120.754127284407
 30
0.0
  0
SPLINE
  5
1F9
330
1F
100
AcDbEntity
  8
FISHER & PAYKEL
 62
   250
420
  1316376
370
     9
100
AcDbSpline
210
0.0
220
0.0
230
1.0
 70
     8
 71
     3
 72
     8
 73
     4
 74
     0
 42
0.000000001
 43
0.0000000001
 40
10.84822071402436
 40
10.84822071402436
 40
10.84822071402436
 40
10.84822071402436
 40
11.84822071402436
 40
11.84822071402436
 40
11.84822071402436
 40
11.84822071402436
 10
678.7270039193826
 20
-120.754127284407
 30
0.0
 10
675.8659302988566
 20
-120.754127284407
 30
0.0
 10
673.3858627831602
 20
-118.4927854955571
 30
0.0
 10
673.3858627831602
 20
-115.1272315695622
 30
0.0
  0
LINE
  5
1FA
330
1F
100
AcDbEntity
  8
FISHER & PAYKEL
 62
   250
420
  1316376
370
     9
100
AcDbLine
 10
661.0677237439608
 20
-105.0549118482751
 30
0.0
 11
662.1154905322422
 21
-105.0549118482751
 31
0.0
  0
LINE
  5
1FB
330
1F
100
AcDbEntity
  8
FISHER & PAYKEL
 62
   250
420
  1316376
370
     9
100
AcDbLine
 10
662.1154905322422
 20
-105.0549118482751
 30
0.0
 11
662.1154905322422
 21
-111.7225186827933
 31
0.0
  0
SPLINE
  5
1FC
330
1F
100
AcDbEntity
  8
FISHER & PAYKEL
 62
   250
420
  1316376
370
     9
100
AcDbSpline
210
0.0
220
0.0
230
1.0
 70
     8
 71
     3
 72
     8
 73
     4
 74
     0
 42
0.000000001
 43
0.0000000001
 40
2.187000000000012
 40
2.187000000000012
 40
2.187000000000012
 40
2.187000000000012
 40
3.187000000000012
 40
3.187000000000012
 40
3.187000000000012
 40
3.187000000000012
 10
662.1154905322422
 20
-111.7225186827933
 30
0.0
 10
662.8422243988615
 20
-110.4489704990573
 30
0.0
 10
664.0593272337338
 20
-109.4576490596395
 30
0.0
 10
666.0454979468735
 20
-109.4576490596395
 30
0.0
  0
SPLINE
  5
1FD
330
1F
100
AcDbEntity
  8
FISHER & PAYKEL
 62
   250
420
  1316376
370
     9
100
AcDbSpline
210
0.0
220
0.0
230
1.0
 70
     8
 71
     3
 72
     8
 73
     4
 74
     0
 42
0.000000001
 43
0.0000000001
 40
3.187000000000012
 40
3.187000000000012
 40
3.187000000000012
 40
3.187000000000012
 40
4.187000000000012
 40
4.187000000000012
 40
4.187000000000012
 40
4.187000000000012
 10
666.0454979468735
 20
-109.4576490596395
 30
0.0
 10
668.804264372584
 20
-109.4576490596395
 30
0.0
 10
670.4023733122864
 20
-111.3168177378358
 30
0.0
 10
670.4023733122864
 20
-113.9027202826516
 30
0.0
  0
LINE
  5
1FE
330
1F
100
AcDbEntity
  8
FISHER & PAYKEL
 62
   250
420
  1316376
370
     9
100
AcDbLine
 10
670.4023733122864
 20
-113.9027202826516
 30
0.0
 11
670.4023733122864
 21
-120.49977043109
 31
0.0
  0
LINE
  5
1FF
330
1F
100
AcDbEntity
  8
FISHER & PAYKEL
 62
   250
420
  1316376
370
     9
100
AcDbLine
 10
670.4023733122864
 20
-120.49977043109
 30
0.0
 11
669.3581343583086
 21
-120.49977043109
 31
0.0
  0
LINE
  5
200
330
1F
100
AcDbEntity
  8
FISHER & PAYKEL
 62
   250
420
  1316376
370
     9
100
AcDbLine
 10
669.3581343583086
 20
-120.49977043109
 30
0.0
 11
669.3581343583086
 21
-114.0932233350665
 31
0.0
  0
SPLINE
  5
201
330
1F
100
AcDbEntity
  8
FISHER & PAYKEL
 62
   250
420
  1316376
370
     9
100
AcDbSpline
210
0.0
220
0.0
230
1.0
 70
     8
 71
     3
 72
     8
 73
     4
 74
     0
 42
0.000000001
 43
0.0000000001
 40
8.168999999999983
 40
8.168999999999983
 40
8.168999999999983
 40
8.168999999999983
 40
9.168999999999983
 40
9.168999999999983
 40
9.168999999999983
 40
9.168999999999983
 10
669.3581343583086
 20
-114.0932233350665
 30
0.0
 10
669.3581343583086
 20
-111.8706877235603
 30
0.0
 10
668.0951696774847
 20
-110.4101643217133
 30
0.0
 10
665.8973289061065
 20
-110.4101643217133
 30
0.0
  0
SPLINE
  5
202
330
1F
100
AcDbEntity
  8
FISHER & PAYKEL
 62
   250
420
  1316376
370
     9
100
AcDbSpline
210
0.0
220
0.0
230
1.0
 70
     8
 71
     3
 72
     8
 73
     4
 74
     0
 42
0.000000001
 43
0.0000000001
 40
9.168999999999983
 40
9.168999999999983
 40
9.168999999999983
 40
9.168999999999983
 40
10.16899999999998
 40
10.16899999999998
 40
10.16899999999998
 40
10.16899999999998
 10
665.8973289061065
 20
-110.4101643217133
 30
0.0
 10
663.7629891521998
 20
-110.4101643217133
 30
0.0
 10
662.1154905322422
 20
-112.0188567643273
 30
0.0
 10
662.1154905322422
 20
-114.2590315473532
 30
0.0
  0
LINE
  5
203
330
1F
100
AcDbEntity
  8
FISHER & PAYKEL
 62
   250
420
  1316376
370
     9
100
AcDbLine
 10
662.1154905322422
 20
-114.2590315473532
 30
0.0
 11
662.1154905322422
 21
-120.49977043109
 31
0.0
  0
LINE
  5
204
330
1F
100
AcDbEntity
  8
FISHER & PAYKEL
 62
   250
420
  1316376
370
     9
100
AcDbLine
 10
662.1154905322422
 20
-120.49977043109
 30
0.0
 11
661.0677237439608
 21
-120.49977043109
 31
0.0
  0
LINE
  5
205
330
1F
100
AcDbEntity
  8
FISHER & PAYKEL
 62
   250
420
  1316376
370
     9
100
AcDbLine
 10
661.0677237439608
 20
-120.49977043109
 30
0.0
 11
661.0677237439608
 21
-105.0549118482751
 31
0.0
  0
LINE
  5
206
330
1F
100
AcDbEntity
  8
FISHER & PAYKEL
 62
   250
420
  1316376
370
     9
100
AcDbLine
 10
648.1519695736673
 20
-115.1494569256773
 30
0.0
 11
648.1519695736673
 21
-115.1071229140297
 31
0.0
  0
SPLINE
  5
207
330
1F
100
AcDbEntity
  8
FISHER & PAYKEL
 62
   250
420
  1316376
370
     9
100
AcDbSpline
210
0.0
220
0.0
230
1.0
 70
     8
 71
     3
 72
     8
 73
     4
 74
     0
 42
0.000000001
 43
0.0000000001
 40
0.0120000000000005
 40
0.0120000000000005
 40
0.0120000000000005
 40
0.0120000000000005
 40
1.012
 40
1.012
 40
1.012
 40
1.012
 10
648.1519695736673
 20
-115.1071229140297
 30
0.0
 10
648.1519695736673
 20
-112.0802410812167
 30
0.0
 10
650.586175243412
 20
-109.4590601933611
 30
0.0
 10
653.7083086024323
 20
-109.4590601933611
 30
0.0
  0
SPLINE
  5
208
330
1F
100
AcDbEntity
  8
FISHER & PAYKEL
 62
   250
420
  1316376
370
     9
100
AcDbSpline
210
0.0
220
0.0
230
1.0
 70
     8
 71
     3
 72
     8
 73
     4
 74
     0
 42
0.000000001
 43
0.0000000001
 40
1.012
 40
1.012
 40
1.012
 40
1.012
 40
2.012
 40
2.012
 40
2.012
 40
2.012
 10
653.7083086024323
 20
-109.4590601933611
 30
0.0
 10
655.7579803330435
 20
-109.4590601933611
 30
0.0
 10
657.0456398539956
 20
-110.3868806153072
 30
0.0
 10
658.0687118021491
 20
-111.4452309065006
 30
0.0
  0
LINE
  5
209
330
1F
100
AcDbEntity
  8
FISHER & PAYKEL
 62
   250
420
  1316376
370
     9
100
AcDbLine
 10
658.0687118021491
 20
-111.4452309065006
 30
0.0
 11
657.3208109297058
 21
-112.2072431161599
 31
0.0
  0
SPLINE
  5
20A
330
1F
100
AcDbEntity
  8
FISHER & PAYKEL
 62
   250
420
  1316376
370
     9
100
AcDbSpline
210
0.0
220
0.0
230
1.0
 70
     8
 71
     3
 72
     8
 73
     4
 74
     0
 42
0.000000001
 43
0.0000000001
 40
2.31465491900843
 40
2.31465491900843
 40
2.31465491900843
 40
2.31465491900843
 40
3.31465491900843
 40
3.31465491900843
 40
3.31465491900843
 40
3.31465491900843
 10
657.3208109297058
 20
-112.2072431161599
 30
0.0
 10
656.3788791705437
 20
-111.2547278540859
 30
0.0
 10
655.3099453764386
 20
-110.4292146269548
 30
0.0
 10
653.6871415966087
 20
-110.4292146269548
 30
0.0
  0
SPLINE
  5
20B
330
1F
100
AcDbEntity
  8
FISHER & PAYKEL
 62
   250
420
  1316376
370
     9
100
AcDbSpline
210
0.0
220
0.0
230
1.0
 70
     8
 71
     3
 72
     8
 73
     4
 74
     0
 42
0.000000001
 43
0.0000000001
 40
3.31465491900843
 40
3.31465491900843
 40
3.31465491900843
 40
3.31465491900843
 40
4.314654919008429
 40
4.314654919008429
 40
4.314654919008429
 40
4.314654919008429
 10
653.6871415966087
 20
-110.4292146269548
 30
0.0
 10
651.2070740809121
 20
-110.4292146269548
 30
0.0
 10
649.2844043852443
 20
-112.4824141918701
 30
0.0
 10
649.2844043852443
 20
-115.064788902382
 30
0.0
  0
LINE
  5
20C
330
1F
100
AcDbEntity
  8
FISHER & PAYKEL
 62
   250
420
  1316376
370
     9
100
AcDbLine
 10
649.2844043852443
 20
-115.064788902382
 30
0.0
 11
649.2844043852443
 21
-115.1071229140297
 31
0.0
  0
SPLINE
  5
20D
330
1F
100
AcDbEntity
  8
FISHER & PAYKEL
 62
   250
420
  1316376
370
     9
100
AcDbSpline
210
0.0
220
0.0
230
1.0
 70
     8
 71
     3
 72
     8
 73
     4
 74
     0
 42
0.000000001
 43
0.0000000001
 40
4.32665491900843
 40
4.32665491900843
 40
4.32665491900843
 40
4.32665491900843
 40
5.32665491900843
 40
5.32665491900843
 40
5.32665491900843
 40
5.32665491900843
 10
649.2844043852443
 20
-115.1071229140297
 30
0.0
 10
649.2844043852443
 20
-117.7106646303652
 30
0.0
 10
651.2705750983838
 20
-119.7779755324963
 30
0.0
 10
653.7718096199043
 20
-119.7779755324963
 30
0.0
  0
SPLINE
  5
20E
330
1F
100
AcDbEntity
  8
FISHER & PAYKEL
 62
   250
420
  1316376
370
     9
100
AcDbSpline
210
0.0
220
0.0
230
1.0
 70
     8
 71
     3
 72
     8
 73
     4
 74
     0
 42
0.000000001
 43
0.0000000001
 40
5.32665491900843
 40
5.32665491900843
 40
5.32665491900843
 40
5.32665491900843
 40
6.32665491900843
 40
6.32665491900843
 40
6.32665491900843
 40
6.32665491900843
 10
653.7718096199043
 20
-119.7779755324963
 30
0.0
 10
655.3099453764386
 20
-119.7779755324963
 30
0.0
 10
656.5058812054868
 20
-118.9983241513172
 30
0.0
 10
657.4266459588254
 20
-117.9823078717715
 30
0.0
  0
LINE
  5
20F
330
1F
100
AcDbEntity
  8
FISHER & PAYKEL
 62
   250
420
  1316376
370
     9
100
AcDbLine
 10
657.4266459588254
 20
-117.9823078717715
 30
0.0
 11
658.1533798254444
 21
-118.6173180464876
 31
0.0
  0
SPLINE
  5
210
330
1F
100
AcDbEntity
  8
FISHER & PAYKEL
 62
   250
420
  1316376
370
     9
100
AcDbSpline
210
0.0
220
0.0
230
1.0
 70
     8
 71
     3
 72
     8
 73
     4
 74
     0
 42
0.000000001
 43
0.0000000001
 40
6.600216612233169
 40
6.600216612233169
 40
6.600216612233169
 40
6.600216612233169
 40
7.600216612233169
 40
7.600216612233169
 40
7.600216612233169
 40
7.600216612233169
 10
658.1533798254444
 20
-118.6173180464876
 30
0.0
 10
657.0456398539956
 20
-119.8661713900957
 30
0.0
 10
655.7156463213959
 20
-120.755185634698
 30
0.0
 10
653.7083086024323
 20
-120.755185634698
 30
0.0
  0
SPLINE
  5
211
330
1F
100
AcDbEntity
  8
FISHER & PAYKEL
 62
   250
420
  1316376
370
     9
100
AcDbSpline
210
0.0
220
0.0
230
1.0
 70
     8
 71
     3
 72
     8
 73
     4
 74
     0
 42
0.000000001
 43
0.0000000001
 40
7.600216612233169
 40
7.600216612233169
 40
7.600216612233169
 40
7.600216612233169
 40
8.600216612233169
 40
8.600216612233169
 40
8.600216612233169
 40
8.600216612233169
 10
653.7083086024323
 20
-120.755185634698
 30
0.0
 10
650.568536071892
 20
-120.755185634698
 30
0.0
 10
648.1519695736673
 20
-118.1728109241864
 30
0.0
 10
648.1519695736673
 20
-115.1494569256773
 30
0.0
  0
LINE
  5
212
330
1F
100
AcDbEntity
  8
FISHER & PAYKEL
 62
   250
420
  1316376
370
     9
100
AcDbLine
 10
635.8320666173162
 20
-109.7130642632475
 30
0.0
 11
636.8798334055977
 21
-109.7130642632475
 31
0.0
  0
LINE
  5
213
330
1F
100
AcDbEntity
  8
FISHER & PAYKEL
 62
   250
420
  1316376
370
     9
100
AcDbLine
 10
636.8798334055977
 20
-109.7130642632475
 30
0.0
 11
636.8798334055977
 21
-111.720401982211
 31
0.0
  0
SPLINE
  5
214
330
1F
100
AcDbEntity
  8
FISHER & PAYKEL
 62
   250
420
  1316376
370
     9
100
AcDbSpline
210
0.0
220
0.0
230
1.0
 70
     8
 71
     3
 72
     8
 73
     4
 74
     0
 42
0.000000001
 43
0.0000000001
 40
0.8660000000000423
 40
0.8660000000000423
 40
0.8660000000000423
 40
0.8660000000000423
 40
1.866000000000042
 40
1.866000000000042
 40
1.866000000000042
 40
1.866000000000042
 10
636.8798334055977
 20
-111.720401982211
 30
0.0
 10
637.6065672722169
 20
-110.4503816327789
 30
0.0
 10
638.8271979413934
 20
-109.4590601933611
 30
0.0
 10
640.8098408202287
 20
-109.4590601933611
 30
0.0
  0
SPLINE
  5
215
330
1F
100
AcDbEntity
  8
FISHER & PAYKEL
 62
   250
420
  1316376
370
     9
100
AcDbSpline
210
0.0
220
0.0
230
1.0
 70
     8
 71
     3
 72
     8
 73
     4
 74
     0
 42
0.000000001
 43
0.0000000001
 40
1.866000000000042
 40
1.866000000000042
 40
1.866000000000042
 40
1.866000000000042
 40
2.866000000000042
 40
2.866000000000042
 40
2.866000000000042
 40
2.866000000000042
 10
640.8098408202287
 20
-109.4590601933611
 30
0.0
 10
643.5650794116356
 20
-109.4590601933611
 30
0.0
 10
645.1702440199455
 20
-111.3182288715574
 30
0.0
 10
645.1702440199455
 20
-113.9006035820693
 30
0.0
  0
LINE
  5
216
330
1F
100
AcDbEntity
  8
FISHER & PAYKEL
 62
   250
420
  1316376
370
     9
100
AcDbLine
 10
645.1702440199455
 20
-113.9006035820693
 30
0.0
 11
645.1702440199455
 21
-120.5011815648119
 31
0.0
  0
LINE
  5
217
330
1F
100
AcDbEntity
  8
FISHER & PAYKEL
 62
   250
420
  1316376
370
     9
100
AcDbLine
 10
645.1702440199455
 20
-120.5011815648119
 30
0.0
 11
644.1260050659681
 21
-120.5011815648119
 31
0.0
  0
LINE
  5
218
330
1F
100
AcDbEntity
  8
FISHER & PAYKEL
 62
   250
420
  1316376
370
     9
100
AcDbLine
 10
644.1260050659681
 20
-120.5011815648119
 30
0.0
 11
644.1260050659681
 21
-114.0911066344839
 31
0.0
  0
SPLINE
  5
219
330
1F
100
AcDbEntity
  8
FISHER & PAYKEL
 62
   250
420
  1316376
370
     9
100
AcDbSpline
210
0.0
220
0.0
230
1.0
 70
     8
 71
     3
 72
     8
 73
     4
 74
     0
 42
0.000000001
 43
0.0000000001
 40
6.850000000000023
 40
6.850000000000023
 40
6.850000000000023
 40
6.850000000000023
 40
7.850000000000023
 40
7.850000000000023
 40
7.850000000000023
 40
7.850000000000023
 10
644.1260050659681
 20
-114.0911066344839
 30
0.0
 10
644.1260050659681
 20
-111.868571022978
 30
0.0
 10
642.8630403851438
 20
-110.408047621131
 30
0.0
 10
640.6616717794619
 20
-110.408047621131
 30
0.0
  0
SPLINE
  5
21A
330
1F
100
AcDbEntity
  8
FISHER & PAYKEL
 62
   250
420
  1316376
370
     9
100
AcDbSpline
210
0.0
220
0.0
230
1.0
 70
     8
 71
     3
 72
     8
 73
     4
 74
     0
 42
0.000000001
 43
0.0000000001
 40
7.850000000000023
 40
7.850000000000023
 40
7.850000000000023
 40
7.850000000000023
 40
8.850000000000023
 40
8.850000000000023
 40
8.850000000000023
 40
8.850000000000023
 10
640.6616717794619
 20
-110.408047621131
 30
0.0
 10
638.5238041912511
 20
-110.408047621131
 30
0.0
 10
636.8798334055977
 20
-112.016740063745
 30
0.0
 10
636.8798334055977
 20
-114.2604426810748
 30
0.0
  0
LINE
  5
21B
330
1F
100
AcDbEntity
  8
FISHER & PAYKEL
 62
   250
420
  1316376
370
     9
100
AcDbLine
 10
636.8798334055977
 20
-114.2604426810748
 30
0.0
 11
636.8798334055977
 21
-120.5011815648119
 31
0.0
  0
LINE
  5
21C
330
1F
100
AcDbEntity
  8
FISHER & PAYKEL
 62
   250
420
  1316376
370
     9
100
AcDbLine
 10
636.8798334055977
 20
-120.5011815648119
 30
0.0
 11
635.8320666173162
 21
-120.5011815648119
 31
0.0
  0
LINE
  5
21D
330
1F
100
AcDbEntity
  8
FISHER & PAYKEL
 62
   250
420
  1316376
370
     9
100
AcDbLine
 10
635.8320666173162
 20
-120.5011815648119
 30
0.0
 11
635.8320666173162
 21
-109.7130642632475
 31
0.0
  0
POLYLINE
  5
21E
330
1F
100
AcDbEntity
  8
FISHER & PAYKEL
 62
   250
420
  1316376
370
     9
100
AcDb2dPolyline
 66
     1
 10
0.0
 20
0.0
 30
0.0
 70
     1
  0
VERTEX
  5
21F
330
21E
100
AcDbEntity
  8
FISHER & PAYKEL
 62
   250
420
  1316376
370
     9
100
AcDbVertex
100
AcDb2dVertex
 10
630.3889710697084
 20
-105.6909803732823
 30
0.0
  0
VERTEX
  5
220
330
21E
100
AcDbEntity
  8
FISHER & PAYKEL
 62
   250
420
  1316376
370
     9
100
AcDbVertex
100
AcDb2dVertex
 10
631.5002388754616
 20
-105.6909803732823
 30
0.0
  0
VERTEX
  5
221
330
21E
100
AcDbEntity
  8
FISHER & PAYKEL
 62
   250
420
  1316376
370
     9
100
AcDbVertex
100
AcDb2dVertex
 10
631.5002388754616
 20
-120.4973009470774
 30
0.0
  0
VERTEX
  5
222
330
21E
100
AcDbEntity
  8
FISHER & PAYKEL
 62
   250
420
  1316376
370
     9
100
AcDbVertex
100
AcDb2dVertex
 10
630.3889710697084
 20
-120.4973009470774
 30
0.0
  0
SEQEND
  5
223
330
21E
100
AcDbEntity
  8
FISHER & PAYKEL
 62
   250
420
  1316376
370
     9
  0
LINE
  5
224
330
1F
100
AcDbEntity
  8
FISHER & PAYKEL
 62
   250
420
  1316376
370
     9
100
AcDbLine
 10
111.7694584939644
 20
-63.88543830428409
 30
0.0
 11
111.7694584939644
 21
-63.83957645833254
 31
0.0
  0
SPLINE
  5
225
330
1F
100
AcDbEntity
  8
FISHER & PAYKEL
 62
   250
420
  1316376
370
     9
100
AcDbSpline
210
0.0
220
0.0
230
1.0
 70
     8
 71
     3
 72
     8
 73
     4
 74
     0
 42
0.000000001
 43
0.0000000001
 40
0.0129999999999768
 40
0.0129999999999768
 40
0.0129999999999768
 40
0.0129999999999768
 40
1.012999999999977
 40
1.012999999999977
 40
1.012999999999977
 40
1.012999999999977
 10
111.7694584939644
 20
-63.83957645833254
 30
0.0
 10
111.7694584939644
 20
-60.39288234334606
 30
0.0
 10
109.8044547866488
 20
-57.17902529242212
 30
0.0
 10
106.7034884334522
 20
-57.17902529242212
 30
0.0
  0
SPLINE
  5
226
330
1F
100
AcDbEntity
  8
FISHER & PAYKEL
 62
   250
420
  1316376
370
     9
100
AcDbSpline
210
0.0
220
0.0
230
1.0
 70
     8
 71
     3
 72
     8
 73
     4
 74
     0
 42
0.000000001
 43
0.0000000001
 40
1.012999999999977
 40
1.012999999999977
 40
1.012999999999977
 40
1.012999999999977
 40
2.012999999999977
 40
2.012999999999977
 40
2.012999999999977
 40
2.012999999999977
 10
106.7034884334522
 20
-57.17902529242212
 30
0.0
 10
103.6060499145598
 20
-57.17902529242212
 30
0.0
 10
101.6833802188918
 20
-60.35054833169818
 30
0.0
 10
101.6833802188918
 20
-63.80077028098879
 30
0.0
  0
LINE
  5
227
330
1F
100
AcDbEntity
  8
FISHER & PAYKEL
 62
   250
420
  1316376
370
     9
100
AcDbLine
 10
101.6833802188918
 20
-63.80077028098879
 30
0.0
 11
101.6833802188918
 21
-63.83957645833254
 31
0.0
  0
SPLINE
  5
228
330
1F
100
AcDbEntity
  8
FISHER & PAYKEL
 62
   250
420
  1316376
370
     9
100
AcDbSpline
210
0.0
220
0.0
230
1.0
 70
     8
 71
     3
 72
     8
 73
     4
 74
     0
 42
0.000000001
 43
0.0000000001
 40
2.024000000000001
 40
2.024000000000001
 40
2.024000000000001
 40
2.024000000000001
 40
3.024000000000001
 40
3.024000000000001
 40
3.024000000000001
 40
3.024000000000001
 10
101.6833802188918
 20
-63.83957645833254
 30
0.0
 10
101.6833802188918
 20
-67.26863140179887
 30
0.0
 10
103.6483839262074
 20
-70.50718329285075
 30
0.0
 10
106.7493502794038
 20
-70.50718329285075
 30
0.0
  0
SPLINE
  5
229
330
1F
100
AcDbEntity
  8
FISHER & PAYKEL
 62
   250
420
  1316376
370
     9
100
AcDbSpline
210
0.0
220
0.0
230
1.0
 70
     8
 71
     3
 72
     8
 73
     4
 74
     0
 42
0.000000001
 43
0.0000000001
 40
3.024000000000001
 40
3.024000000000001
 40
3.024000000000001
 40
3.024000000000001
 40
4.024000000000001
 40
4.024000000000001
 40
4.024000000000001
 40
4.024000000000001
 10
106.7493502794038
 20
-70.50718329285075
 30
0.0
 10
109.8467887982964
 20
-70.50718329285075
 30
0.0
 10
111.7694584939644
 20
-67.31096541344675
 30
0.0
 10
111.7694584939644
 20
-63.88543830428409
 30
0.0
  0
LINE
  5
22A
330
1F
100
AcDbEntity
  8
FISHER & PAYKEL
 62
   250
420
  1316376
370
     9
100
AcDbLine
 10
100.5262505671868
 20
-63.88543830428409
 30
0.0
 11
100.5262505671868
 21
-63.83957645833254
 31
0.0
  0
SPLINE
  5
22B
330
1F
100
AcDbEntity
  8
FISHER & PAYKEL
 62
   250
420
  1316376
370
     9
100
AcDbSpline
210
0.0
220
0.0
230
1.0
 70
     8
 71
     3
 72
     8
 73
     4
 74
     0
 42
0.000000001
 43
0.0000000001
 40
2.012999999999977
 40
2.012999999999977
 40
2.012999999999977
 40
2.012999999999977
 40
3.012999999999977
 40
3.012999999999977
 40
3.012999999999977
 40
3.012999999999977
 10
100.5262505671868
 20
-63.83957645833254
 30
0.0
 10
100.5262505671868
 20
-59.75787216863012
 30
0.0
 10
102.9428170654115
 20
-56.18064818439655
 30
0.0
 10
106.7493502794038
 20
-56.18064818439655
 30
0.0
  0
SPLINE
  5
22C
330
1F
100
AcDbEntity
  8
FISHER & PAYKEL
 62
   250
420
  1316376
370
     9
100
AcDbSpline
210
0.0
220
0.0
230
1.0
 70
     8
 71
     3
 72
     8
 73
     4
 74
     0
 42
0.000000001
 43
0.0000000001
 40
3.012999999999977
 40
3.012999999999977
 40
3.012999999999977
 40
3.012999999999977
 40
4.012999999999977
 40
4.012999999999977
 40
4.012999999999977
 40
4.012999999999977
 10
106.7493502794038
 20
-56.18064818439655
 30
0.0
 10
110.5523556590921
 20
-56.18064818439655
 30
0.0
 10
112.9230603113652
 20
-59.71553815698246
 30
0.0
 10
112.9230603113652
 20
-63.80077028098879
 30
0.0
  0
LINE
  5
22D
330
1F
100
AcDbEntity
  8
FISHER & PAYKEL
 62
   250
420
  1316376
370
     9
100
AcDbLine
 10
112.9230603113652
 20
-63.80077028098879
 30
0.0
 11
112.9230603113652
 21
-63.83957645833254
 31
0.0
  0
SPLINE
  5
22E
330
1F
100
AcDbEntity
  8
FISHER & PAYKEL
 62
   250
420
  1316376
370
     9
100
AcDbSpline
210
0.0
220
0.0
230
1.0
 70
     8
 71
     3
 72
     8
 73
     4
 74
     0
 42
0.000000001
 43
0.0000000001
 40
4.024000000000001
 40
4.024000000000001
 40
4.024000000000001
 40
4.024000000000001
 40
5.024000000000001
 40
5.024000000000001
 40
5.024000000000001
 40
5.024000000000001
 10
112.9230603113652
 20
-63.83957645833254
 30
0.0
 10
112.9230603113652
 20
-67.92480858233864
 30
0.0
 10
110.5100216474442
 20
-71.49850473226832
 30
0.0
 10
106.7034884334522
 20
-71.49850473226832
 30
0.0
  0
SPLINE
  5
22F
330
1F
100
AcDbEntity
  8
FISHER & PAYKEL
 62
   250
420
  1316376
370
     9
100
AcDbSpline
210
0.0
220
0.0
230
1.0
 70
     8
 71
     3
 72
     8
 73
     4
 74
     0
 42
0.000000001
 43
0.0000000001
 40
5.024000000000001
 40
5.024000000000001
 40
5.024000000000001
 40
5.024000000000001
 40
6.024000000000001
 40
6.024000000000001
 40
6.024000000000001
 40
6.024000000000001
 10
106.7034884334522
 20
-71.49850473226832
 30
0.0
 10
102.9004830537639
 20
-71.49850473226832
 30
0.0
 10
100.5262505671868
 20
-67.96714259398652
 30
0.0
 10
100.5262505671868
 20
-63.88543830428409
 30
0.0
  0
LINE
  5
230
330
1F
100
AcDbEntity
  8
FISHER & PAYKEL
 62
   250
420
  1316376
370
     9
100
AcDbLine
 10
626.0684323976269
 20
-63.88543830428409
 30
0.0
 11
626.0684323976269
 21
-63.83957645833254
 31
0.0
  0
SPLINE
  5
231
330
1F
100
AcDbEntity
  8
FISHER & PAYKEL
 62
   250
420
  1316376
370
     9
100
AcDbSpline
210
0.0
220
0.0
230
1.0
 70
     8
 71
     3
 72
     8
 73
     4
 74
     0
 42
0.000000001
 43
0.0000000001
 40
0.0129999999999768
 40
0.0129999999999768
 40
0.0129999999999768
 40
0.0129999999999768
 40
1.012999999999977
 40
1.012999999999977
 40
1.012999999999977
 40
1.012999999999977
 10
626.0684323976269
 20
-63.83957645833254
 30
0.0
 10
626.0684323976269
 20
-60.39288234334606
 30
0.0
 10
624.0999008560074
 20
-57.17902529242212
 30
0.0
 10
621.0024623371147
 20
-57.17902529242212
 30
0.0
  0
SPLINE
  5
232
330
1F
100
AcDbEntity
  8
FISHER & PAYKEL
 62
   250
420
  1316376
370
     9
100
AcDbSpline
210
0.0
220
0.0
230
1.0
 70
     8
 71
     3
 72
     8
 73
     4
 74
     0
 42
0.000000001
 43
0.0000000001
 40
1.012999999999977
 40
1.012999999999977
 40
1.012999999999977
 40
1.012999999999977
 40
2.012999999999977
 40
2.012999999999977
 40
2.012999999999977
 40
2.012999999999977
 10
621.0024623371147
 20
-57.17902529242212
 30
0.0
 10
617.9085516525262
 20
-57.17902529242212
 30
0.0
 10
615.9823541225543
 20
-60.35054833169818
 30
0.0
 10
615.9823541225543
 20
-63.80077028098879
 30
0.0
  0
LINE
  5
233
330
1F
100
AcDbEntity
  8
FISHER & PAYKEL
 62
   250
420
  1316376
370
     9
100
AcDbLine
 10
615.9823541225543
 20
-63.80077028098879
 30
0.0
 11
615.9823541225543
 21
-63.83957645833254
 31
0.0
  0
SPLINE
  5
234
330
1F
100
AcDbEntity
  8
FISHER & PAYKEL
 62
   250
420
  1316376
370
     9
100
AcDbSpline
210
0.0
220
0.0
230
1.0
 70
     8
 71
     3
 72
     8
 73
     4
 74
     0
 42
0.000000001
 43
0.0000000001
 40
2.024000000000001
 40
2.024000000000001
 40
2.024000000000001
 40
2.024000000000001
 40
3.024000000000001
 40
3.024000000000001
 40
3.024000000000001
 40
3.024000000000001
 10
615.9823541225543
 20
-63.83957645833254
 30
0.0
 10
615.9823541225543
 20
-67.26863140179887
 30
0.0
 10
617.9473578298699
 20
-70.50718329285075
 30
0.0
 10
621.0483241830665
 20
-70.50718329285075
 30
0.0
  0
SPLINE
  5
235
330
1F
100
AcDbEntity
  8
FISHER & PAYKEL
 62
   250
420
  1316376
370
     9
100
AcDbSpline
210
0.0
220
0.0
230
1.0
 70
     8
 71
     3
 72
     8
 73
     4
 74
     0
 42
0.000000001
 43
0.0000000001
 40
3.024000000000001
 40
3.024000000000001
 40
3.024000000000001
 40
3.024000000000001
 40
4.024000000000001
 40
4.024000000000001
 40
4.024000000000001
 40
4.024000000000001
 10
621.0483241830665
 20
-70.50718329285075
 30
0.0
 10
624.1457627019589
 20
-70.50718329285075
 30
0.0
 10
626.0684323976269
 20
-67.31096541344675
 30
0.0
 10
626.0684323976269
 20
-63.88543830428409
 30
0.0
  0
LINE
  5
236
330
1F
100
AcDbEntity
  8
FISHER & PAYKEL
 62
   250
420
  1316376
370
     9
100
AcDbLine
 10
614.8252244708495
 20
-63.88543830428409
 30
0.0
 11
614.8252244708495
 21
-63.83957645833254
 31
0.0
  0
SPLINE
  5
237
330
1F
100
AcDbEntity
  8
FISHER & PAYKEL
 62
   250
420
  1316376
370
     9
100
AcDbSpline
210
0.0
220
0.0
230
1.0
 70
     8
 71
     3
 72
     8
 73
     4
 74
     0
 42
0.000000001
 43
0.0000000001
 40
2.012999999999977
 40
2.012999999999977
 40
2.012999999999977
 40
2.012999999999977
 40
3.012999999999977
 40
3.012999999999977
 40
3.012999999999977
 40
3.012999999999977
 10
614.8252244708495
 20
-63.83957645833254
 30
0.0
 10
614.8252244708495
 20
-59.75787216863012
 30
0.0
 10
617.2417909690745
 20
-56.18064818439655
 30
0.0
 10
621.0483241830665
 20
-56.18064818439655
 30
0.0
  0
SPLINE
  5
238
330
1F
100
AcDbEntity
  8
FISHER & PAYKEL
 62
   250
420
  1316376
370
     9
100
AcDbSpline
210
0.0
220
0.0
230
1.0
 70
     8
 71
     3
 72
     8
 73
     4
 74
     0
 42
0.000000001
 43
0.0000000001
 40
3.012999999999977
 40
3.012999999999977
 40
3.012999999999977
 40
3.012999999999977
 40
4.012999999999977
 40
4.012999999999977
 40
4.012999999999977
 40
4.012999999999977
 10
621.0483241830665
 20
-56.18064818439655
 30
0.0
 10
624.8513295627544
 20
-56.18064818439655
 30
0.0
 10
627.2220342150277
 20
-59.71553815698246
 30
0.0
 10
627.2220342150277
 20
-63.80077028098879
 30
0.0
  0
LINE
  5
239
330
1F
100
AcDbEntity
  8
FISHER & PAYKEL
 62
   250
420
  1316376
370
     9
100
AcDbLine
 10
627.2220342150277
 20
-63.80077028098879
 30
0.0
 11
627.2220342150277
 21
-63.83957645833254
 31
0.0
  0
SPLINE
  5
23A
330
1F
100
AcDbEntity
  8
FISHER & PAYKEL
 62
   250
420
  1316376
370
     9
100
AcDbSpline
210
0.0
220
0.0
230
1.0
 70
     8
 71
     3
 72
     8
 73
     4
 74
     0
 42
0.000000001
 43
0.0000000001
 40
4.024000000000001
 40
4.024000000000001
 40
4.024000000000001
 40
4.024000000000001
 40
5.024000000000001
 40
5.024000000000001
 40
5.024000000000001
 40
5.024000000000001
 10
627.2220342150277
 20
-63.83957645833254
 30
0.0
 10
627.2220342150277
 20
-67.92480858233864
 30
0.0
 10
624.8089955511067
 20
-71.49850473226832
 30
0.0
 10
621.0024623371147
 20
-71.49850473226832
 30
0.0
  0
SPLINE
  5
23B
330
1F
100
AcDbEntity
  8
FISHER & PAYKEL
 62
   250
420
  1316376
370
     9
100
AcDbSpline
210
0.0
220
0.0
230
1.0
 70
     8
 71
     3
 72
     8
 73
     4
 74
     0
 42
0.000000001
 43
0.0000000001
 40
5.024000000000001
 40
5.024000000000001
 40
5.024000000000001
 40
5.024000000000001
 40
6.024000000000001
 40
6.024000000000001
 40
6.024000000000001
 40
6.024000000000001
 10
621.0024623371147
 20
-71.49850473226832
 30
0.0
 10
617.1994569574266
 20
-71.49850473226832
 30
0.0
 10
614.8252244708495
 20
-67.96714259398652
 30
0.0
 10
614.8252244708495
 20
-63.88543830428409
 30
0.0
  0
LINE
  5
23C
330
1F
100
AcDbEntity
  8
FISHER & PAYKEL
 62
   250
420
  1316376
370
     9
100
AcDbLine
 10
601.8904199953148
 20
-70.42110413583362
 30
0.0
 11
607.4679260299041
 21
-65.42921859570458
 31
0.0
  0
SPLINE
  5
23D
330
1F
100
AcDbEntity
  8
FISHER & PAYKEL
 62
   250
420
  1316376
370
     9
100
AcDbSpline
210
0.0
220
0.0
230
1.0
 70
     8
 71
     3
 72
     8
 73
     4
 74
     0
 42
0.000000001
 43
0.0000000001
 40
2.121741266036095
 40
2.121741266036095
 40
2.121741266036095
 40
2.121741266036095
 40
3.121741266036095
 40
3.121741266036095
 40
3.121741266036095
 40
3.121741266036095
 10
607.4679260299041
 20
-65.42921859570458
 30
0.0
 10
609.9232987054723
 20
-63.20668298419866
 30
0.0
 10
610.7805624413389
 20
-61.93666263476678
 30
0.0
 10
610.7805624413389
 20
-60.37030420380063
 30
0.0
  0
SPLINE
  5
23E
330
1F
100
AcDbEntity
  8
FISHER & PAYKEL
 62
   250
420
  1316376
370
     9
100
AcDbSpline
210
0.0
220
0.0
230
1.0
 70
     8
 71
     3
 72
     8
 73
     4
 74
     0
 42
0.000000001
 43
0.0000000001
 40
3.121741266036095
 40
3.121741266036095
 40
3.121741266036095
 40
3.121741266036095
 40
4.121741266036095
 40
4.121741266036095
 40
4.121741266036095
 40
4.121741266036095
 10
610.7805624413389
 20
-60.37030420380063
 30
0.0
 10
610.7805624413389
 20
-58.44763450813264
 30
0.0
 10
609.1965648388531
 20
-57.19878116452458
 30
0.0
 10
607.4008971781283
 20
-57.19878116452458
 30
0.0
  0
SPLINE
  5
23F
330
1F
100
AcDbEntity
  8
FISHER & PAYKEL
 62
   250
420
  1316376
370
     9
100
AcDbSpline
210
0.0
220
0.0
230
1.0
 70
     8
 71
     3
 72
     8
 73
     4
 74
     0
 42
0.000000001
 43
0.0000000001
 40
4.121741266036095
 40
4.121741266036095
 40
4.121741266036095
 40
4.121741266036095
 40
5.121741266036095
 40
5.121741266036095
 40
5.121741266036095
 40
5.121741266036095
 10
607.4008971781283
 20
-57.19878116452458
 30
0.0
 10
605.4993944882843
 20
-57.19878116452458
 30
0.0
 10
604.2646524818919
 20
-58.17246343242243
 30
0.0
 10
603.0228548068918
 20
-59.9504919216273
 30
0.0
  0
LINE
  5
240
330
1F
100
AcDbEntity
  8
FISHER & PAYKEL
 62
   250
420
  1316376
370
     9
100
AcDbLine
 10
603.0228548068918
 20
-59.9504919216273
 30
0.0
 11
602.1902859111527
 21
-59.40014977020667
 31
0.0
  0
SPLINE
  5
241
330
1F
100
AcDbEntity
  8
FISHER & PAYKEL
 62
   250
420
  1316376
370
     9
100
AcDbSpline
210
0.0
220
0.0
230
1.0
 70
     8
 71
     3
 72
     8
 73
     4
 74
     0
 42
0.000000001
 43
0.0000000001
 40
5.404640541397528
 40
5.404640541397528
 40
5.404640541397528
 40
5.404640541397528
 40
6.404640541397528
 40
6.404640541397528
 40
6.404640541397528
 40
6.404640541397528
 10
602.1902859111527
 20
-59.40014977020667
 30
0.0
 10
603.4920567693208
 20
-57.4316182285869
 30
0.0
 10
604.8820234850881
 20
-56.22862673093061
 30
0.0
 10
607.5102600415515
 20
-56.22862673093061
 30
0.0
  0
SPLINE
  5
242
330
1F
100
AcDbEntity
  8
FISHER & PAYKEL
 62
   250
420
  1316376
370
     9
100
AcDbSpline
210
0.0
220
0.0
230
1.0
 70
     8
 71
     3
 72
     8
 73
     4
 74
     0
 42
0.000000001
 43
0.0000000001
 40
6.404640541397528
 40
6.404640541397528
 40
6.404640541397528
 40
6.404640541397528
 40
7.404640541397528
 40
7.404640541397528
 40
7.404640541397528
 40
7.404640541397528
 10
607.5102600415515
 20
-56.22862673093061
 30
0.0
 10
610.0503007404155
 20
-56.22862673093061
 30
0.0
 10
611.9553312645636
 20
-57.98196038000754
 30
0.0
 10
611.9553312645636
 20
-60.28916401480922
 30
0.0
  0
LINE
  5
243
330
1F
100
AcDbEntity
  8
FISHER & PAYKEL
 62
   250
420
  1316376
370
     9
100
AcDbLine
 10
611.9553312645636
 20
-60.28916401480922
 30
0.0
 11
611.9553312645636
 21
-60.33149802645687
 31
0.0
  0
SPLINE
  5
244
330
1F
100
AcDbEntity
  8
FISHER & PAYKEL
 62
   250
420
  1316376
370
     9
100
AcDbSpline
210
0.0
220
0.0
230
1.0
 70
     8
 71
     3
 72
     8
 73
     4
 74
     0
 42
0.000000001
 43
0.0000000001
 40
7.416640541397529
 40
7.416640541397529
 40
7.416640541397529
 40
7.416640541397529
 40
8.416640541397529
 40
8.416640541397529
 40
8.416640541397529
 40
8.416640541397529
 10
611.9553312645636
 20
-60.33149802645687
 30
0.0
 10
611.9553312645636
 20
-62.36353058554812
 30
0.0
 10
610.8440634588106
 20
-63.71469112397165
 30
0.0
 10
608.2158269023472
 20
-66.08539577624481
 30
0.0
  0
LINE
  5
245
330
1F
100
AcDbEntity
  8
FISHER & PAYKEL
 62
   250
420
  1316376
370
     9
100
AcDbLine
 10
608.2158269023472
 20
-66.08539577624481
 30
0.0
 11
603.643753644392
 21
-70.19179490607496
 31
0.0
  0
LINE
  5
246
330
1F
100
AcDbEntity
  8
FISHER & PAYKEL
 62
   250
420
  1316376
370
     9
100
AcDbLine
 10
603.643753644392
 20
-70.19179490607496
 30
0.0
 11
612.1070281396347
 21
-70.19179490607496
 31
0.0
  0
LINE
  5
247
330
1F
100
AcDbEntity
  8
FISHER & PAYKEL
 62
   250
420
  1316376
370
     9
100
AcDbLine
 10
612.1070281396347
 20
-70.19179490607496
 30
0.0
 11
612.1070281396347
 21
-71.24308952866033
 31
0.0
  0
LINE
  5
248
330
1F
100
AcDbEntity
  8
FISHER & PAYKEL
 62
   250
420
  1316376
370
     9
100
AcDbLine
 10
612.1070281396347
 20
-71.24308952866033
 30
0.0
 11
601.8904199953148
 21
-71.24308952866033
 31
0.0
  0
LINE
  5
249
330
1F
100
AcDbEntity
  8
FISHER & PAYKEL
 62
   250
420
  1316376
370
     9
100
AcDbLine
 10
601.8904199953148
 20
-71.24308952866033
 30
0.0
 11
601.8904199953148
 21
-70.42110413583362
 31
0.0
  0
LINE
  5
24A
330
1F
100
AcDbEntity
  8
FISHER & PAYKEL
 62
   250
420
  1316376
370
     9
100
AcDbLine
 10
369.3426383457034
 20
-63.88543830428409
 30
0.0
 11
369.3426383457034
 21
-63.83957645833254
 31
0.0
  0
SPLINE
  5
24B
330
1F
100
AcDbEntity
  8
FISHER & PAYKEL
 62
   250
420
  1316376
370
     9
100
AcDbSpline
210
0.0
220
0.0
230
1.0
 70
     8
 71
     3
 72
     8
 73
     4
 74
     0
 42
0.000000001
 43
0.0000000001
 40
0.0129999999999768
 40
0.0129999999999768
 40
0.0129999999999768
 40
0.0129999999999768
 40
1.012999999999977
 40
1.012999999999977
 40
1.012999999999977
 40
1.012999999999977
 10
369.3426383457034
 20
-63.83957645833254
 30
0.0
 10
369.3426383457034
 20
-60.39288234334606
 30
0.0
 10
367.3776346383876
 20
-57.17902529242212
 30
0.0
 10
364.2766682851912
 20
-57.17902529242212
 30
0.0
  0
SPLINE
  5
24C
330
1F
100
AcDbEntity
  8
FISHER & PAYKEL
 62
   250
420
  1316376
370
     9
100
AcDbSpline
210
0.0
220
0.0
230
1.0
 70
     8
 71
     3
 72
     8
 73
     4
 74
     0
 42
0.000000001
 43
0.0000000001
 40
1.012999999999977
 40
1.012999999999977
 40
1.012999999999977
 40
1.012999999999977
 40
2.012999999999977
 40
2.012999999999977
 40
2.012999999999977
 40
2.012999999999977
 10
364.2766682851912
 20
-57.17902529242212
 30
0.0
 10
361.1792297662986
 20
-57.17902529242212
 30
0.0
 10
359.2565600706308
 20
-60.35054833169818
 30
0.0
 10
359.2565600706308
 20
-63.80077028098879
 30
0.0
  0
LINE
  5
24D
330
1F
100
AcDbEntity
  8
FISHER & PAYKEL
 62
   250
420
  1316376
370
     9
100
AcDbLine
 10
359.2565600706308
 20
-63.80077028098879
 30
0.0
 11
359.2565600706308
 21
-63.83957645833254
 31
0.0
  0
SPLINE
  5
24E
330
1F
100
AcDbEntity
  8
FISHER & PAYKEL
 62
   250
420
  1316376
370
     9
100
AcDbSpline
210
0.0
220
0.0
230
1.0
 70
     8
 71
     3
 72
     8
 73
     4
 74
     0
 42
0.000000001
 43
0.0000000001
 40
2.024000000000001
 40
2.024000000000001
 40
2.024000000000001
 40
2.024000000000001
 40
3.024000000000001
 40
3.024000000000001
 40
3.024000000000001
 40
3.024000000000001
 10
359.2565600706308
 20
-63.83957645833254
 30
0.0
 10
359.2565600706308
 20
-67.26863140179887
 30
0.0
 10
361.2215637779465
 20
-70.50718329285075
 30
0.0
 10
364.3225301311428
 20
-70.50718329285075
 30
0.0
  0
SPLINE
  5
24F
330
1F
100
AcDbEntity
  8
FISHER & PAYKEL
 62
   250
420
  1316376
370
     9
100
AcDbSpline
210
0.0
220
0.0
230
1.0
 70
     8
 71
     3
 72
     8
 73
     4
 74
     0
 42
0.000000001
 43
0.0000000001
 40
3.024000000000001
 40
3.024000000000001
 40
3.024000000000001
 40
3.024000000000001
 40
4.024000000000001
 40
4.024000000000001
 40
4.024000000000001
 40
4.024000000000001
 10
364.3225301311428
 20
-70.50718329285075
 30
0.0
 10
367.4199686500352
 20
-70.50718329285075
 30
0.0
 10
369.3426383457034
 20
-67.31096541344675
 30
0.0
 10
369.3426383457034
 20
-63.88543830428409
 30
0.0
  0
LINE
  5
250
330
1F
100
AcDbEntity
  8
FISHER & PAYKEL
 62
   250
420
  1316376
370
     9
100
AcDbLine
 10
358.0994304189259
 20
-63.88543830428409
 30
0.0
 11
358.0994304189259
 21
-63.83957645833254
 31
0.0
  0
SPLINE
  5
251
330
1F
100
AcDbEntity
  8
FISHER & PAYKEL
 62
   250
420
  1316376
370
     9
100
AcDbSpline
210
0.0
220
0.0
230
1.0
 70
     8
 71
     3
 72
     8
 73
     4
 74
     0
 42
0.000000001
 43
0.0000000001
 40
2.012999999999977
 40
2.012999999999977
 40
2.012999999999977
 40
2.012999999999977
 40
3.012999999999977
 40
3.012999999999977
 40
3.012999999999977
 40
3.012999999999977
 10
358.0994304189259
 20
-63.83957645833254
 30
0.0
 10
358.0994304189259
 20
-59.75787216863012
 30
0.0
 10
360.5159969171506
 20
-56.18064818439655
 30
0.0
 10
364.3225301311428
 20
-56.18064818439655
 30
0.0
  0
SPLINE
  5
252
330
1F
100
AcDbEntity
  8
FISHER & PAYKEL
 62
   250
420
  1316376
370
     9
100
AcDbSpline
210
0.0
220
0.0
230
1.0
 70
     8
 71
     3
 72
     8
 73
     4
 74
     0
 42
0.000000001
 43
0.0000000001
 40
3.012999999999977
 40
3.012999999999977
 40
3.012999999999977
 40
3.012999999999977
 40
4.012999999999977
 40
4.012999999999977
 40
4.012999999999977
 40
4.012999999999977
 10
364.3225301311428
 20
-56.18064818439655
 30
0.0
 10
368.1255355108309
 20
-56.18064818439655
 30
0.0
 10
370.4962401631041
 20
-59.71553815698246
 30
0.0
 10
370.4962401631041
 20
-63.80077028098879
 30
0.0
  0
LINE
  5
253
330
1F
100
AcDbEntity
  8
FISHER & PAYKEL
 62
   250
420
  1316376
370
     9
100
AcDbLine
 10
370.4962401631041
 20
-63.80077028098879
 30
0.0
 11
370.4962401631041
 21
-63.83957645833254
 31
0.0
  0
SPLINE
  5
254
330
1F
100
AcDbEntity
  8
FISHER & PAYKEL
 62
   250
420
  1316376
370
     9
100
AcDbSpline
210
0.0
220
0.0
230
1.0
 70
     8
 71
     3
 72
     8
 73
     4
 74
     0
 42
0.000000001
 43
0.0000000001
 40
4.024000000000001
 40
4.024000000000001
 40
4.024000000000001
 40
4.024000000000001
 40
5.024000000000001
 40
5.024000000000001
 40
5.024000000000001
 40
5.024000000000001
 10
370.4962401631041
 20
-63.83957645833254
 30
0.0
 10
370.4962401631041
 20
-67.92480858233864
 30
0.0
 10
368.0832014991832
 20
-71.49850473226832
 30
0.0
 10
364.2766682851912
 20
-71.49850473226832
 30
0.0
  0
SPLINE
  5
255
330
1F
100
AcDbEntity
  8
FISHER & PAYKEL
 62
   250
420
  1316376
370
     9
100
AcDbSpline
210
0.0
220
0.0
230
1.0
 70
     8
 71
     3
 72
     8
 73
     4
 74
     0
 42
0.000000001
 43
0.0000000001
 40
5.024000000000001
 40
5.024000000000001
 40
5.024000000000001
 40
5.024000000000001
 40
6.024000000000001
 40
6.024000000000001
 40
6.024000000000001
 40
6.024000000000001
 10
364.2766682851912
 20
-71.49850473226832
 30
0.0
 10
360.4736629055029
 20
-71.49850473226832
 30
0.0
 10
358.0994304189259
 20
-67.96714259398652
 30
0.0
 10
358.0994304189259
 20
-63.88543830428409
 30
0.0
  0
POLYLINE
  5
256
330
1F
100
AcDbEntity
  8
FISHER & PAYKEL
 62
   250
420
  1316376
370
     9
100
AcDb2dPolyline
 66
     1
 10
0.0
 20
0.0
 30
0.0
 70
     1
  0
VERTEX
  5
257
330
256
100
AcDbEntity
  8
FISHER & PAYKEL
 62
   250
420
  1316376
370
     9
100
AcDbVertex
100
AcDb2dVertex
 10
353.4070580112049
 20
-57.47395224023478
 30
0.0
  0
VERTEX
  5
258
330
256
100
AcDbEntity
  8
FISHER & PAYKEL
 62
   250
420
  1316376
370
     9
100
AcDbVertex
100
AcDb2dVertex
 10
350.5212895505512
 20
-58.44763450813264
 30
0.0
  0
VERTEX
  5
259
330
256
100
AcDbEntity
  8
FISHER & PAYKEL
 62
   250
420
  1316376
370
     9
100
AcDbVertex
100
AcDb2dVertex
 10
350.2214236347128
 20
-57.57978726935391
 30
0.0
  0
VERTEX
  5
25A
330
256
100
AcDbEntity
  8
FISHER & PAYKEL
 62
   250
420
  1316376
370
     9
100
AcDbVertex
100
AcDb2dVertex
 10
353.6398950752674
 20
-56.33093392574585
 30
0.0
  0
VERTEX
  5
25B
330
256
100
AcDbEntity
  8
FISHER & PAYKEL
 62
   250
420
  1316376
370
     9
100
AcDbVertex
100
AcDb2dVertex
 10
354.4971588111342
 20
-56.33093392574585
 30
0.0
  0
VERTEX
  5
25C
330
256
100
AcDbEntity
  8
FISHER & PAYKEL
 62
   250
420
  1316376
370
     9
100
AcDbVertex
100
AcDb2dVertex
 10
354.4971588111342
 20
-71.24308952866033
 30
0.0
  0
VERTEX
  5
25D
330
256
100
AcDbEntity
  8
FISHER & PAYKEL
 62
   250
420
  1316376
370
     9
100
AcDbVertex
100
AcDb2dVertex
 10
353.4070580112049
 20
-71.24308952866033
 30
0.0
  0
SEQEND
  5
25E
330
256
100
AcDbEntity
  8
FISHER & PAYKEL
 62
   250
420
  1316376
370
     9
  0
LINE
  5
25F
330
1F
100
AcDbEntity
  8
FISHER & PAYKEL
 62
   250
420
  1316376
370
     9
100
AcDbLine
 10
228.4843286067672
 20
-69.1083969913235
 30
0.0
 11
229.2745634908582
 21
-68.32521777584031
 31
0.0
  0
SPLINE
  5
260
330
1F
100
AcDbEntity
  8
FISHER & PAYKEL
 62
   250
420
  1316376
370
     9
100
AcDbSpline
210
0.0
220
0.0
230
1.0
 70
     8
 71
     3
 72
     8
 73
     4
 74
     0
 42
0.000000001
 43
0.0000000001
 40
0.3153727952756245
 40
0.3153727952756245
 40
0.3153727952756245
 40
0.3153727952756245
 40
1.315372795275624
 40
1.315372795275624
 40
1.315372795275624
 40
1.315372795275624
 10
229.2745634908582
 20
-68.32521777584031
 30
0.0
 10
230.6221961949778
 20
-69.65873914274391
 30
0.0
 10
232.181498957336
 20
-70.50541937569858
 30
0.0
 10
233.7619687255179
 20
-70.50541937569858
 30
0.0
  0
SPLINE
  5
261
330
1F
100
AcDbEntity
  8
FISHER & PAYKEL
 62
   250
420
  1316376
370
     9
100
AcDbSpline
210
0.0
220
0.0
230
1.0
 70
     8
 71
     3
 72
     8
 73
     4
 74
     0
 42
0.000000001
 43
0.0000000001
 40
1.315372795275624
 40
1.315372795275624
 40
1.315372795275624
 40
1.315372795275624
 40
2.315372795275624
 40
2.315372795275624
 40
2.315372795275624
 40
2.315372795275624
 10
233.7619687255179
 20
-70.50541937569858
 30
0.0
 10
236.136201212095
 20
-70.50541937569858
 30
0.0
 10
237.7801719977489
 20
-68.8543929214369
 30
0.0
 10
237.7801719977489
 20
-66.78355418500212
 30
0.0
  0
LINE
  5
262
330
1F
100
AcDbEntity
  8
FISHER & PAYKEL
 62
   250
420
  1316376
370
     9
100
AcDbLine
 10
237.7801719977489
 20
-66.78355418500212
 30
0.0
 11
237.7801719977489
 21
-66.73769233905011
 31
0.0
  0
SPLINE
  5
263
330
1F
100
AcDbEntity
  8
FISHER & PAYKEL
 62
   250
420
  1316376
370
     9
100
AcDbSpline
210
0.0
220
0.0
230
1.0
 70
     8
 71
     3
 72
     8
 73
     4
 74
     0
 42
0.000000001
 43
0.0000000001
 40
2.328372795275658
 40
2.328372795275658
 40
2.328372795275658
 40
2.328372795275658
 40
3.328372795275658
 40
3.328372795275658
 40
3.328372795275658
 40
3.328372795275658
 10
237.7801719977489
 20
-66.73769233905011
 30
0.0
 10
237.7801719977489
 20
-64.68802060843916
 30
0.0
 10
236.0938672004473
 20
-63.22749720659237
 30
0.0
 10
233.6773007022226
 20
-63.22749720659237
 30
0.0
  0
SPLINE
  5
264
330
1F
100
AcDbEntity
  8
FISHER & PAYKEL
 62
   250
420
  1316376
370
     9
100
AcDbSpline
210
0.0
220
0.0
230
1.0
 70
     8
 71
     3
 72
     8
 73
     4
 74
     0
 42
0.000000001
 43
0.0000000001
 40
3.328372795275658
 40
3.328372795275658
 40
3.328372795275658
 40
3.328372795275658
 40
4.328372795275659
 40
4.328372795275659
 40
4.328372795275659
 40
4.328372795275659
 10
233.6773007022226
 20
-63.22749720659237
 30
0.0
 10
232.2873339864553
 20
-63.22749720659237
 30
0.0
 10
231.243095032478
 20
-63.6508373230696
 30
0.0
 10
230.3011632733156
 20
-64.16237329714647
 30
0.0
  0
LINE
  5
265
330
1F
100
AcDbEntity
  8
FISHER & PAYKEL
 62
   250
420
  1316376
370
     9
100
AcDbLine
 10
230.3011632733156
 20
-64.16237329714647
 30
0.0
 11
229.4438995374491
 21
-63.60850331142194
 31
0.0
  0
LINE
  5
266
330
1F
100
AcDbEntity
  8
FISHER & PAYKEL
 62
   250
420
  1316376
370
     9
100
AcDbLine
 10
229.4438995374491
 20
-63.60850331142194
 30
0.0
 11
229.8742953225345
 21
-56.4364161714351
 31
0.0
  0
LINE
  5
267
330
1F
100
AcDbEntity
  8
FISHER & PAYKEL
 62
   250
420
  1316376
370
     9
100
AcDbLine
 10
229.8742953225345
 20
-56.4364161714351
 30
0.0
 11
238.2705409660017
 21
-56.4364161714351
 31
0.0
  0
LINE
  5
268
330
1F
100
AcDbEntity
  8
FISHER & PAYKEL
 62
   250
420
  1316376
370
     9
100
AcDbLine
 10
238.2705409660017
 20
-56.4364161714351
 30
0.0
 11
238.2705409660017
 21
-57.49476646262849
 31
0.0
  0
LINE
  5
269
330
1F
100
AcDbEntity
  8
FISHER & PAYKEL
 62
   250
420
  1316376
370
     9
100
AcDbLine
 10
238.2705409660017
 20
-57.49476646262849
 30
0.0
 11
230.8550332590404
 21
-57.49476646262849
 31
0.0
  0
LINE
  5
26A
330
1F
100
AcDbEntity
  8
FISHER & PAYKEL
 62
   250
420
  1316376
370
     9
100
AcDbLine
 10
230.8550332590404
 20
-57.49476646262849
 30
0.0
 11
230.4916663257305
 21
-63.03699415417748
 31
0.0
  0
SPLINE
  5
26B
330
1F
100
AcDbEntity
  8
FISHER & PAYKEL
 62
   250
420
  1316376
370
     9
100
AcDbSpline
210
0.0
220
0.0
230
1.0
 70
     8
 71
     3
 72
     8
 73
     4
 74
     0
 42
0.000000001
 43
0.0000000001
 40
13.01070906300447
 40
13.01070906300447
 40
13.01070906300447
 40
13.01070906300447
 40
14.01070906300447
 40
14.01070906300447
 40
14.01070906300447
 40
14.01070906300447
 10
230.4916663257305
 20
-63.03699415417748
 30
0.0
 10
231.4547650907167
 20
-62.57132002605238
 30
0.0
 10
232.4178638557024
 20
-62.23264793287046
 30
0.0
 10
233.8043027371658
 20
-62.23264793287046
 30
0.0
  0
SPLINE
  5
26C
330
1F
100
AcDbEntity
  8
FISHER & PAYKEL
 62
   250
420
  1316376
370
     9
100
AcDbSpline
210
0.0
220
0.0
230
1.0
 70
     8
 71
     3
 72
     8
 73
     4
 74
     0
 42
0.000000001
 43
0.0000000001
 40
14.01070906300447
 40
14.01070906300447
 40
14.01070906300447
 40
14.01070906300447
 40
15.01070906300447
 40
15.01070906300447
 40
15.01070906300447
 40
15.01070906300447
 10
233.8043027371658
 20
-62.23264793287046
 30
0.0
 10
236.6900711978197
 20
-62.23264793287046
 30
0.0
 10
238.9337738151495
 20
-64.05301043372322
 30
0.0
 10
238.9337738151495
 20
-66.69535832740246
 30
0.0
  0
LINE
  5
26D
330
1F
100
AcDbEntity
  8
FISHER & PAYKEL
 62
   250
420
  1316376
370
     9
100
AcDbLine
 10
238.9337738151495
 20
-66.69535832740246
 30
0.0
 11
238.9337738151495
 21
-66.73769233905011
 31
0.0
  0
SPLINE
  5
26E
330
1F
100
AcDbEntity
  8
FISHER & PAYKEL
 62
   250
420
  1316376
370
     9
100
AcDbSpline
210
0.0
220
0.0
230
1.0
 70
     8
 71
     3
 72
     8
 73
     4
 74
     0
 42
0.000000001
 43
0.0000000001
 40
15.02270906300447
 40
15.02270906300447
 40
15.02270906300447
 40
15.02270906300447
 40
16.02270906300447
 40
16.02270906300447
 40
16.02270906300447
 40
16.02270906300447
 10
238.9337738151495
 20
-66.73769233905011
 30
0.0
 10
238.9337738151495
 20
-69.53173710780072
 30
0.0
 10
236.7324052094674
 20
-71.50026864942026
 30
0.0
 10
233.7196347138703
 20
-71.50026864942026
 30
0.0
  0
SPLINE
  5
26F
330
1F
100
AcDbEntity
  8
FISHER & PAYKEL
 62
   250
420
  1316376
370
     9
100
AcDbSpline
210
0.0
220
0.0
230
1.0
 70
     8
 71
     3
 72
     8
 73
     4
 74
     0
 42
0.000000001
 43
0.0000000001
 40
16.02270906300447
 40
16.02270906300447
 40
16.02270906300447
 40
16.02270906300447
 40
17.02270906300447
 40
17.02270906300447
 40
17.02270906300447
 40
17.02270906300447
 10
233.7196347138703
 20
-71.50026864942026
 30
0.0
 10
231.6911304727161
 20
-71.50026864942026
 30
0.0
 10
229.7896282059461
 20
-70.42075186715704
 30
0.0
 10
228.4843286067672
 20
-69.1083969913235
 30
0.0
  0
LINE
  5
270
330
1F
100
AcDbEntity
  8
FISHER & PAYKEL
  6
Continuous
 62
     5
420
      255
370
    25
100
AcDbLine
 10
137.1976069933831
 20
398.2418434539254
 30
0.0
 11
2407.534568897219
 21
398.2418434539254
 31
0.0
  0
LINE
  5
271
330
1F
100
AcDbEntity
  8
FISHER & PAYKEL
  6
Continuous
 62
    18
420
        0
370
    25
100
AcDbLine
 10
337.1976069933829
 20
1495.008857824309
 30
0.0
 11
1044.197606993383
 21
1495.008857824309
 31
0.0
  0
LINE
  5
272
330
1F
100
AcDbEntity
  8
FISHER & PAYKEL
  6
Continuous
 62
    18
420
        0
370
    25
100
AcDbLine
 10
337.1976069933829
 20
1925.241843453929
 30
0.0
 11
337.1976069933829
 21
1495.008857824309
 31
0.0
  0
LINE
  5
273
330
1F
100
AcDbEntity
  8
FISHER & PAYKEL
  6
Continuous
 62
    18
420
        0
370
    25
100
AcDbLine
 10
1044.197606993383
 20
1925.241843453929
 30
0.0
 11
1044.197606993383
 21
1495.008857824309
 31
0.0
  0
LINE
  5
274
330
1F
100
AcDbEntity
  8
FISHER & PAYKEL
  6
Continuous
 62
    18
420
        0
370
    25
100
AcDbLine
 10
1044.197606993383
 20
1925.241843453929
 30
0.0
 11
337.1976069933829
 21
1925.241843453929
 31
0.0
  0
LINE
  5
275
330
1F
100
AcDbEntity
  8
FISHER & PAYKEL
  6
Continuous
 62
    18
420
        0
370
    25
100
AcDbLine
 10
337.1976069933829
 20
1490.241843453929
 30
0.0
 11
1044.197606993383
 21
1490.241843453929
 31
0.0
  0
LINE
  5
276
330
1F
100
AcDbEntity
  8
FISHER & PAYKEL
  6
Continuous
 62
    18
420
        0
370
    25
100
AcDbLine
 10
337.1976069933829
 20
1495.008857824309
 30
0.0
 11
337.1976069933829
 21
1490.241843453929
 31
0.0
  0
LINE
  5
277
330
1F
100
AcDbEntity
  8
FISHER & PAYKEL
  6
Continuous
 62
    18
420
        0
370
    25
100
AcDbLine
 10
1044.197606993383
 20
1490.241843453929
 30
0.0
 11
1044.197606993383
 21
1495.008857824309
 31
0.0
  0
LINE
  5
278
330
1F
100
AcDbEntity
  8
FISHER & PAYKEL
  6
Continuous
 62
    18
420
        0
370
    25
100
AcDbLine
 10
337.1976069933829
 20
1475.474829083548
 30
0.0
 11
1044.197606993383
 21
1475.474829083548
 31
0.0
  0
LINE
  5
279
330
1F
100
AcDbEntity
  8
FISHER & PAYKEL
  6
Continuous
 62
    18
420
        0
370
    25
100
AcDbLine
 10
337.1976069933829
 20
1480.241843453929
 30
0.0
 11
1044.197606993383
 21
1480.241843453929
 31
0.0
  0
LINE
  5
27A
330
1F
100
AcDbEntity
  8
FISHER & PAYKEL
  6
Continuous
 62
    18
420
        0
370
    25
100
AcDbLine
 10
337.1976069933829
 20
1480.241843453929
 30
0.0
 11
337.1976069933829
 21
1475.474829083548
 31
0.0
  0
LINE
  5
27B
330
1F
100
AcDbEntity
  8
FISHER & PAYKEL
  6
Continuous
 62
    18
420
        0
370
    25
100
AcDbLine
 10
1044.197606993383
 20
1475.474829083548
 30
0.0
 11
1044.197606993383
 21
1480.241843453929
 31
0.0
  0
LINE
  5
27C
330
1F
100
AcDbEntity
  8
FISHER & PAYKEL
  6
Continuous
 62
    18
420
        0
370
    25
100
AcDbLine
 10
337.1976069933829
 20
1428.241843453929
 30
0.0
 11
1044.197606993383
 21
1428.241843453929
 31
0.0
  0
LINE
  5
27D
330
1F
100
AcDbEntity
  8
FISHER & PAYKEL
  6
Continuous
 62
    18
420
        0
370
    25
100
AcDbLine
 10
337.1976069933829
 20
1475.474829083548
 30
0.0
 11
337.1976069933829
 21
1428.241843453929
 31
0.0
  0
LINE
  5
27E
330
1F
100
AcDbEntity
  8
FISHER & PAYKEL
  6
Continuous
 62
    18
420
        0
370
    25
100
AcDbLine
 10
1044.197606993383
 20
1475.474829083548
 30
0.0
 11
1044.197606993383
 21
1428.241843453929
 31
0.0
  0
LINE
  5
27F
330
1F
100
AcDbEntity
  8
FISHER & PAYKEL
  6
Continuous
 62
    18
420
        0
370
    25
100
AcDbLine
 10
1044.197606993383
 20
1420.041843453929
 30
0.0
 11
337.1976069933829
 21
1420.041843453929
 31
0.0
  0
LINE
  5
280
330
1F
100
AcDbEntity
  8
FISHER & PAYKEL
  6
Continuous
 62
    18
420
        0
370
    25
100
AcDbLine
 10
337.1976069933829
 20
1428.241843453929
 30
0.0
 11
337.1976069933829
 21
1420.041843453929
 31
0.0
  0
LINE
  5
281
330
1F
100
AcDbEntity
  8
FISHER & PAYKEL
  6
Continuous
 62
    18
420
        0
370
    25
100
AcDbLine
 10
1044.197606993383
 20
1420.041843453929
 30
0.0
 11
1044.197606993383
 21
1428.241843453929
 31
0.0
  0
LINE
  5
282
330
1F
100
AcDbEntity
  8
FISHER & PAYKEL
  6
Continuous
 62
    18
420
        0
370
    25
100
AcDbLine
 10
337.1976069933829
 20
1407.241843453929
 30
0.0
 11
337.1976069933829
 21
1405.241843453929
 31
0.0
  0
LINE
  5
283
330
1F
100
AcDbEntity
  8
FISHER & PAYKEL
  6
Continuous
 62
    18
420
        0
370
    25
100
AcDbLine
 10
311.1976069933829
 20
1407.241843453929
 30
0.0
 11
311.1976069933829
 21
1405.241843453929
 31
0.0
  0
LINE
  5
284
330
1F
100
AcDbEntity
  8
FISHER & PAYKEL
  6
Continuous
 62
    18
420
        0
370
    25
100
AcDbLine
 10
311.1976069933829
 20
1407.241843453929
 30
0.0
 11
337.1976069933829
 21
1407.241843453929
 31
0.0
  0
LINE
  5
285
330
1F
100
AcDbEntity
  8
FISHER & PAYKEL
  6
Continuous
 62
    18
420
        0
370
    25
100
AcDbLine
 10
337.1976069933829
 20
1405.241843453929
 30
0.0
 11
311.1976069933829
 21
1405.241843453929
 31
0.0
  0
LINE
  5
286
330
1F
100
AcDbEntity
  8
FISHER & PAYKEL
  6
Continuous
 62
    18
420
        0
370
    25
100
AcDbLine
 10
1070.197606993383
 20
1407.241843453929
 30
0.0
 11
1044.197606993383
 21
1407.241843453929
 31
0.0
  0
LINE
  5
287
330
1F
100
AcDbEntity
  8
FISHER & PAYKEL
  6
Continuous
 62
    18
420
        0
370
    25
100
AcDbLine
 10
1044.197606993383
 20
1407.241843453929
 30
0.0
 11
1044.197606993383
 21
1405.241843453929
 31
0.0
  0
LINE
  5
288
330
1F
100
AcDbEntity
  8
FISHER & PAYKEL
  6
Continuous
 62
    18
420
        0
370
    25
100
AcDbLine
 10
1070.197606993383
 20
1407.241843453929
 30
0.0
 11
1070.197606993383
 21
1405.241843453929
 31
0.0
  0
LINE
  5
289
330
1F
100
AcDbEntity
  8
FISHER & PAYKEL
  6
Continuous
 62
    18
420
        0
370
    25
100
AcDbLine
 10
1070.197606993383
 20
1405.241843453929
 30
0.0
 11
1044.197606993383
 21
1405.241843453929
 31
0.0
  0
LINE
  5
28A
330
1F
100
AcDbEntity
  8
FISHER & PAYKEL
  6
Continuous
 62
    18
420
        0
370
    25
100
AcDbLine
 10
337.1976069933829
 20
1405.241843453929
 30
0.0
 11
1044.197606993383
 21
1405.241843453929
 31
0.0
  0
LINE
  5
28B
330
1F
100
AcDbEntity
  8
FISHER & PAYKEL
  6
Continuous
 62
    18
420
        0
370
    25
100
AcDbLine
 10
337.1976069933829
 20
1420.041843453929
 30
0.0
 11
337.1976069933829
 21
1407.241843453929
 31
0.0
  0
LINE
  5
28C
330
1F
100
AcDbEntity
  8
FISHER & PAYKEL
  6
Continuous
 62
    18
420
        0
370
    25
100
AcDbLine
 10
1044.197606993383
 20
1420.041843453929
 30
0.0
 11
1044.197606993383
 21
1407.241843453929
 31
0.0
  0
LINE
  5
28D
330
1F
100
AcDbEntity
  8
FISHER & PAYKEL
  6
Continuous
 62
    18
420
        0
370
    25
100
AcDbLine
 10
310.6976069933829
 20
1386.241843453929
 30
0.0
 11
1070.697606993383
 21
1386.241843453929
 31
0.0
  0
LINE
  5
28E
330
1F
100
AcDbEntity
  8
FISHER & PAYKEL
  6
Continuous
 62
    18
420
        0
370
    25
100
AcDbLine
 10
310.6976069933829
 20
1400.641843453929
 30
0.0
 11
1070.697606993383
 21
1400.641843453929
 31
0.0
  0
LINE
  5
28F
330
1F
100
AcDbEntity
  8
FISHER & PAYKEL
  6
Continuous
 62
    18
420
        0
370
    25
100
AcDbLine
 10
1070.697606993383
 20
1400.641843453929
 30
0.0
 11
1070.697606993383
 21
1386.241843453929
 31
0.0
  0
LINE
  5
290
330
1F
100
AcDbEntity
  8
FISHER & PAYKEL
  6
Continuous
 62
    18
420
        0
370
    25
100
AcDbLine
 10
310.6976069933829
 20
1400.641843453929
 30
0.0
 11
310.6976069933829
 21
1386.241843453929
 31
0.0
  0
LINE
  5
291
330
1F
100
AcDbEntity
  8
FISHER & PAYKEL
  6
Continuous
 62
    18
420
        0
370
    25
100
AcDbLine
 10
337.1976069933829
 20
1490.241843453929
 30
0.0
 11
337.1976069933829
 21
1480.241843453929
 31
0.0
  0
LINE
  5
292
330
1F
100
AcDbEntity
  8
FISHER & PAYKEL
  6
Continuous
 62
    18
420
        0
370
    25
100
AcDbLine
 10
1044.197606993383
 20
1490.241843453929
 30
0.0
 11
1044.197606993383
 21
1480.241843453929
 31
0.0
  0
LINE
  5
293
330
1F
100
AcDbEntity
  8
FISHER & PAYKEL
  6
Continuous
 62
    18
420
        0
370
    25
100
AcDbLine
 10
1032.697606993383
 20
1400.641843453929
 30
0.0
 11
1032.697606993383
 21
1405.241843453929
 31
0.0
  0
LINE
  5
294
330
1F
100
AcDbEntity
  8
FISHER & PAYKEL
  6
Continuous
 62
    18
420
        0
370
    25
100
AcDbLine
 10
348.6976069933829
 20
1400.641843453929
 30
0.0
 11
348.6976069933829
 21
1405.241843453929
 31
0.0
  0
LINE
  5
295
330
1F
100
AcDbEntity
  8
FISHER & PAYKEL
  6
Continuous
 62
    18
420
        0
370
    25
100
AcDbLine
 10
1001.197606993383
 20
1958.241843453929
 30
0.0
 11
1001.197606993383
 21
1925.241843453929
 31
0.0
  0
LINE
  5
296
330
1F
100
AcDbEntity
  8
FISHER & PAYKEL
  6
Continuous
 62
    18
420
        0
370
    25
100
AcDbLine
 10
1028.197606993383
 20
1958.241843453929
 30
0.0
 11
1001.197606993383
 21
1958.241843453929
 31
0.0
  0
LINE
  5
297
330
1F
100
AcDbEntity
  8
FISHER & PAYKEL
  6
Continuous
 62
    18
420
        0
370
    25
100
AcDbLine
 10
1028.197606993383
 20
1958.241843453929
 30
0.0
 11
1028.197606993383
 21
1925.241843453929
 31
0.0
  0
LINE
  5
298
330
1F
100
AcDbEntity
  8
FISHER & PAYKEL
  6
Continuous
 62
    18
420
        0
370
    25
100
AcDbLine
 10
968.1976069933828
 20
1939.741843453929
 30
0.0
 11
1001.197606993383
 21
1939.741843453929
 31
0.0
  0
LINE
  5
299
330
1F
100
AcDbEntity
  8
FISHER & PAYKEL
  6
Continuous
 62
    18
420
        0
370
    25
100
AcDbLine
 10
968.1976069933828
 20
1957.741843453929
 30
0.0
 11
1001.197606993383
 21
1957.741843453929
 31
0.0
  0
LINE
  5
29A
330
1F
100
AcDbEntity
  8
FISHER & PAYKEL
  6
Continuous
 62
    18
420
        0
370
    25
100
AcDbLine
 10
968.1976069933828
 20
1957.741843453929
 30
0.0
 11
968.1976069933828
 21
1939.741843453929
 31
0.0
  0
LINE
  5
29B
330
1F
100
AcDbEntity
  8
FISHER & PAYKEL
  6
Continuous
 62
    18
420
        0
370
    25
100
AcDbLine
 10
547.1976069933828
 20
1944.241843453929
 30
0.0
 11
547.1976069933828
 21
1925.241843453929
 31
0.0
  0
LINE
  5
29C
330
1F
100
AcDbEntity
  8
FISHER & PAYKEL
  6
Continuous
 62
    18
420
        0
370
    25
100
AcDbLine
 10
591.1976069933828
 20
1944.241843453929
 30
0.0
 11
591.1976069933828
 21
1925.241843453929
 31
0.0
  0
LINE
  5
29D
330
1F
100
AcDbEntity
  8
FISHER & PAYKEL
  6
Continuous
 62
    18
420
        0
370
    25
100
AcDbLine
 10
591.1976069933828
 20
1944.241843453929
 30
0.0
 11
547.1976069933828
 21
1944.241843453929
 31
0.0
  0
LINE
  5
29E
330
1F
100
AcDbEntity
  8
FISHER & PAYKEL
  6
Continuous
 62
    18
420
        0
370
    25
100
AcDbLine
 10
330.6976069933829
 20
1900.241843453929
 30
0.0
 11
329.6976069933829
 21
1900.241843453929
 31
0.0
  0
LINE
  5
29F
330
1F
100
AcDbEntity
  8
FISHER & PAYKEL
  6
Continuous
 62
    18
420
        0
370
    25
100
AcDbLine
 10
330.6976069933829
 20
1800.241843453929
 30
0.0
 11
330.6976069933829
 21
1900.241843453929
 31
0.0
  0
LINE
  5
2A0
330
1F
100
AcDbEntity
  8
FISHER & PAYKEL
  6
Continuous
 62
    18
420
        0
370
    25
100
AcDbLine
 10
329.6976069933829
 20
1800.241843453929
 30
0.0
 11
330.6976069933829
 21
1800.241843453929
 31
0.0
  0
LINE
  5
2A1
330
1F
100
AcDbEntity
  8
FISHER & PAYKEL
  6
Continuous
 62
    18
420
        0
370
    25
100
AcDbLine
 10
329.6976069933829
 20
1900.241843453929
 30
0.0
 11
329.6976069933829
 21
1800.241843453929
 31
0.0
  0
LINE
  5
2A2
330
1F
100
AcDbEntity
  8
FISHER & PAYKEL
  6
Continuous
 62
    18
420
        0
370
    25
100
AcDbLine
 10
1051.697606993383
 20
1800.241843453929
 30
0.0
 11
1051.697606993383
 21
1900.241843453929
 31
0.0
  0
LINE
  5
2A3
330
1F
100
AcDbEntity
  8
FISHER & PAYKEL
  6
Continuous
 62
    18
420
        0
370
    25
100
AcDbLine
 10
1050.697606993383
 20
1800.241843453929
 30
0.0
 11
1051.697606993383
 21
1800.241843453929
 31
0.0
  0
LINE
  5
2A4
330
1F
100
AcDbEntity
  8
FISHER & PAYKEL
  6
Continuous
 62
    18
420
        0
370
    25
100
AcDbLine
 10
1051.697606993383
 20
1900.241843453929
 30
0.0
 11
1050.697606993383
 21
1900.241843453929
 31
0.0
  0
LINE
  5
2A5
330
1F
100
AcDbEntity
  8
FISHER & PAYKEL
  6
Continuous
 62
    18
420
        0
370
    25
100
AcDbLine
 10
1050.697606993383
 20
1900.241843453929
 30
0.0
 11
1050.697606993383
 21
1800.241843453929
 31
0.0
  0
LINE
  5
2A6
330
1F
100
AcDbEntity
  8
FISHER & PAYKEL
  6
Continuous
 62
    18
420
        0
370
    25
100
AcDbLine
 10
337.1976069933829
 20
1800.241843453929
 30
0.0
 11
330.6976069933829
 21
1800.241843453929
 31
0.0
  0
LINE
  5
2A7
330
1F
100
AcDbEntity
  8
FISHER & PAYKEL
  6
Continuous
 62
    18
420
        0
370
    25
100
AcDbLine
 10
337.1976069933829
 20
1900.241843453929
 30
0.0
 11
330.6976069933829
 21
1900.241843453929
 31
0.0
  0
LINE
  5
2A8
330
1F
100
AcDbEntity
  8
FISHER & PAYKEL
  6
Continuous
 62
    18
420
        0
370
    25
100
AcDbLine
 10
1044.197606993383
 20
1800.241843453929
 30
0.0
 11
1050.697606993383
 21
1800.241843453929
 31
0.0
  0
LINE
  5
2A9
330
1F
100
AcDbEntity
  8
FISHER & PAYKEL
  6
Continuous
 62
    18
420
        0
370
    25
100
AcDbLine
 10
1044.197606993383
 20
1900.241843453929
 30
0.0
 11
1050.697606993383
 21
1900.241843453929
 31
0.0
  0
LINE
  5
2AA
330
1F
100
AcDbEntity
  8
FISHER & PAYKEL
  6
Continuous
 62
     5
420
      255
370
    25
100
AcDbLine
 10
111.1976069933829
 20
1407.241843453925
 30
0.0
 11
1270.197606993383
 21
1407.24184345393
 31
0.0
  0
LINE
  5
2AB
330
1F
100
AcDbEntity
  8
FISHER & PAYKEL
  6
Continuous
 62
     1
420
 16711680
370
    25
100
AcDbLine
 10
328.1976069933805
 20
1967.241843453925
 30
0.0
 11
1052.197606993381
 21
1967.241843453925
 31
0.0
  0
LINE
  5
2AC
330
1F
100
AcDbEntity
  8
FISHER & PAYKEL
  6
Continuous
 62
     1
420
 16711680
370
    25
100
AcDbLine
 10
328.1976069933805
 20
1967.241843453925
 30
0.0
 11
328.1976069933805
 21
1407.241843453926
 31
0.0
  0
LINE
  5
2AD
330
1F
100
AcDbEntity
  8
FISHER & PAYKEL
  6
Continuous
 62
     1
420
 16711680
370
    25
100
AcDbLine
 10
1052.197606993381
 20
1967.241843453925
 30
0.0
 11
1052.197606993381
 21
1407.24184345393
 31
0.0
  0
LINE
  5
2AE
330
1F
100
AcDbEntity
  8
FISHER & PAYKEL
  6
Continuous
 62
     6
420
 16711935
370
    25
100
AcDbLine
 10
1070.697606993383
 20
1386.24184345393
 30
0.0
 11
1070.697606993383
 21
967.2418434539253
 31
0.0
  0
LINE
  5
2AF
330
1F
100
AcDbEntity
  8
FISHER & PAYKEL
  6
Continuous
 62
     6
420
 16711935
370
    25
100
AcDbLine
 10
310.697606993383
 20
1386.241843453925
 30
0.0
 11
310.6976069933831
 21
967.2418434539253
 31
0.0
  0
LINE
  5
2B0
330
1F
100
AcDbEntity
  8
FISHER & PAYKEL
  6
Continuous
 62
     6
420
 16711935
370
    25
100
AcDbLine
 10
310.6976069933831
 20
967.2418434539253
 30
0.0
 11
1070.697606993383
 21
967.2418434539253
 31
0.0
  0
LINE
  5
2B1
330
1F
100
AcDbEntity
  8
FISHER & PAYKEL
  6
Continuous
 62
     6
420
 16711935
370
    25
100
AcDbLine
 10
1370.10472618641
 20
667.2418434539253
 30
0.0
 11
1370.10472618641
 21
400.2418434539253
 31
0.0
  0
LINE
  5
2B2
330
1F
100
AcDbEntity
  8
FISHER & PAYKEL
  6
Continuous
 62
     6
420
 16711935
370
    25
100
AcDbLine
 10
1789.10472618641
 20
400.2418434539254
 30
0.0
 11
1370.10472618641
 21
400.2418434539253
 31
0.0
  0
LINE
  5
2B3
330
1F
100
AcDbEntity
  8
FISHER & PAYKEL
  6
Continuous
 62
     6
420
 16711935
370
    25
100
AcDbLine
 10
1789.10472618641
 20
667.2418434539253
 30
0.0
 11
1370.10472618641
 21
667.2418434539253
 31
0.0
  0
LINE
  5
2B4
330
1F
100
AcDbEntity
  8
FISHER & PAYKEL
  6
Continuous
 62
     1
420
 16711680
370
    25
100
AcDbLine
 10
2370.10472618641
 20
671.2418434539253
 30
0.0
 11
2370.10472618641
 21
398.2418434539254
 31
0.0
  0
LINE
  5
2B5
330
1F
100
AcDbEntity
  8
FISHER & PAYKEL
  6
Continuous
 62
     1
420
 16711680
370
    25
100
AcDbLine
 10
1810.10472618641
 20
671.2418434539253
 30
0.0
 11
2370.10472618641
 21
671.2418434539253
 31
0.0
  0
LINE
  5
2B6
330
1F
100
AcDbEntity
  8
FISHER & PAYKEL
  6
Continuous
 62
     5
420
      255
370
    25
100
AcDbLine
 10
1810.10472618641
 20
869.2418434539254
 30
0.0
 11
1810.10472618641
 21
198.2418434539254
 31
0.0
  0
LINE
  5
2B7
330
1F
100
AcDbEntity
  8
FISHER & PAYKEL
  6
Continuous
 62
    18
420
        0
370
    25
100
AcDbLine
 10
2347.104726186408
 20
580.2418434539254
 30
0.0
 11
2347.104726186408
 21
602.2418434539254
 31
0.0
  0
LINE
  5
2B8
330
1F
100
AcDbEntity
  8
FISHER & PAYKEL
  6
Continuous
 62
    18
420
        0
370
    25
100
AcDbLine
 10
2347.104726186408
 20
602.2418434539254
 30
0.0
 11
2328.104726186409
 21
602.2418434539254
 31
0.0
  0
LINE
  5
2B9
330
1F
100
AcDbEntity
  8
FISHER & PAYKEL
  6
Continuous
 62
    18
420
        0
370
    25
100
AcDbLine
 10
2347.104726186408
 20
602.2418434539254
 30
0.0
 11
2347.104726186408
 21
618.2418434539254
 31
0.0
  0
LINE
  5
2BA
330
1F
100
AcDbEntity
  8
FISHER & PAYKEL
  6
Continuous
 62
    18
420
        0
370
    25
100
AcDbLine
 10
2361.104726186409
 20
637.2418434539254
 30
0.0
 11
2328.104726186409
 21
637.2418434539254
 31
0.0
  0
LINE
  5
2BB
330
1F
100
AcDbEntity
  8
FISHER & PAYKEL
  6
Continuous
 62
    18
420
        0
370
    25
100
AcDbLine
 10
2361.104726186409
 20
618.2418434539254
 30
0.0
 11
2328.104726186409
 21
618.2418434539254
 31
0.0
  0
LINE
  5
2BC
330
1F
100
AcDbEntity
  8
FISHER & PAYKEL
  6
Continuous
 62
    18
420
        0
370
    25
100
AcDbLine
 10
2361.104726186409
 20
618.2418434539254
 30
0.0
 11
2361.104726186409
 21
637.2418434539254
 31
0.0
  0
LINE
  5
2BD
330
1F
100
AcDbEntity
  8
FISHER & PAYKEL
  6
Continuous
 62
    18
420
        0
370
    25
100
AcDbLine
 10
1803.504726186409
 20
406.9418434539253
 30
0.0
 11
1808.104726186409
 21
406.9418434539253
 31
0.0
  0
LINE
  5
2BE
330
1F
100
AcDbEntity
  8
FISHER & PAYKEL
  6
Continuous
 62
    18
420
        0
370
    25
100
AcDbLine
 10
1803.504726186409
 20
657.9418434539253
 30
0.0
 11
1808.104726186409
 21
657.9418434539253
 31
0.0
  0
LINE
  5
2BF
330
1F
100
AcDbEntity
  8
FISHER & PAYKEL
  6
Continuous
 62
    18
420
        0
370
    25
100
AcDbLine
 10
1808.104726186409
 20
398.2418434539254
 30
0.0
 11
1808.104726186409
 21
400.2418434539254
 31
0.0
  0
LINE
  5
2C0
330
1F
100
AcDbEntity
  8
FISHER & PAYKEL
  6
Continuous
 62
    18
420
        0
370
    25
100
AcDbLine
 10
2328.104726186409
 20
398.2418434539254
 30
0.0
 11
1808.104726186409
 21
398.2418434539254
 31
0.0
  0
LINE
  5
2C1
330
1F
100
AcDbEntity
  8
FISHER & PAYKEL
  6
Continuous
 62
    18
420
        0
370
    25
100
AcDbLine
 10
1822.904726186409
 20
667.7418434539254
 30
0.0
 11
1810.104726186408
 21
667.7418434539254
 31
0.0
  0
LINE
  5
2C2
330
1F
100
AcDbEntity
  8
FISHER & PAYKEL
  6
Continuous
 62
    18
420
        0
370
    25
100
AcDbLine
 10
2328.104726186409
 20
398.2418434539254
 30
0.0
 11
2328.104726186409
 21
669.2418434539253
 31
0.0
  0
LINE
  5
2C3
330
1F
100
AcDbEntity
  8
FISHER & PAYKEL
  6
Continuous
 62
    18
420
        0
370
    25
100
AcDbLine
 10
2328.104726186409
 20
669.2418434539253
 30
0.0
 11
1897.871740556789
 21
669.2418434539253
 31
0.0
  0
LINE
  5
2C4
330
1F
100
AcDbEntity
  8
FISHER & PAYKEL
  6
Continuous
 62
    18
420
        0
370
    25
100
AcDbLine
 10
1893.104726186409
 20
665.2418434539253
 30
0.0
 11
1897.871740556789
 21
669.2418434539253
 31
0.0
  0
LINE
  5
2C5
330
1F
100
AcDbEntity
  8
FISHER & PAYKEL
  6
Continuous
 62
    18
420
        0
370
    25
100
AcDbLine
 10
1893.104726186409
 20
665.2418434539253
 30
0.0
 11
1883.104726186409
 21
665.2418434539253
 31
0.0
  0
LINE
  5
2C6
330
1F
100
AcDbEntity
  8
FISHER & PAYKEL
  6
Continuous
 62
    18
420
        0
370
    25
100
AcDbLine
 10
1878.337711816029
 20
669.2418434539253
 30
0.0
 11
1883.104726186409
 21
665.2418434539253
 31
0.0
  0
LINE
  5
2C7
330
1F
100
AcDbEntity
  8
FISHER & PAYKEL
  6
Continuous
 62
    18
420
        0
370
    25
100
AcDbLine
 10
1878.337711816029
 20
669.2418434539253
 30
0.0
 11
1831.104726186409
 21
669.2418434539253
 31
0.0
  0
LINE
  5
2C8
330
1F
100
AcDbEntity
  8
FISHER & PAYKEL
  6
Continuous
 62
    18
420
        0
370
    25
100
AcDbLine
 10
1822.904726186409
 20
667.7418434539254
 30
0.0
 11
1831.104726186409
 21
669.2418434539253
 31
0.0
  0
LINE
  5
2C9
330
1F
100
AcDbEntity
  8
FISHER & PAYKEL
  6
Continuous
 62
    18
420
        0
370
    25
100
AcDbLine
 10
2203.104726186409
 20
446.7418434539254
 30
0.0
 11
2303.104726186409
 21
446.7418434539254
 31
0.0
  0
LINE
  5
2CA
330
1F
100
AcDbEntity
  8
FISHER & PAYKEL
  6
Continuous
 62
    18
420
        0
370
    25
100
AcDbLine
 10
2203.104726186409
 20
446.7418434539254
 30
0.0
 11
2203.104726186409
 21
440.7418434539254
 31
0.0
  0
LINE
  5
2CB
330
1F
100
AcDbEntity
  8
FISHER & PAYKEL
  6
Continuous
 62
    18
420
        0
370
    25
100
AcDbLine
 10
2203.104726186409
 20
440.7418434539254
 30
0.0
 11
2303.104726186409
 21
440.7418434539254
 31
0.0
  0
LINE
  5
2CC
330
1F
100
AcDbEntity
  8
FISHER & PAYKEL
  6
Continuous
 62
    18
420
        0
370
    25
100
AcDbLine
 10
2303.104726186409
 20
440.7418434539254
 30
0.0
 11
2303.104726186409
 21
446.7418434539254
 31
0.0
  0
LINE
  5
2CD
330
1F
100
AcDbEntity
  8
FISHER & PAYKEL
  6
Continuous
 62
    18
420
        0
370
    25
100
AcDbLine
 10
1808.104726186409
 20
669.2418434539253
 30
0.0
 11
1808.104726186409
 21
400.2418434539254
 31
0.0
  0
LINE
  5
2CE
330
1F
100
AcDbEntity
  8
FISHER & PAYKEL
  6
Continuous
 62
    18
420
        0
370
    25
100
AcDbLine
 10
1810.104726186408
 20
400.2418434539254
 30
0.0
 11
1810.104726186408
 21
669.2418434539253
 31
0.0
  0
LINE
  5
2CF
330
1F
100
AcDbEntity
  8
FISHER & PAYKEL
  6
Continuous
 62
    18
420
        0
370
    25
100
AcDbLine
 10
1810.104726186408
 20
669.2418434539253
 30
0.0
 11
1808.104726186409
 21
669.2418434539253
 31
0.0
  0
LINE
  5
2D0
330
1F
100
AcDbEntity
  8
FISHER & PAYKEL
  6
Continuous
 62
    18
420
        0
370
    25
100
AcDbLine
 10
1808.104726186409
 20
400.2418434539254
 30
0.0
 11
1810.104726186408
 21
400.2418434539254
 31
0.0
  0
LINE
  5
2D1
330
1F
100
AcDbEntity
  8
FISHER & PAYKEL
  6
Continuous
 62
    18
420
        0
370
    25
100
AcDbLine
 10
1803.504726186409
 20
664.2418434539254
 30
0.0
 11
1803.504726186409
 21
409.8418434539254
 31
0.0
  0
ARC
  5
2D2
330
1F
100
AcDbEntity
  8
FISHER & PAYKEL
  6
Continuous
 62
    18
420
        0
370
    25
100
AcDbCircle
 10
1791.104726186409
 20
411.8418434539254
 30
0.0
 40
2.0
100
AcDbArc
 50
221.4096221083849
 51
270.0
  0
LINE
  5
2D3
330
1F
100
AcDbEntity
  8
FISHER & PAYKEL
  6
Continuous
 62
    18
420
        0
370
    25
100
AcDbLine
 10
1791.104726186409
 20
409.8418434539254
 30
0.0
 11
1791.471347664909
 21
409.8418434539254
 31
0.0
  0
LINE
  5
2D4
330
1F
100
AcDbEntity
  8
FISHER & PAYKEL
  6
Continuous
 62
    18
420
        0
370
    25
100
AcDbLine
 10
1789.604726186409
 20
664.2418434539254
 30
0.0
 11
1789.604726186399
 21
410.5189677984254
 31
0.0
  0
LINE
  5
2D5
330
1F
100
AcDbEntity
  8
FISHER & PAYKEL
  6
Continuous
 62
    18
420
        0
370
    25
100
AcDbLine
 10
1793.996857868989
 20
406.8418434539254
 30
0.0
 11
1791.471347664909
 21
409.8418434539254
 31
0.0
  0
LINE
  5
2D6
330
1F
100
AcDbEntity
  8
FISHER & PAYKEL
  6
Continuous
 62
    18
420
        0
370
    25
100
AcDbLine
 10
1793.996857868989
 20
406.8418434539254
 30
0.0
 11
1798.962720410417
 21
406.8418434539254
 31
0.0
  0
LINE
  5
2D7
330
1F
100
AcDbEntity
  8
FISHER & PAYKEL
  6
Continuous
 62
    18
420
        0
370
    25
100
AcDbLine
 10
1789.104726186409
 20
400.2418434539254
 30
0.0
 11
1803.504726186409
 21
400.2418434539254
 31
0.0
  0
LINE
  5
2D8
330
1F
100
AcDbEntity
  8
FISHER & PAYKEL
  6
Continuous
 62
    18
420
        0
370
    25
100
AcDbLine
 10
1789.104726186409
 20
403.2418434539254
 30
0.0
 11
1789.104726186409
 21
400.2418434539254
 31
0.0
  0
LINE
  5
2D9
330
1F
100
AcDbEntity
  8
FISHER & PAYKEL
  6
Continuous
 62
    18
420
        0
370
    25
100
AcDbLine
 10
1803.504726186409
 20
400.2418434539254
 30
0.0
 11
1803.504726186409
 21
409.8418434539254
 31
0.0
  0
LINE
  5
2DA
330
1F
100
AcDbEntity
  8
FISHER & PAYKEL
  6
Continuous
 62
    18
420
        0
370
    25
100
AcDbLine
 10
1791.471347664909
 20
409.8418434539254
 30
0.0
 11
1803.504726186409
 21
409.8418434539254
 31
0.0
  0
LINE
  5
2DB
330
1F
100
AcDbEntity
  8
FISHER & PAYKEL
  6
Continuous
 62
    18
420
        0
370
    25
100
AcDbLine
 10
1798.962720410417
 20
406.8418434539254
 30
0.0
 11
1798.962720410417
 21
403.2418434539254
 31
0.0
  0
LINE
  5
2DC
330
1F
100
AcDbEntity
  8
FISHER & PAYKEL
  6
Continuous
 62
    18
420
        0
370
    25
100
AcDbLine
 10
1798.962720410417
 20
403.2418434539254
 30
0.0
 11
1789.104726186409
 21
403.2418434539254
 31
0.0
  0
LINE
  5
2DD
330
1F
100
AcDbEntity
  8
FISHER & PAYKEL
  6
Continuous
 62
    18
420
        0
370
    25
100
AcDbLine
 10
1803.504726186409
 20
664.2418434539254
 30
0.0
 11
1803.504726186409
 21
667.2418434539253
 31
0.0
  0
LINE
  5
2DE
330
1F
100
AcDbEntity
  8
FISHER & PAYKEL
  6
Continuous
 62
    18
420
        0
370
    25
100
AcDbLine
 10
1803.504726186409
 20
667.2418434539253
 30
0.0
 11
1789.104726186409
 21
667.2418434539253
 31
0.0
  0
LINE
  5
2DF
330
1F
100
AcDbEntity
  8
FISHER & PAYKEL
  6
Continuous
 62
    18
420
        0
370
    25
100
AcDbLine
 10
1789.104726186409
 20
667.2418434539253
 30
0.0
 11
1789.104726186409
 21
664.2418434539254
 31
0.0
  0
LINE
  5
2E0
330
1F
100
AcDbEntity
  8
FISHER & PAYKEL
  6
Continuous
 62
    18
420
        0
370
    25
100
AcDbLine
 10
1789.104726186409
 20
664.2418434539254
 30
0.0
 11
1803.504726186409
 21
664.2418434539254
 31
0.0
  0
LINE
  5
2E1
330
1F
100
AcDbEntity
  8
FISHER & PAYKEL
  6
Continuous
 62
    18
420
        0
370
    25
100
AcDbLine
 10
2328.104726186409
 20
580.2418434539254
 30
0.0
 11
2347.104726186408
 21
580.2418434539254
 31
0.0
  0
ENDSEC
  0
SECTION
  2
OBJECTS
  0
DICTIONARY
  5
C
330
0
100
AcDbDictionary
281
     1
  3
ACAD_DETAILVIEWSTYLE
350
31D
  3
ACAD_GROUP
350
D
  3
ACAD_LAYOUT
350
1A
  3
ACAD_MATERIAL
350
43
  3
ACAD_MLEADERSTYLE
350
6B
  3
ACAD_MLINESTYLE
350
17
  3
ACAD_PLOTSETTINGS
350
19
  3
ACAD_PLOTSTYLENAME
350
E
  3
ACAD_SCALELIST
350
47
  3
ACAD_SECTIONVIEWSTYLE
350
31E
  3
ACAD_TABLESTYLE
350
69
  3
ACAD_VISUALSTYLE
350
2A
  3
ACDB_RECOMPOSE_DATA
350
31A
  3
AcDbVariableDictionary
350
2E2
  0
SUN
  5
6D
330
29
100
AcDbSun
 90
        1
290
     0
 63
     7
421
 16777215
 40
1.0
291
     1
 91
  2455826
 92
 54000000
292
     0
 70
     2
 71
   256
280
     1
  0
DICTIONARY
  5
31D
102
{ACAD_REACTORS
330
C
102
}
330
C
100
AcDbDictionary
281
     1
  0
DICTIONARY
  5
D
102
{ACAD_REACTORS
330
C
102
}
330
C
100
AcDbDictionary
281
     1
  0
DICTIONARY
  5
1A
102
{ACAD_REACTORS
330
C
102
}
330
C
100
AcDbDictionary
281
     1
  3
Layout1
350
1E
  3
Layout2
350
26
  3
Model
350
22
  0
DICTIONARY
  5
43
102
{ACAD_REACTORS
330
C
102
}
330
C
100
AcDbDictionary
281
     1
  3
ByBlock
350
45
  3
ByLayer
350
44
  3
Global
350
46
  0
DICTIONARY
  5
6B
102
{ACAD_REACTORS
330
C
102
}
330
C
100
AcDbDictionary
281
     1
  3
Standard
350
6C
  0
DICTIONARY
  5
17
102
{ACAD_REACTORS
330
C
102
}
330
C
100
AcDbDictionary
281
     1
  3
Standard
350
18
  0
DICTIONARY
  5
19
102
{ACAD_REACTORS
330
C
102
}
330
C
100
AcDbDictionary
281
     1
  0
ACDBDICTIONARYWDFLT
  5
E
102
{ACAD_REACTORS
330
C
102
}
330
C
100
AcDbDictionary
281
     1
  3
Normal
350
F
100
AcDbDictionaryWithDefault
340
F
  0
DICTIONARY
  5
47
102
{ACAD_REACTORS
330
C
102
}
330
C
100
AcDbDictionary
281
     1
  3
A0
350
48
  3
A1
350
49
  3
A2
350
4A
  3
A3
350
4B
  3
A4
350
4C
  3
A5
350
4D
  3
A6
350
4E
  3
A7
350
4F
  3
A8
350
50
  3
A9
350
51
  3
B0
350
52
  3
B1
350
53
  3
B2
350
54
  3
B3
350
55
  3
B4
350
56
  3
B5
350
57
  3
B6
350
58
  3
B7
350
59
  3
B8
350
5A
  3
B9
350
5B
  3
C0
350
5C
  3
C1
350
5D
  3
C2
350
5E
  3
C3
350
5F
  3
C4
350
60
  3
C5
350
61
  3
C6
350
62
  3
C7
350
63
  3
C8
350
64
  3
C9
350
65
  3
D0
350
66
  3
D1
350
67
  3
D2
350
68
  0
DICTIONARY
  5
31E
102
{ACAD_REACTORS
330
C
102
}
330
C
100
AcDbDictionary
281
     1
  0
DICTIONARY
  5
69
102
{ACAD_REACTORS
330
C
102
}
330
C
100
AcDbDictionary
281
     1
  3
Standard
350
6A
  0
DICTIONARY
  5
2A
102
{ACAD_REACTORS
330
C
102
}
330
C
100
AcDbDictionary
281
     1
  3
2dWireframe
350
2F
  3
Basic
350
32
  3
Brighten
350
36
  3
ColorChange
350
3A
  3
Conceptual
350
34
  3
Dim
350
35
  3
EdgeColorOff
350
3D
  3
Facepattern
350
39
  3
Flat
350
2B
  3
FlatWithEdges
350
2C
  3
Gouraud
350
2D
  3
GouraudWithEdges
350
2E
  3
Hidden
350
31
  3
JitterOff
350
3B
  3
Linepattern
350
38
  3
OverhangOff
350
3C
  3
Realistic
350
33
  3
Shaded
350
42
  3
Shaded with edges
350
41
  3
Shades of Gray
350
3E
  3
Sketchy
350
3F
  3
Thicken
350
37
  3
Wireframe
350
30
  3
X-Ray
350
40
  0
XRECORD
  5
31A
102
{ACAD_REACTORS
330
C
102
}
330
C
100
AcDbXrecord
280
     1
 90
        1
330
6A
  0
DICTIONARY
  5
2E2
102
{ACAD_REACTORS
330
C
102
}
330
C
100
AcDbDictionary
281
     1
  3
CANNOSCALE
350
2E3
  3
CMLEADERSTYLE
350
31C
  3
CTABLESTYLE
350
31B
  3
XCLIPFRAME
350
2E4
  0
LAYOUT
  5
1E
102
{ACAD_REACTORS
330
1A
102
}
330
1A
100
AcDbPlotSettings
  1

  2
none_device
  4

  6

 40
0.0
 41
0.0
 42
0.0
 43
0.0
 44
0.0
 45
0.0
 46
0.0
 47
0.0
 48
0.0
 49
0.0
140
0.0
141
0.0
142
1.0
143
1.0
 70
   688
 72
     0
 73
     0
 74
     5
  7

 75
    16
 76
     0
 77
     2
 78
   300
147
1.0
148
0.0
149
0.0
100
AcDbLayout
  1
Layout1
 70
     1
 71
     1
 10
0.0
 20
0.0
 11
12.0
 21
9.0
 12
0.0
 22
0.0
 32
0.0
 14
1.000000000000000E+20
 24
1.000000000000000E+20
 34
1.000000000000000E+20
 15
-1.000000000000000E+20
 25
-1.000000000000000E+20
 35
-1.000000000000000E+20
146
0.0
 13
0.0
 23
0.0
 33
0.0
 16
1.0
 26
0.0
 36
0.0
 17
0.0
 27
1.0
 37
0.0
 76
     0
330
1B
  0
LAYOUT
  5
26
102
{ACAD_REACTORS
330
1A
102
}
330
1A
100
AcDbPlotSettings
  1

  2
none_device
  4

  6

 40
0.0
 41
0.0
 42
0.0
 43
0.0
 44
0.0
 45
0.0
 46
0.0
 47
0.0
 48
0.0
 49
0.0
140
0.0
141
0.0
142
1.0
143
1.0
 70
   688
 72
     0
 73
     0
 74
     5
  7

 75
    16
 76
     0
 77
     2
 78
   300
147
1.0
148
0.0
149
0.0
100
AcDbLayout
  1
Layout2
 70
     1
 71
     2
 10
0.0
 20
0.0
 11
0.0
 21
0.0
 12
0.0
 22
0.0
 32
0.0
 14
0.0
 24
0.0
 34
0.0
 15
0.0
 25
0.0
 35
0.0
146
0.0
 13
0.0
 23
0.0
 33
0.0
 16
1.0
 26
0.0
 36
0.0
 17
0.0
 27
1.0
 37
0.0
 76
     0
330
23
  0
LAYOUT
  5
22
102
{ACAD_REACTORS
330
1A
102
}
330
1A
100
AcDbPlotSettings
  1

  2
none_device
  4
Letter_(8.50_x_11.00_Inches)
  6

 40
6.35
 41
6.35
 42
6.35000508
 43
6.35000508
 44
215.9
 45
279.4
 46
0.0
 47
0.0
 48
0.0
 49
0.0
140
0.0
141
0.0
142
1.0
143
1.0
 70
  1712
 72
     0
 73
     0
 74
     0
  7

 75
     0
 76
     0
 77
     2
 78
   300
147
1.0
148
0.0
149
0.0
100
AcDbLayout
  1
Model
 70
     1
 71
     0
 10
0.0
 20
0.0
 11
12.0
 21
9.0
 12
0.0
 22
0.0
 32
0.0
 14
1.000000000000000E+20
 24
1.000000000000000E+20
 34
1.000000000000000E+20
 15
-1.000000000000000E+20
 25
-1.000000000000000E+20
 35
-1.000000000000000E+20
146
0.0
 13
0.0
 23
0.0
 33
0.0
 16
1.0
 26
0.0
 36
0.0
 17
0.0
 27
1.0
 37
0.0
 76
     0
330
1F
331
29
  0
MATERIAL
  5
45
102
{ACAD_REACTORS
330
43
102
}
330
43
100
AcDbMaterial
  1
ByBlock
 72
     1
 94
      127
  0
MATERIAL
  5
44
102
{ACAD_REACTORS
330
43
102
}
330
43
100
AcDbMaterial
  1
ByLayer
 72
     1
 94
      127
  0
MATERIAL
  5
46
102
{ACAD_REACTORS
330
43
102
}
330
43
100
AcDbMaterial
  1
Global
 72
     1
 94
      127
  0
MLEADERSTYLE
  5
6C
102
{ACAD_REACTORS
330
6B
102
}
102
{ACAD_XDICTIONARY
360
318
102
}
330
6B
100
AcDbMLeaderStyle
170
     2
171
     1
172
     0
 90
        2
 40
0.0
 41
0.0
173
     1
 91
-1056964608
340
14
 92
       -2
290
     1
 42
0.09
291
     1
 43
0.36
  3
Standard
341
0
 44
0.18
300

342
11
174
     1
178
     6
175
     1
176
     0
 93
-1056964608
 45
0.18
292
     0
297
     0
 46
0.18
343
0
 94
-1056964608
 47
1.0
 49
1.0
140
1.0
293
     1
141
0.0
294
     1
177
     0
142
1.0
295
     0
296
     0
143
0.125
1001
ACAD_MLEADERVER
1070
     2
  0
MLINESTYLE
  5
18
102
{ACAD_REACTORS
330
17
102
}
330
17
100
AcDbMlineStyle
  2
Standard
 70
     0
  3

 62
   256
 51
90.0
 52
90.0
 71
     2
 49
0.5
 62
   256
  6
BYLAYER
 49
-0.5
 62
   256
  6
BYLAYER
  0
ACDBPLACEHOLDER
  5
F
102
{ACAD_REACTORS
330
E
102
}
330
E
  0
SCALE
  5
48
102
{ACAD_REACTORS
330
47
102
}
330
47
100
AcDbScale
 70
     0
300
1:1
140
1.0
141
1.0
290
     1
  0
SCALE
  5
49
102
{ACAD_REACTORS
330
47
102
}
330
47
100
AcDbScale
 70
     0
300
1:2
140
1.0
141
2.0
290
     0
  0
SCALE
  5
4A
102
{ACAD_REACTORS
330
47
102
}
330
47
100
AcDbScale
 70
     0
300
1:4
140
1.0
141
4.0
290
     0
  0
SCALE
  5
4B
102
{ACAD_REACTORS
330
47
102
}
330
47
100
AcDbScale
 70
     0
300
1:5
140
1.0
141
5.0
290
     0
  0
SCALE
  5
4C
102
{ACAD_REACTORS
330
47
102
}
330
47
100
AcDbScale
 70
     0
300
1:8
140
1.0
141
8.0
290
     0
  0
SCALE
  5
4D
102
{ACAD_REACTORS
330
47
102
}
330
47
100
AcDbScale
 70
     0
300
1:10
140
1.0
141
10.0
290
     0
  0
SCALE
  5
4E
102
{ACAD_REACTORS
330
47
102
}
330
47
100
AcDbScale
 70
     0
300
1:16
140
1.0
141
16.0
290
     0
  0
SCALE
  5
4F
102
{ACAD_REACTORS
330
47
102
}
330
47
100
AcDbScale
 70
     0
300
1:20
140
1.0
141
20.0
290
     0
  0
SCALE
  5
50
102
{ACAD_REACTORS
330
47
102
}
330
47
100
AcDbScale
 70
     0
300
1:30
140
1.0
141
30.0
290
     0
  0
SCALE
  5
51
102
{ACAD_REACTORS
330
47
102
}
330
47
100
AcDbScale
 70
     0
300
1:40
140
1.0
141
40.0
290
     0
  0
SCALE
  5
52
102
{ACAD_REACTORS
330
47
102
}
330
47
100
AcDbScale
 70
     0
300
1:50
140
1.0
141
50.0
290
     0
  0
SCALE
  5
53
102
{ACAD_REACTORS
330
47
102
}
330
47
100
AcDbScale
 70
     0
300
1:100
140
1.0
141
100.0
290
     0
  0
SCALE
  5
54
102
{ACAD_REACTORS
330
47
102
}
330
47
100
AcDbScale
 70
     0
300
2:1
140
2.0
141
1.0
290
     0
  0
SCALE
  5
55
102
{ACAD_REACTORS
330
47
102
}
330
47
100
AcDbScale
 70
     0
300
4:1
140
4.0
141
1.0
290
     0
  0
SCALE
  5
56
102
{ACAD_REACTORS
330
47
102
}
330
47
100
AcDbScale
 70
     0
300
8:1
140
8.0
141
1.0
290
     0
  0
SCALE
  5
57
102
{ACAD_REACTORS
330
47
102
}
330
47
100
AcDbScale
 70
     0
300
10:1
140
10.0
141
1.0
290
     0
  0
SCALE
  5
58
102
{ACAD_REACTORS
330
47
102
}
330
47
100
AcDbScale
 70
     0
300
100:1
140
100.0
141
1.0
290
     0
  0
SCALE
  5
59
102
{ACAD_REACTORS
330
47
102
}
330
47
100
AcDbScale
 70
     0
300
1/128" = 1'-0"
140
0.0078125
141
12.0
290
     0
  0
SCALE
  5
5A
102
{ACAD_REACTORS
330
47
102
}
330
47
100
AcDbScale
 70
     0
300
1/64" = 1'-0"
140
0.015625
141
12.0
290
     0
  0
SCALE
  5
5B
102
{ACAD_REACTORS
330
47
102
}
330
47
100
AcDbScale
 70
     0
300
1/32" = 1'-0"
140
0.03125
141
12.0
290
     0
  0
SCALE
  5
5C
102
{ACAD_REACTORS
330
47
102
}
330
47
100
AcDbScale
 70
     0
300
1/16" = 1'-0"
140
0.0625
141
12.0
290
     0
  0
SCALE
  5
5D
102
{ACAD_REACTORS
330
47
102
}
330
47
100
AcDbScale
 70
     0
300
3/32" = 1'-0"
140
0.09375
141
12.0
290
     0
  0
SCALE
  5
5E
102
{ACAD_REACTORS
330
47
102
}
330
47
100
AcDbScale
 70
     0
300
1/8" = 1'-0"
140
0.125
141
12.0
290
     0
  0
SCALE
  5
5F
102
{ACAD_REACTORS
330
47
102
}
330
47
100
AcDbScale
 70
     0
300
3/16" = 1'-0"
140
0.1875
141
12.0
290
     0
  0
SCALE
  5
60
102
{ACAD_REACTORS
330
47
102
}
330
47
100
AcDbScale
 70
     0
300
1/4" = 1'-0"
140
0.25
141
12.0
290
     0
  0
SCALE
  5
61
102
{ACAD_REACTORS
330
47
102
}
330
47
100
AcDbScale
 70
     0
300
3/8" = 1'-0"
140
0.375
141
12.0
290
     0
  0
SCALE
  5
62
102
{ACAD_REACTORS
330
47
102
}
330
47
100
AcDbScale
 70
     0
300
1/2" = 1'-0"
140
0.5
141
12.0
290
     0
  0
SCALE
  5
63
102
{ACAD_REACTORS
330
47
102
}
330
47
100
AcDbScale
 70
     0
300
3/4" = 1'-0"
140
0.75
141
12.0
290
     0
  0
SCALE
  5
64
102
{ACAD_REACTORS
330
47
102
}
330
47
100
AcDbScale
 70
     0
300
1" = 1'-0"
140
1.0
141
12.0
290
     0
  0
SCALE
  5
65
102
{ACAD_REACTORS
330
47
102
}
330
47
100
AcDbScale
 70
     0
300
1-1/2" = 1'-0"
140
1.5
141
12.0
290
     0
  0
SCALE
  5
66
102
{ACAD_REACTORS
330
47
102
}
330
47
100
AcDbScale
 70
     0
300
3" = 1'-0"
140
3.0
141
12.0
290
     0
  0
SCALE
  5
67
102
{ACAD_REACTORS
330
47
102
}
330
47
100
AcDbScale
 70
     0
300
6" = 1'-0"
140
6.0
141
12.0
290
     0
  0
SCALE
  5
68
102
{ACAD_REACTORS
330
47
102
}
330
47
100
AcDbScale
 70
     0
300
1'-0" = 1'-0"
140
12.0
141
12.0
290
     0
  0
TABLESTYLE
  5
6A
102
{ACAD_REACTORS
330
69
102
}
102
{ACAD_XDICTIONARY
360
315
102
}
330
69
100
AcDbTableStyle
  3
Standard
 70
     0
 71
     0
 40
0.06
 41
0.06
280
     0
281
     0
  7
Standard
140
0.18
170
     2
 62
     0
 63
   257
283
     0
 90
        4
 91
        0
  1

274
    -2
284
     1
 64
     0
275
    -2
285
     1
 65
     0
276
    -2
286
     1
 66
     0
277
    -2
287
     1
 67
     0
278
    -2
288
     1
 68
     0
279
    -2
289
     1
 69
     0
  7
Standard
140
0.25
170
     5
 62
     0
 63
   257
283
     0
 90
        4
 91
        0
  1

274
    -2
284
     1
 64
     0
275
    -2
285
     1
 65
     0
276
    -2
286
     1
 66
     0
277
    -2
287
     1
 67
     0
278
    -2
288
     1
 68
     0
279
    -2
289
     1
 69
     0
  7
Standard
140
0.18
170
     5
 62
     0
 63
   257
283
     0
 90
        4
 91
        0
  1

274
    -2
284
     1
 64
     0
275
    -2
285
     1
 65
     0
276
    -2
286
     1
 66
     0
277
    -2
287
     1
 67
     0
278
    -2
288
     1
 68
     0
279
    -2
289
     1
 69
     0
  0
VISUALSTYLE
  5
2F
102
{ACAD_REACTORS
330
2A
102
}
102
{ACAD_XDICTIONARY
360
2ED
102
}
330
2A
100
AcDbVisualStyle
  2
2dWireframe
 70
     4
 71
     0
 72
     2
 73
     0
 90
        0
 40
0.6
 41
30.0
 62
     5
 63
     7
421
 16777215
 74
     1
 91
        4
 64
     7
 65
   257
 75
     1
175
     1
 42
1.0
 92
        0
 66
   257
 43
1.0
 76
     1
 77
     6
 78
     2
 67
     7
 79
     5
170
     0
171
     0
290
     0
174
     0
 93
        1
 44
0.0
173
     0
291
     0
 45
0.0
  0
VISUALSTYLE
  5
32
102
{ACAD_REACTORS
330
2A
102
}
102
{ACAD_XDICTIONARY
360
2F3
102
}
330
2A
100
AcDbVisualStyle
  2
Basic
 70
     7
 71
     1
 72
     0
 73
     1
 90
        0
 40
0.6
 41
30.0
 62
     5
 63
     7
421
 16777215
 74
     0
 91
        4
 64
     7
 65
   257
 75
     1
175
     1
 42
1.0
 92
        8
 66
     7
 43
1.0
 76
     1
 77
     6
 78
     2
 67
     7
 79
     5
170
     0
171
     0
290
     0
174
     0
 93
        1
 44
0.0
173
     0
291
     1
 45
0.0
  0
VISUALSTYLE
  5
36
102
{ACAD_REACTORS
330
2A
102
}
102
{ACAD_XDICTIONARY
360
2FB
102
}
330
2A
100
AcDbVisualStyle
  2
Brighten
 70
    12
 71
     2
 72
     2
 73
     0
 90
        0
 40
0.6
 41
30.0
 62
     5
 63
     7
421
 16777215
 74
     1
 91
        4
 64
     7
 65
   257
 75
     1
175
     1
 42
1.0
 92
        8
 66
     7
 43
1.0
 76
     1
 77
     6
 78
     2
 67
     7
 79
     5
170
     0
171
     0
290
     0
174
     0
 93
        1
 44
50.0
173
     0
291
     1
 45
0.0
  0
VISUALSTYLE
  5
3A
102
{ACAD_REACTORS
330
2A
102
}
102
{ACAD_XDICTIONARY
360
303
102
}
330
2A
100
AcDbVisualStyle
  2
ColorChange
 70
    16
 71
     2
 72
     2
 73
     3
 90
        0
 40
0.6
 41
30.0
 62
     5
 63
     8
421
  8421504
 74
     1
 91
        4
 64
     7
 65
   257
 75
     1
175
     1
 42
1.0
 92
        8
 66
     8
424
  8421504
 43
1.0
 76
     1
 77
     6
 78
     2
 67
     7
 79
     5
170
     0
171
     0
290
     0
174
     0
 93
        1
 44
0.0
173
     0
291
     1
 45
0.0
  0
VISUALSTYLE
  5
34
102
{ACAD_REACTORS
330
2A
102
}
102
{ACAD_XDICTIONARY
360
2F7
102
}
330
2A
100
AcDbVisualStyle
  2
Conceptual
 70
     9
 71
     3
 72
     2
 73
     0
 90
        0
 40
0.6
 41
30.0
 62
     5
 63
     7
421
 16777215
 74
     2
 91
        2
 64
     7
 65
   257
 75
     1
175
     1
 42
179.0
 92
        8
 66
     7
 43
1.0
 76
     1
 77
     6
 78
     2
 67
     7
 79
     3
170
     0
171
     0
290
     0
174
     0
 93
        1
 44
0.0
173
     0
291
     0
 45
0.0
  0
VISUALSTYLE
  5
35
102
{ACAD_REACTORS
330
2A
102
}
102
{ACAD_XDICTIONARY
360
2F9
102
}
330
2A
100
AcDbVisualStyle
  2
Dim
 70
    11
 71
     2
 72
     2
 73
     0
 90
        0
 40
0.6
 41
30.0
 62
     5
 63
     7
421
 16777215
 74
     1
 91
        4
 64
     7
 65
   257
 75
     1
175
     1
 42
1.0
 92
        8
 66
     7
 43
1.0
 76
     1
 77
     6
 78
     2
 67
     7
 79
     5
170
     0
171
     0
290
     0
174
     0
 93
        1
 44
-50.0
173
     0
291
     1
 45
0.0
  0
VISUALSTYLE
  5
3D
102
{ACAD_REACTORS
330
2A
102
}
102
{ACAD_XDICTIONARY
360
309
102
}
330
2A
100
AcDbVisualStyle
  2
EdgeColorOff
 70
    22
 71
     2
 72
     2
 73
     0
 90
        0
 40
0.6
 41
30.0
 62
     5
 63
     7
421
 16777215
 74
     1
 91
        4
 64
     7
 65
   257
 75
     1
175
     1
 42
1.0
 92
        8
 66
     7
 43
1.0
 76
     1
 77
     6
 78
     2
 67
     7
 79
     5
170
     0
171
     0
290
     0
174
     0
 93
        1
 44
0.0
173
     0
291
     1
 45
0.0
  0
VISUALSTYLE
  5
39
102
{ACAD_REACTORS
330
2A
102
}
102
{ACAD_XDICTIONARY
360
301
102
}
330
2A
100
AcDbVisualStyle
  2
Facepattern
 70
    15
 71
     2
 72
     2
 73
     0
 90
        0
 40
0.6
 41
30.0
 62
     5
 63
     7
421
 16777215
 74
     1
 91
        4
 64
     7
 65
   257
 75
     1
175
     1
 42
1.0
 92
        8
 66
     7
 43
1.0
 76
     1
 77
     6
 78
     2
 67
     7
 79
     5
170
     0
171
     0
290
     0
174
     0
 93
        1
 44
0.0
173
     0
291
     1
 45
0.0
  0
VISUALSTYLE
  5
2B
102
{ACAD_REACTORS
330
2A
102
}
102
{ACAD_XDICTIONARY
360
2E5
102
}
330
2A
100
AcDbVisualStyle
  2
Flat
 70
     0
 71
     2
 72
     1
 73
     1
 90
        2
 40
0.6
 41
30.0
 62
     5
 63
     7
421
 16777215
 74
     0
 91
        0
 64
     7
 65
   257
 75
     1
175
     1
 42
1.0
 92
        8
 66
     7
 43
1.0
 76
     1
 77
     6
 78
     2
 67
     7
 79
     5
170
     0
171
     0
290
     0
174
     0
 93
       13
 44
0.0
173
     0
291
     1
 45
0.0
  0
VISUALSTYLE
  5
2C
102
{ACAD_REACTORS
330
2A
102
}
102
{ACAD_XDICTIONARY
360
2E7
102
}
330
2A
100
AcDbVisualStyle
  2
FlatWithEdges
 70
     1
 71
     2
 72
     1
 73
     1
 90
        2
 40
0.6
 41
30.0
 62
     5
 63
     7
421
 16777215
 74
     1
 91
        0
 64
     7
 65
   257
 75
     1
175
     1
 42
1.0
 92
        0
 66
   257
 43
1.0
 76
     1
 77
     6
 78
     2
 67
     7
 79
     5
170
     0
171
     0
290
     0
174
     0
 93
       13
 44
0.0
173
     0
291
     1
 45
0.0
  0
VISUALSTYLE
  5
2D
102
{ACAD_REACTORS
330
2A
102
}
102
{ACAD_XDICTIONARY
360
2E9
102
}
330
2A
100
AcDbVisualStyle
  2
Gouraud
 70
     2
 71
     2
 72
     2
 73
     1
 90
        2
 40
0.6
 41
30.0
 62
     5
 63
     7
421
 16777215
 74
     0
 91
        0
 64
     7
 65
   257
 75
     1
175
     1
 42
1.0
 92
        0
 66
     7
 43
1.0
 76
     1
 77
     6
 78
     2
 67
     7
 79
     5
170
     0
171
     0
290
     0
174
     0
 93
       13
 44
0.0
173
     0
291
     1
 45
0.0
  0
VISUALSTYLE
  5
2E
102
{ACAD_REACTORS
330
2A
102
}
102
{ACAD_XDICTIONARY
360
2EB
102
}
330
2A
100
AcDbVisualStyle
  2
GouraudWithEdges
 70
     3
 71
     2
 72
     2
 73
     1
 90
        2
 40
0.6
 41
30.0
 62
     5
 63
     7
421
 16777215
 74
     1
 91
        0
 64
     7
 65
   257
 75
     1
175
     1
 42
1.0
 92
        0
 66
   257
 43
1.0
 76
     1
 77
     6
 78
     2
 67
     7
 79
     5
170
     0
171
     0
290
     0
174
     0
 93
       13
 44
0.0
173
     0
291
     1
 45
0.0
  0
VISUALSTYLE
  5
31
102
{ACAD_REACTORS
330
2A
102
}
102
{ACAD_XDICTIONARY
360
2F1
102
}
330
2A
100
AcDbVisualStyle
  2
Hidden
 70
     6
 71
     1
 72
     2
 73
     2
 90
        0
 40
0.6
 41
30.0
 62
     5
 63
     7
421
 16777215
 74
     2
 91
        2
 64
     7
 65
   257
 75
     2
175
     1
 42
40.0
 92
        0
 66
   257
 43
1.0
 76
     1
 77
     6
 78
     2
 67
     7
 79
     3
170
     0
171
     0
290
     0
174
     0
 93
        1
 44
0.0
173
     0
291
     0
 45
0.0
  0
VISUALSTYLE
  5
3B
102
{ACAD_REACTORS
330
2A
102
}
102
{ACAD_XDICTIONARY
360
305
102
}
330
2A
100
AcDbVisualStyle
  2
JitterOff
 70
    20
 71
     2
 72
     2
 73
     0
 90
        0
 40
0.6
 41
30.0
 62
     5
 63
     7
421
 16777215
 74
     1
 91
        4
 64
     7
 65
   257
 75
     1
175
     1
 42
1.0
 92
       10
 66
     7
 43
1.0
 76
     1
 77
     6
 78
     2
 67
     7
 79
     5
170
     0
171
     0
290
     0
174
     0
 93
        1
 44
0.0
173
     0
291
     1
 45
0.0
  0
VISUALSTYLE
  5
38
102
{ACAD_REACTORS
330
2A
102
}
102
{ACAD_XDICTIONARY
360
2FF
102
}
330
2A
100
AcDbVisualStyle
  2
Linepattern
 70
    14
 71
     2
 72
     2
 73
     0
 90
        0
 40
0.6
 41
30.0
 62
     5
 63
     7
421
 16777215
 74
     1
 91
        4
 64
     7
 65
   257
 75
     7
175
     7
 42
1.0
 92
        8
 66
     7
 43
1.0
 76
     1
 77
     6
 78
     2
 67
     7
 79
     5
170
     0
171
     0
290
     0
174
     0
 93
        1
 44
0.0
173
     0
291
     1
 45
0.0
  0
VISUALSTYLE
  5
3C
102
{ACAD_REACTORS
330
2A
102
}
102
{ACAD_XDICTIONARY
360
307
102
}
330
2A
100
AcDbVisualStyle
  2
OverhangOff
 70
    21
 71
     2
 72
     2
 73
     0
 90
        0
 40
0.6
 41
30.0
 62
     5
 63
     7
421
 16777215
 74
     1
 91
        4
 64
     7
 65
   257
 75
     1
175
     1
 42
1.0
 92
        9
 66
     7
 43
1.0
 76
     1
 77
     6
 78
     2
 67
     7
 79
     5
170
     0
171
     0
290
     0
174
     0
 93
        1
 44
0.0
173
     0
291
     1
 45
0.0
  0
VISUALSTYLE
  5
33
102
{ACAD_REACTORS
330
2A
102
}
102
{ACAD_XDICTIONARY
360
2F5
102
}
330
2A
100
AcDbVisualStyle
  2
Realistic
 70
     8
 71
     2
 72
     3
 73
     0
 90
        2
 40
0.6
 41
30.0
 62
     5
 63
     7
421
 16777215
 74
     0
 91
        0
 64
     7
 65
   257
 75
     1
175
     1
 42
1.0
 92
        8
 66
   257
 43
1.0
 76
     1
 77
     6
 78
     2
 67
     7
 79
     3
170
     0
171
     0
290
     0
174
     0
 93
       13
 44
0.0
173
     0
291
     0
 45
0.0
  0
VISUALSTYLE
  5
42
102
{ACAD_REACTORS
330
2A
102
}
102
{ACAD_XDICTIONARY
360
313
102
}
330
2A
100
AcDbVisualStyle
  2
Shaded
 70
    27
 71
     2
 72
     2
 73
     1
 90
        2
 40
0.6
 41
30.0
 62
     5
 63
     7
421
 16777215
 74
     0
 91
        4
 64
     7
 65
   257
 75
     1
175
     1
 42
1.0
 92
        8
 66
   257
 43
1.0
 76
     1
 77
     6
 78
     2
 67
     8
425
  7895160
 79
     3
170
     0
171
     0
290
     0
174
     0
 93
        5
 44
0.0
173
     0
291
     0
 45
0.0
  0
VISUALSTYLE
  5
41
102
{ACAD_REACTORS
330
2A
102
}
102
{ACAD_XDICTIONARY
360
311
102
}
330
2A
100
AcDbVisualStyle
  2
Shaded with edges
 70
    26
 71
     2
 72
     2
 73
     1
 90
        2
 40
0.6
 41
30.0
 62
     5
 63
     7
421
 16777215
 74
     1
 91
       10
 64
     7
 65
   257
 75
     2
175
     1
 42
1.0
 92
        8
 66
   257
 43
1.0
 76
     1
 77
     6
 78
     2
 67
     7
 79
     3
170
     0
171
     0
290
     0
174
     0
 93
        5
 44
0.0
173
     0
291
     0
 45
0.0
  0
VISUALSTYLE
  5
3E
102
{ACAD_REACTORS
330
2A
102
}
102
{ACAD_XDICTIONARY
360
30B
102
}
330
2A
100
AcDbVisualStyle
  2
Shades of Gray
 70
    23
 71
     2
 72
     2
 73
     3
 90
        0
 40
0.6
 41
30.0
 62
     5
 63
     7
421
 16777215
 74
     2
 91
        2
 64
     7
 65
     7
 75
     1
175
     1
 42
40.0
 92
        8
 66
     7
 43
1.0
 76
     1
 77
     6
 78
     2
 67
     7
 79
     3
170
     0
171
     0
290
     0
174
     0
 93
        1
 44
0.0
173
     0
291
     0
 45
0.0
  0
VISUALSTYLE
  5
3F
102
{ACAD_REACTORS
330
2A
102
}
102
{ACAD_XDICTIONARY
360
30D
102
}
330
2A
100
AcDbVisualStyle
  2
Sketchy
 70
    24
 71
     1
 72
     2
 73
     2
 90
        0
 40
0.6
 41
30.0
 62
     5
 63
     7
421
 16777215
 74
     2
 91
        2
 64
     7
 65
     7
 75
     1
175
     1
 42
40.0
 92
       11
 66
     7
 43
1.0
 76
     1
 77
     6
 78
     2
 67
     7
 79
     6
170
     0
171
     0
290
     0
174
     0
 93
        1
 44
0.0
173
     0
291
     0
 45
0.0
  0
VISUALSTYLE
  5
37
102
{ACAD_REACTORS
330
2A
102
}
102
{ACAD_XDICTIONARY
360
2FD
102
}
330
2A
100
AcDbVisualStyle
  2
Thicken
 70
    13
 71
     2
 72
     2
 73
     0
 90
        0
 40
0.6
 41
30.0
 62
     5
 63
     7
421
 16777215
 74
     1
 91
        4
 64
     7
 65
   257
 75
     1
175
     1
 42
1.0
 92
       12
 66
     7
 43
1.0
 76
     1
 77
     6
 78
     2
 67
     7
 79
     5
170
     0
171
     0
290
     0
174
     0
 93
        1
 44
0.0
173
     0
291
     1
 45
0.0
  0
VISUALSTYLE
  5
30
102
{ACAD_REACTORS
330
2A
102
}
102
{ACAD_XDICTIONARY
360
2EF
102
}
330
2A
100
AcDbVisualStyle
  2
Wireframe
 70
     5
 71
     0
 72
     2
 73
     0
 90
        0
 40
0.6
 41
30.0
 62
     5
 63
     7
421
 16777215
 74
     1
 91
        4
 64
     7
 65
   257
 75
     1
175
     1
 42
1.0
 92
        0
 66
   257
 43
1.0
 76
     1
 77
     6
 78
     2
 67
     7
 79
     3
170
     0
171
     0
290
     0
174
     0
 93
        1
 44
0.0
173
     0
291
     0
 45
0.0
  0
VISUALSTYLE
  5
40
102
{ACAD_REACTORS
330
2A
102
}
102
{ACAD_XDICTIONARY
360
30F
102
}
330
2A
100
AcDbVisualStyle
  2
X-Ray
 70
    25
 71
     2
 72
     2
 73
     1
 90
        1
 40
0.5
 41
30.0
 62
     5
 63
     7
421
 16777215
 74
     1
 91
        0
 64
     7
 65
   257
 75
     1
175
     1
 42
1.0
 92
        8
 66
     7
 43
1.0
 76
     1
 77
     6
 78
     2
 67
     7
 79
     3
170
     0
171
     0
290
     0
174
     0
 93
       13
 44
0.0
173
     0
291
     0
 45
0.0
  0
DICTIONARYVAR
  5
2E3
102
{ACAD_REACTORS
330
2E2
102
}
330
2E2
100
DictionaryVariables
280
     0
  1
1:1
  0
DICTIONARYVAR
  5
31C
102
{ACAD_REACTORS
330
2E2
102
}
330
2E2
100
DictionaryVariables
280
     0
  1
Standard
  0
DICTIONARYVAR
  5
31B
102
{ACAD_REACTORS
330
2E2
102
}
330
2E2
100
DictionaryVariables
280
     0
  1
Standard
  0
DICTIONARYVAR
  5
2E4
102
{ACAD_REACTORS
330
2E2
102
}
330
2E2
100
DictionaryVariables
280
     0
  1
2
  0
DICTIONARY
  5
318
330
6C
100
AcDbDictionary
280
     1
281
     1
  3
ACAD_XREC_ROUNDTRIP
360
319
  0
DICTIONARY
  5
315
330
6A
100
AcDbDictionary
280
     1
281
     1
  3
ACAD_ROUNDTRIP_2008_TABLESTYLE_CELLSTYLEMAP
360
316
  0
DICTIONARY
  5
2ED
330
2F
100
AcDbDictionary
280
     1
281
     1
  3
ACAD_XREC_ROUNDTRIP
360
2EE
  0
DICTIONARY
  5
2F3
330
32
100
AcDbDictionary
280
     1
281
     1
  3
ACAD_XREC_ROUNDTRIP
360
2F4
  0
DICTIONARY
  5
2FB
330
36
100
AcDbDictionary
280
     1
281
     1
  3
ACAD_XREC_ROUNDTRIP
360
2FC
  0
DICTIONARY
  5
303
330
3A
100
AcDbDictionary
280
     1
281
     1
  3
ACAD_XREC_ROUNDTRIP
360
304
  0
DICTIONARY
  5
2F7
330
34
100
AcDbDictionary
280
     1
281
     1
  3
ACAD_XREC_ROUNDTRIP
360
2F8
  0
DICTIONARY
  5
2F9
330
35
100
AcDbDictionary
280
     1
281
     1
  3
ACAD_XREC_ROUNDTRIP
360
2FA
  0
DICTIONARY
  5
309
330
3D
100
AcDbDictionary
280
     1
281
     1
  3
ACAD_XREC_ROUNDTRIP
360
30A
  0
DICTIONARY
  5
301
330
39
100
AcDbDictionary
280
     1
281
     1
  3
ACAD_XREC_ROUNDTRIP
360
302
  0
DICTIONARY
  5
2E5
330
2B
100
AcDbDictionary
280
     1
281
     1
  3
ACAD_XREC_ROUNDTRIP
360
2E6
  0
DICTIONARY
  5
2E7
330
2C
100
AcDbDictionary
280
     1
281
     1
  3
ACAD_XREC_ROUNDTRIP
360
2E8
  0
DICTIONARY
  5
2E9
330
2D
100
AcDbDictionary
280
     1
281
     1
  3
ACAD_XREC_ROUNDTRIP
360
2EA
  0
DICTIONARY
  5
2EB
330
2E
100
AcDbDictionary
280
     1
281
     1
  3
ACAD_XREC_ROUNDTRIP
360
2EC
  0
DICTIONARY
  5
2F1
330
31
100
AcDbDictionary
280
     1
281
     1
  3
ACAD_XREC_ROUNDTRIP
360
2F2
  0
DICTIONARY
  5
305
330
3B
100
AcDbDictionary
280
     1
281
     1
  3
ACAD_XREC_ROUNDTRIP
360
306
  0
DICTIONARY
  5
2FF
330
38
100
AcDbDictionary
280
     1
281
     1
  3
ACAD_XREC_ROUNDTRIP
360
300
  0
DICTIONARY
  5
307
330
3C
100
AcDbDictionary
280
     1
281
     1
  3
ACAD_XREC_ROUNDTRIP
360
308
  0
DICTIONARY
  5
2F5
330
33
100
AcDbDictionary
280
     1
281
     1
  3
ACAD_XREC_ROUNDTRIP
360
2F6
  0
DICTIONARY
  5
313
330
42
100
AcDbDictionary
280
     1
281
     1
  3
ACAD_XREC_ROUNDTRIP
360
314
  0
DICTIONARY
  5
311
330
41
100
AcDbDictionary
280
     1
281
     1
  3
ACAD_XREC_ROUNDTRIP
360
312
  0
DICTIONARY
  5
30B
330
3E
100
AcDbDictionary
280
     1
281
     1
  3
ACAD_XREC_ROUNDTRIP
360
30C
  0
DICTIONARY
  5
30D
330
3F
100
AcDbDictionary
280
     1
281
     1
  3
ACAD_XREC_ROUNDTRIP
360
30E
  0
DICTIONARY
  5
2FD
330
37
100
AcDbDictionary
280
     1
281
     1
  3
ACAD_XREC_ROUNDTRIP
360
2FE
  0
DICTIONARY
  5
2EF
330
30
100
AcDbDictionary
280
     1
281
     1
  3
ACAD_XREC_ROUNDTRIP
360
2F0
  0
DICTIONARY
  5
30F
330
40
100
AcDbDictionary
280
     1
281
     1
  3
ACAD_XREC_ROUNDTRIP
360
310
  0
XRECORD
  5
319
102
{ACAD_REACTORS
330
318
102
}
330
318
100
AcDbXrecord
280
     1
102
ACAD_ROUNDTRIP_2010_MLEADER_STYLE
  0
CELLSTYLEMAP
  5
316
102
{ACAD_REACTORS
330
315
102
}
330
315
100
AcDbCellStyleMap
 90
        3
300
CELLSTYLE
  1
TABLEFORMAT_BEGIN
 90
        5
170
     1
 91
        0
 92
    32768
 62
   257
 93
        1
300
CONTENTFORMAT
  1
CONTENTFORMAT_BEGIN
 90
        0
 91
        0
 92
        4
 93
        0
300

 40
0.0
140
1.0
 94
        5
 62
     0
340
11
144
0.25
309
CONTENTFORMAT_END
171
     1
301
MARGIN
  1
CELLMARGIN_BEGIN
 40
0.06
 40
0.06
 40
0.06
 40
0.06
 40
0.06
 40
0.06
309
CELLMARGIN_END
 94
        6
 95
        1
302
GRIDFORMAT
  1
GRIDFORMAT_BEGIN
 90
        0
 91
        1
 62
     0
 92
       -2
340
14
 93
        0
 40
0.045
309
GRIDFORMAT_END
 95
        2
302
GRIDFORMAT
  1
GRIDFORMAT_BEGIN
 90
        0
 91
        1
 62
     0
 92
       -2
340
14
 93
        0
 40
0.045
309
GRIDFORMAT_END
 95
        4
302
GRIDFORMAT
  1
GRIDFORMAT_BEGIN
 90
        0
 91
        1
 62
     0
 92
       -2
340
14
 93
        0
 40
0.045
309
GRIDFORMAT_END
 95
        8
302
GRIDFORMAT
  1
GRIDFORMAT_BEGIN
 90
        0
 91
        1
 62
     0
 92
       -2
340
14
 93
        0
 40
0.045
309
GRIDFORMAT_END
 95
       16
302
GRIDFORMAT
  1
GRIDFORMAT_BEGIN
 90
        0
 91
        1
 62
     0
 92
       -2
340
14
 93
        0
 40
0.045
309
GRIDFORMAT_END
 95
       32
302
GRIDFORMAT
  1
GRIDFORMAT_BEGIN
 90
        0
 91
        1
 62
     0
 92
       -2
340
14
 93
        0
 40
0.045
309
GRIDFORMAT_END
309
TABLEFORMAT_END
  1
CELLSTYLE_BEGIN
 90
        1
 91
        1
300
_TITLE
309
CELLSTYLE_END
300
CELLSTYLE
  1
TABLEFORMAT_BEGIN
 90
        5
170
     1
 91
        0
 92
        0
 62
   257
 93
        1
300
CONTENTFORMAT
  1
CONTENTFORMAT_BEGIN
 90
        0
 91
        0
 92
        4
 93
        0
300

 40
0.0
140
1.0
 94
        5
 62
     0
340
11
144
0.18
309
CONTENTFORMAT_END
171
     1
301
MARGIN
  1
CELLMARGIN_BEGIN
 40
0.06
 40
0.06
 40
0.06
 40
0.06
 40
0.06
 40
0.06
309
CELLMARGIN_END
 94
        6
 95
        1
302
GRIDFORMAT
  1
GRIDFORMAT_BEGIN
 90
        0
 91
        1
 62
     0
 92
       -2
340
14
 93
        0
 40
0.045
309
GRIDFORMAT_END
 95
        2
302
GRIDFORMAT
  1
GRIDFORMAT_BEGIN
 90
        0
 91
        1
 62
     0
 92
       -2
340
14
 93
        0
 40
0.045
309
GRIDFORMAT_END
 95
        4
302
GRIDFORMAT
  1
GRIDFORMAT_BEGIN
 90
        0
 91
        1
 62
     0
 92
       -2
340
14
 93
        0
 40
0.045
309
GRIDFORMAT_END
 95
        8
302
GRIDFORMAT
  1
GRIDFORMAT_BEGIN
 90
        0
 91
        1
 62
     0
 92
       -2
340
14
 93
        0
 40
0.045
309
GRIDFORMAT_END
 95
       16
302
GRIDFORMAT
  1
GRIDFORMAT_BEGIN
 90
        0
 91
        1
 62
     0
 92
       -2
340
14
 93
        0
 40
0.045
309
GRIDFORMAT_END
 95
       32
302
GRIDFORMAT
  1
GRIDFORMAT_BEGIN
 90
        0
 91
        1
 62
     0
 92
       -2
340
14
 93
        0
 40
0.045
309
GRIDFORMAT_END
309
TABLEFORMAT_END
  1
CELLSTYLE_BEGIN
 90
        2
 91
        1
300
_HEADER
309
CELLSTYLE_END
300
CELLSTYLE
  1
TABLEFORMAT_BEGIN
 90
        5
170
     1
 91
        0
 92
        0
 62
   257
 93
        1
300
CONTENTFORMAT
  1
CONTENTFORMAT_BEGIN
 90
        0
 91
        0
 92
        4
 93
        0
300

 40
0.0
140
1.0
 94
        2
 62
     0
340
11
144
0.18
309
CONTENTFORMAT_END
171
     1
301
MARGIN
  1
CELLMARGIN_BEGIN
 40
0.06
 40
0.06
 40
0.06
 40
0.06
 40
0.06
 40
0.06
309
CELLMARGIN_END
 94
        6
 95
        1
302
GRIDFORMAT
  1
GRIDFORMAT_BEGIN
 90
        0
 91
        1
 62
     0
 92
       -2
340
14
 93
        0
 40
0.045
309
GRIDFORMAT_END
 95
        2
302
GRIDFORMAT
  1
GRIDFORMAT_BEGIN
 90
        0
 91
        1
 62
     0
 92
       -2
340
14
 93
        0
 40
0.045
309
GRIDFORMAT_END
 95
        4
302
GRIDFORMAT
  1
GRIDFORMAT_BEGIN
 90
        0
 91
        1
 62
     0
 92
       -2
340
14
 93
        0
 40
0.045
309
GRIDFORMAT_END
 95
        8
302
GRIDFORMAT
  1
GRIDFORMAT_BEGIN
 90
        0
 91
        1
 62
     0
 92
       -2
340
14
 93
        0
 40
0.045
309
GRIDFORMAT_END
 95
       16
302
GRIDFORMAT
  1
GRIDFORMAT_BEGIN
 90
        0
 91
        1
 62
     0
 92
       -2
340
14
 93
        0
 40
0.045
309
GRIDFORMAT_END
 95
       32
302
GRIDFORMAT
  1
GRIDFORMAT_BEGIN
 90
        0
 91
        1
 62
     0
 92
       -2
340
14
 93
        0
 40
0.045
309
GRIDFORMAT_END
309
TABLEFORMAT_END
  1
CELLSTYLE_BEGIN
 90
        3
 91
        2
300
_DATA
309
CELLSTYLE_END
  0
XRECORD
  5
2EE
102
{ACAD_REACTORS
330
2ED
102
}
330
2ED
100
AcDbXrecord
280
     1
102
RTVSPropertyOp0
 70
     1
102
RTVSPropertyOp1
 70
     1
102
RTVSPropertyOp2
 70
     1
102
RTVSPropertyOp3
 70
     1
102
RTVSPropertyOp4
 70
     1
102
RTVSPropertyOp5
 70
     1
102
RTVSPropertyOp6
 70
     1
102
RTVSPropertyOp7
 70
     1
102
RTVSPropertyOp8
 70
     1
102
RTVSPropertyOp9
 70
     1
102
RTVSPropertyOp10
 70
     1
102
RTVSPropertyOp11
 70
     1
102
RTVSPropertyOp12
 70
     1
102
RTVSPropertyOp13
 70
     1
102
RTVSPropertyOp14
 70
     1
102
RTVSPropertyOp15
 70
     1
102
RTVSPropertyOp16
 70
     1
102
RTVSPropertyOp17
 70
     1
102
RTVSPropertyOp18
 70
     1
102
RTVSPropertyOp19
 70
     1
102
RTVSPropertyOp20
 70
     1
102
RTVSPropertyOp21
 70
     1
102
RTVSPropertyOp22
 70
     1
102
RTVSPropertyOp23
 70
     1
102
RTVSPropertyOp24
 70
     1
102
RTVSPropertyOp25
 70
     1
102
RTVSPropertyOp26
 70
     1
102
RTVSPropertyOp27
 70
     1
102
RTVSPropertyOp28
 70
     1
102
RTVSPropertyOp29
 70
     1
102
RTVSPropertyOp30
 70
     1
102
RTVSPropertyOp31
 70
     1
102
RTVSPropertyOp32
 70
     1
102
RTVSPropertyOp33
 70
     1
102
RTVSPropertyOp34
 70
     1
102
RTVSPropertyOp35
 70
     1
102
RTVSPropertyOp36
 70
     1
102
RTVSPropertyOp37
 70
     1
102
RTVSPropertyOp38
 70
     1
102
RTVSPropertyOp39
 70
     1
102
RTVSPropertyOp40
 70
     1
102
RTVSPropertyOp41
 70
     1
102
RTVSPropertyOp42
 70
     1
102
RTVSPropertyOp43
 70
     1
102
RTVSPropertyOp44
 70
     1
102
RTVSPropertyOp45
 70
     1
102
RTVSPropertyOp46
 70
     1
102
RTVSPropertyOp47
 70
     1
102
RTVSPropertyOp48
 70
     1
102
RTVSPropertyOp49
 70
     1
102
RTVSPropertyOp50
 70
     1
102
RTVSPropertyOp51
 70
     0
102
RTVSPropertyOp52
 70
     0
102
RTVSPropertyOp53
 70
     1
102
RTVSPropertyOp54
 70
     1
102
RTVSPropertyOp55
 70
     1
102
RTVSPropertyOp56
 70
     1
102
RTVSPropertyOp57
 70
     1
102
RTVSPost2010Prop28
280
     1
102
RTVSPost2010PropOp28
 70
     1
102
RTVSPost2010Prop29
280
     1
102
RTVSPost2010PropOp29
 70
     1
102
RTVSPost2010Prop30
280
     0
102
RTVSPost2010PropOp30
 70
     1
102
RTVSPost2010Prop31
280
     0
102
RTVSPost2010PropOp31
 70
     1
102
RTVSPost2010Prop32
280
     0
102
RTVSPost2010PropOp32
 70
     1
102
RTVSPost2010Prop33
280
     0
102
RTVSPost2010PropOp33
 70
     1
102
RTVSPost2010Prop34
280
     0
102
RTVSPost2010PropOp34
 70
     1
102
RTVSPost2010Prop35
280
     0
102
RTVSPost2010PropOp35
 70
     1
102
RTVSPost2010Prop36
280
     0
102
RTVSPost2010PropOp36
 70
     1
102
RTVSPost2010Prop37
 90
       50
102
RTVSPost2010PropOp37
 70
     1
102
RTVSPost2010Prop38
140
0.0
102
RTVSPost2010PropOp38
 70
     1
102
RTVSPost2010Prop39
140
1.0
102
RTVSPost2010PropOp39
 70
     1
102
RTVSPost2010Prop40
 90
        0
102
RTVSPost2010PropOp40
 70
     1
102
RTVSPost2010Prop41ColorIndex
 90
       18
102
RTVSPost2010Prop41ColorRGB
 90
        0
102
RTVSPost2010PropOp41
 70
     1
102
RTVSPost2010Prop42
 90
       50
102
RTVSPost2010PropOp42
 70
     1
102
RTVSPost2010Prop43
 90
        3
102
RTVSPost2010PropOp43
 70
     1
102
RTVSPost2010Prop44ColorIndex
 90
        5
102
RTVSPost2010Prop44ColorRGB
 90
      255
102
RTVSPost2010PropOp44
 70
     1
102
RTVSPost2010Prop45
280
     0
102
RTVSPost2010PropOp45
 70
     1
102
RTVSPost2010Prop46
 90
       50
102
RTVSPost2010PropOp46
 70
     1
102
RTVSPost2010Prop47
 90
       50
102
RTVSPost2010PropOp47
 70
     1
102
RTVSPost2010Prop48
 90
       50
102
RTVSPost2010PropOp48
 70
     1
102
RTVSPost2010Prop49
280
     0
102
RTVSPost2010PropOp49
 70
     1
102
RTVSPost2010Prop50
 90
       50
102
RTVSPost2010PropOp50
 70
     1
102
RTVSPost2010Prop51ColorIndex
 90
      256
102
RTVSPost2010Prop51ColorRGB
 90
-16777216
102
RTVSPost2010PropOp51
 70
     0
102
RTVSPost2010Prop52
140
1.0
102
RTVSPost2010PropOp52
 70
     0
102
RTVSPost2010Prop53
 90
        2
102
RTVSPost2010PropOp53
 70
     1
102
RTVSPost2010Prop54
  1
strokes_ogs.tif
102
RTVSPost2010PropOp54
 70
     1
102
RTVSPost2010Prop55
280
     0
102
RTVSPost2010PropOp55
 70
     1
102
RTVSPost2010Prop56
140
1.0
102
RTVSPost2010PropOp56
 70
     1
102
RTVSPost2010Prop57
140
1.0
102
RTVSPost2010PropOp57
 70
     1
  0
XRECORD
  5
2F4
102
{ACAD_REACTORS
330
2F3
102
}
330
2F3
100
AcDbXrecord
280
     1
102
RTVSPropertyOp0
 70
     1
102
RTVSPropertyOp1
 70
     1
102
RTVSPropertyOp2
 70
     1
102
RTVSPropertyOp3
 70
     1
102
RTVSPropertyOp4
 70
     1
102
RTVSPropertyOp5
 70
     1
102
RTVSPropertyOp6
 70
     1
102
RTVSPropertyOp7
 70
     1
102
RTVSPropertyOp8
 70
     1
102
RTVSPropertyOp9
 70
     1
102
RTVSPropertyOp10
 70
     1
102
RTVSPropertyOp11
 70
     1
102
RTVSPropertyOp12
 70
     1
102
RTVSPropertyOp13
 70
     1
102
RTVSPropertyOp14
 70
     1
102
RTVSPropertyOp15
 70
     1
102
RTVSPropertyOp16
 70
     1
102
RTVSPropertyOp17
 70
     1
102
RTVSPropertyOp18
 70
     1
102
RTVSPropertyOp19
 70
     1
102
RTVSPropertyOp20
 70
     1
102
RTVSPropertyOp21
 70
     1
102
RTVSPropertyOp22
 70
     1
102
RTVSPropertyOp23
 70
     1
102
RTVSPropertyOp24
 70
     1
102
RTVSPropertyOp25
 70
     1
102
RTVSPropertyOp26
 70
     1
102
RTVSPropertyOp27
 70
     1
102
RTVSPropertyOp28
 70
     1
102
RTVSPropertyOp29
 70
     1
102
RTVSPropertyOp30
 70
     1
102
RTVSPropertyOp31
 70
     1
102
RTVSPropertyOp32
 70
     1
102
RTVSPropertyOp33
 70
     1
102
RTVSPropertyOp34
 70
     1
102
RTVSPropertyOp35
 70
     1
102
RTVSPropertyOp36
 70
     1
102
RTVSPropertyOp37
 70
     1
102
RTVSPropertyOp38
 70
     1
102
RTVSPropertyOp39
 70
     1
102
RTVSPropertyOp40
 70
     1
102
RTVSPropertyOp41
 70
     1
102
RTVSPropertyOp42
 70
     1
102
RTVSPropertyOp43
 70
     1
102
RTVSPropertyOp44
 70
     1
102
RTVSPropertyOp45
 70
     1
102
RTVSPropertyOp46
 70
     1
102
RTVSPropertyOp47
 70
     1
102
RTVSPropertyOp48
 70
     1
102
RTVSPropertyOp49
 70
     1
102
RTVSPropertyOp50
 70
     1
102
RTVSPropertyOp51
 70
     0
102
RTVSPropertyOp52
 70
     0
102
RTVSPropertyOp53
 70
     1
102
RTVSPropertyOp54
 70
     1
102
RTVSPropertyOp55
 70
     1
102
RTVSPropertyOp56
 70
     1
102
RTVSPropertyOp57
 70
     1
102
RTVSPost2010Prop28
280
     0
102
RTVSPost2010PropOp28
 70
     1
102
RTVSPost2010Prop29
280
     1
102
RTVSPost2010PropOp29
 70
     1
102
RTVSPost2010Prop30
280
     1
102
RTVSPost2010PropOp30
 70
     1
102
RTVSPost2010Prop31
280
     0
102
RTVSPost2010PropOp31
 70
     1
102
RTVSPost2010Prop32
280
     0
102
RTVSPost2010PropOp32
 70
     1
102
RTVSPost2010Prop33
280
     0
102
RTVSPost2010PropOp33
 70
     1
102
RTVSPost2010Prop34
280
     0
102
RTVSPost2010PropOp34
 70
     1
102
RTVSPost2010Prop35
280
     0
102
RTVSPost2010PropOp35
 70
     1
102
RTVSPost2010Prop36
280
     0
102
RTVSPost2010PropOp36
 70
     1
102
RTVSPost2010Prop37
 90
       50
102
RTVSPost2010PropOp37
 70
     1
102
RTVSPost2010Prop38
140
0.0
102
RTVSPost2010PropOp38
 70
     1
102
RTVSPost2010Prop39
140
1.0
102
RTVSPost2010PropOp39
 70
     1
102
RTVSPost2010Prop40
 90
        0
102
RTVSPost2010PropOp40
 70
     1
102
RTVSPost2010Prop41ColorIndex
 90
       18
102
RTVSPost2010Prop41ColorRGB
 90
        0
102
RTVSPost2010PropOp41
 70
     1
102
RTVSPost2010Prop42
 90
       50
102
RTVSPost2010PropOp42
 70
     1
102
RTVSPost2010Prop43
 90
        3
102
RTVSPost2010PropOp43
 70
     1
102
RTVSPost2010Prop44ColorIndex
 90
        5
102
RTVSPost2010Prop44ColorRGB
 90
      255
102
RTVSPost2010PropOp44
 70
     1
102
RTVSPost2010Prop45
280
     0
102
RTVSPost2010PropOp45
 70
     1
102
RTVSPost2010Prop46
 90
       50
102
RTVSPost2010PropOp46
 70
     1
102
RTVSPost2010Prop47
 90
       50
102
RTVSPost2010PropOp47
 70
     1
102
RTVSPost2010Prop48
 90
       50
102
RTVSPost2010PropOp48
 70
     1
102
RTVSPost2010Prop49
280
     0
102
RTVSPost2010PropOp49
 70
     1
102
RTVSPost2010Prop50
 90
       50
102
RTVSPost2010PropOp50
 70
     1
102
RTVSPost2010Prop51ColorIndex
 90
      256
102
RTVSPost2010Prop51ColorRGB
 90
-16777216
102
RTVSPost2010PropOp51
 70
     0
102
RTVSPost2010Prop52
140
1.0
102
RTVSPost2010PropOp52
 70
     0
102
RTVSPost2010Prop53
 90
        2
102
RTVSPost2010PropOp53
 70
     1
102
RTVSPost2010Prop54
  1
strokes_ogs.tif
102
RTVSPost2010PropOp54
 70
     1
102
RTVSPost2010Prop55
280
     0
102
RTVSPost2010PropOp55
 70
     1
102
RTVSPost2010Prop56
140
1.0
102
RTVSPost2010PropOp56
 70
     1
102
RTVSPost2010Prop57
140
1.0
102
RTVSPost2010PropOp57
 70
     1
  0
XRECORD
  5
2FC
102
{ACAD_REACTORS
330
2FB
102
}
330
2FB
100
AcDbXrecord
280
     1
102
RTVSPropertyOp0
 70
     1
102
RTVSPropertyOp1
 70
     1
102
RTVSPropertyOp2
 70
     1
102
RTVSPropertyOp3
 70
     1
102
RTVSPropertyOp4
 70
     1
102
RTVSPropertyOp5
 70
     1
102
RTVSPropertyOp6
 70
     1
102
RTVSPropertyOp7
 70
     1
102
RTVSPropertyOp8
 70
     1
102
RTVSPropertyOp9
 70
     1
102
RTVSPropertyOp10
 70
     1
102
RTVSPropertyOp11
 70
     1
102
RTVSPropertyOp12
 70
     1
102
RTVSPropertyOp13
 70
     1
102
RTVSPropertyOp14
 70
     1
102
RTVSPropertyOp15
 70
     1
102
RTVSPropertyOp16
 70
     1
102
RTVSPropertyOp17
 70
     1
102
RTVSPropertyOp18
 70
     1
102
RTVSPropertyOp19
 70
     1
102
RTVSPropertyOp20
 70
     1
102
RTVSPropertyOp21
 70
     1
102
RTVSPropertyOp22
 70
     1
102
RTVSPropertyOp23
 70
     1
102
RTVSPropertyOp24
 70
     1
102
RTVSPropertyOp25
 70
     1
102
RTVSPropertyOp26
 70
     1
102
RTVSPropertyOp27
 70
     1
102
RTVSPropertyOp28
 70
     1
102
RTVSPropertyOp29
 70
     1
102
RTVSPropertyOp30
 70
     1
102
RTVSPropertyOp31
 70
     1
102
RTVSPropertyOp32
 70
     1
102
RTVSPropertyOp33
 70
     1
102
RTVSPropertyOp34
 70
     1
102
RTVSPropertyOp35
 70
     1
102
RTVSPropertyOp36
 70
     1
102
RTVSPropertyOp37
 70
     1
102
RTVSPropertyOp38
 70
     1
102
RTVSPropertyOp39
 70
     1
102
RTVSPropertyOp40
 70
     1
102
RTVSPropertyOp41
 70
     1
102
RTVSPropertyOp42
 70
     1
102
RTVSPropertyOp43
 70
     1
102
RTVSPropertyOp44
 70
     1
102
RTVSPropertyOp45
 70
     1
102
RTVSPropertyOp46
 70
     1
102
RTVSPropertyOp47
 70
     1
102
RTVSPropertyOp48
 70
     1
102
RTVSPropertyOp49
 70
     1
102
RTVSPropertyOp50
 70
     1
102
RTVSPropertyOp51
 70
     0
102
RTVSPropertyOp52
 70
     0
102
RTVSPropertyOp53
 70
     1
102
RTVSPropertyOp54
 70
     1
102
RTVSPropertyOp55
 70
     1
102
RTVSPropertyOp56
 70
     1
102
RTVSPropertyOp57
 70
     1
102
RTVSPost2010Prop28
280
     0
102
RTVSPost2010PropOp28
 70
     1
102
RTVSPost2010Prop29
280
     1
102
RTVSPost2010PropOp29
 70
     1
102
RTVSPost2010Prop30
280
     1
102
RTVSPost2010PropOp30
 70
     1
102
RTVSPost2010Prop31
280
     0
102
RTVSPost2010PropOp31
 70
     1
102
RTVSPost2010Prop32
280
     0
102
RTVSPost2010PropOp32
 70
     1
102
RTVSPost2010Prop33
280
     0
102
RTVSPost2010PropOp33
 70
     1
102
RTVSPost2010Prop34
280
     0
102
RTVSPost2010PropOp34
 70
     1
102
RTVSPost2010Prop35
280
     0
102
RTVSPost2010PropOp35
 70
     1
102
RTVSPost2010Prop36
280
     0
102
RTVSPost2010PropOp36
 70
     1
102
RTVSPost2010Prop37
 90
       50
102
RTVSPost2010PropOp37
 70
     1
102
RTVSPost2010Prop38
140
0.0
102
RTVSPost2010PropOp38
 70
     1
102
RTVSPost2010Prop39
140
1.0
102
RTVSPost2010PropOp39
 70
     1
102
RTVSPost2010Prop40
 90
        0
102
RTVSPost2010PropOp40
 70
     1
102
RTVSPost2010Prop41ColorIndex
 90
       18
102
RTVSPost2010Prop41ColorRGB
 90
        0
102
RTVSPost2010PropOp41
 70
     1
102
RTVSPost2010Prop42
 90
       50
102
RTVSPost2010PropOp42
 70
     1
102
RTVSPost2010Prop43
 90
        3
102
RTVSPost2010PropOp43
 70
     1
102
RTVSPost2010Prop44ColorIndex
 90
        5
102
RTVSPost2010Prop44ColorRGB
 90
      255
102
RTVSPost2010PropOp44
 70
     1
102
RTVSPost2010Prop45
280
     0
102
RTVSPost2010PropOp45
 70
     1
102
RTVSPost2010Prop46
 90
       50
102
RTVSPost2010PropOp46
 70
     1
102
RTVSPost2010Prop47
 90
       50
102
RTVSPost2010PropOp47
 70
     1
102
RTVSPost2010Prop48
 90
       50
102
RTVSPost2010PropOp48
 70
     1
102
RTVSPost2010Prop49
280
     0
102
RTVSPost2010PropOp49
 70
     1
102
RTVSPost2010Prop50
 90
       50
102
RTVSPost2010PropOp50
 70
     1
102
RTVSPost2010Prop51ColorIndex
 90
      256
102
RTVSPost2010Prop51ColorRGB
 90
-16777216
102
RTVSPost2010PropOp51
 70
     0
102
RTVSPost2010Prop52
140
1.0
102
RTVSPost2010PropOp52
 70
     0
102
RTVSPost2010Prop53
 90
        2
102
RTVSPost2010PropOp53
 70
     1
102
RTVSPost2010Prop54
  1
strokes_ogs.tif
102
RTVSPost2010PropOp54
 70
     1
102
RTVSPost2010Prop55
280
     0
102
RTVSPost2010PropOp55
 70
     1
102
RTVSPost2010Prop56
140
1.0
102
RTVSPost2010PropOp56
 70
     1
102
RTVSPost2010Prop57
140
1.0
102
RTVSPost2010PropOp57
 70
     1
  0
XRECORD
  5
304
102
{ACAD_REACTORS
330
303
102
}
330
303
100
AcDbXrecord
280
     1
102
RTVSPropertyOp0
 70
     1
102
RTVSPropertyOp1
 70
     1
102
RTVSPropertyOp2
 70
     1
102
RTVSPropertyOp3
 70
     1
102
RTVSPropertyOp4
 70
     1
102
RTVSPropertyOp5
 70
     1
102
RTVSPropertyOp6
 70
     1
102
RTVSPropertyOp7
 70
     1
102
RTVSPropertyOp8
 70
     1
102
RTVSPropertyOp9
 70
     1
102
RTVSPropertyOp10
 70
     1
102
RTVSPropertyOp11
 70
     1
102
RTVSPropertyOp12
 70
     1
102
RTVSPropertyOp13
 70
     1
102
RTVSPropertyOp14
 70
     1
102
RTVSPropertyOp15
 70
     1
102
RTVSPropertyOp16
 70
     1
102
RTVSPropertyOp17
 70
     1
102
RTVSPropertyOp18
 70
     1
102
RTVSPropertyOp19
 70
     1
102
RTVSPropertyOp20
 70
     1
102
RTVSPropertyOp21
 70
     1
102
RTVSPropertyOp22
 70
     1
102
RTVSPropertyOp23
 70
     1
102
RTVSPropertyOp24
 70
     1
102
RTVSPropertyOp25
 70
     1
102
RTVSPropertyOp26
 70
     1
102
RTVSPropertyOp27
 70
     1
102
RTVSPropertyOp28
 70
     1
102
RTVSPropertyOp29
 70
     1
102
RTVSPropertyOp30
 70
     1
102
RTVSPropertyOp31
 70
     1
102
RTVSPropertyOp32
 70
     1
102
RTVSPropertyOp33
 70
     1
102
RTVSPropertyOp34
 70
     1
102
RTVSPropertyOp35
 70
     1
102
RTVSPropertyOp36
 70
     1
102
RTVSPropertyOp37
 70
     1
102
RTVSPropertyOp38
 70
     1
102
RTVSPropertyOp39
 70
     1
102
RTVSPropertyOp40
 70
     1
102
RTVSPropertyOp41
 70
     1
102
RTVSPropertyOp42
 70
     1
102
RTVSPropertyOp43
 70
     1
102
RTVSPropertyOp44
 70
     1
102
RTVSPropertyOp45
 70
     1
102
RTVSPropertyOp46
 70
     1
102
RTVSPropertyOp47
 70
     1
102
RTVSPropertyOp48
 70
     1
102
RTVSPropertyOp49
 70
     1
102
RTVSPropertyOp50
 70
     1
102
RTVSPropertyOp51
 70
     0
102
RTVSPropertyOp52
 70
     0
102
RTVSPropertyOp53
 70
     1
102
RTVSPropertyOp54
 70
     1
102
RTVSPropertyOp55
 70
     1
102
RTVSPropertyOp56
 70
     1
102
RTVSPropertyOp57
 70
     1
102
RTVSPost2010Prop28
280
     0
102
RTVSPost2010PropOp28
 70
     1
102
RTVSPost2010Prop29
280
     1
102
RTVSPost2010PropOp29
 70
     1
102
RTVSPost2010Prop30
280
     1
102
RTVSPost2010PropOp30
 70
     1
102
RTVSPost2010Prop31
280
     0
102
RTVSPost2010PropOp31
 70
     1
102
RTVSPost2010Prop32
280
     0
102
RTVSPost2010PropOp32
 70
     1
102
RTVSPost2010Prop33
280
     0
102
RTVSPost2010PropOp33
 70
     1
102
RTVSPost2010Prop34
280
     0
102
RTVSPost2010PropOp34
 70
     1
102
RTVSPost2010Prop35
280
     0
102
RTVSPost2010PropOp35
 70
     1
102
RTVSPost2010Prop36
280
     0
102
RTVSPost2010PropOp36
 70
     1
102
RTVSPost2010Prop37
 90
       50
102
RTVSPost2010PropOp37
 70
     1
102
RTVSPost2010Prop38
140
0.0
102
RTVSPost2010PropOp38
 70
     1
102
RTVSPost2010Prop39
140
1.0
102
RTVSPost2010PropOp39
 70
     1
102
RTVSPost2010Prop40
 90
        0
102
RTVSPost2010PropOp40
 70
     1
102
RTVSPost2010Prop41ColorIndex
 90
       18
102
RTVSPost2010Prop41ColorRGB
 90
        0
102
RTVSPost2010PropOp41
 70
     1
102
RTVSPost2010Prop42
 90
       50
102
RTVSPost2010PropOp42
 70
     1
102
RTVSPost2010Prop43
 90
        3
102
RTVSPost2010PropOp43
 70
     1
102
RTVSPost2010Prop44ColorIndex
 90
        5
102
RTVSPost2010Prop44ColorRGB
 90
      255
102
RTVSPost2010PropOp44
 70
     1
102
RTVSPost2010Prop45
280
     0
102
RTVSPost2010PropOp45
 70
     1
102
RTVSPost2010Prop46
 90
       50
102
RTVSPost2010PropOp46
 70
     1
102
RTVSPost2010Prop47
 90
       50
102
RTVSPost2010PropOp47
 70
     1
102
RTVSPost2010Prop48
 90
       50
102
RTVSPost2010PropOp48
 70
     1
102
RTVSPost2010Prop49
280
     0
102
RTVSPost2010PropOp49
 70
     1
102
RTVSPost2010Prop50
 90
       50
102
RTVSPost2010PropOp50
 70
     1
102
RTVSPost2010Prop51ColorIndex
 90
      256
102
RTVSPost2010Prop51ColorRGB
 90
-16777216
102
RTVSPost2010PropOp51
 70
     0
102
RTVSPost2010Prop52
140
1.0
102
RTVSPost2010PropOp52
 70
     0
102
RTVSPost2010Prop53
 90
        2
102
RTVSPost2010PropOp53
 70
     1
102
RTVSPost2010Prop54
  1
strokes_ogs.tif
102
RTVSPost2010PropOp54
 70
     1
102
RTVSPost2010Prop55
280
     0
102
RTVSPost2010PropOp55
 70
     1
102
RTVSPost2010Prop56
140
1.0
102
RTVSPost2010PropOp56
 70
     1
102
RTVSPost2010Prop57
140
1.0
102
RTVSPost2010PropOp57
 70
     1
  0
XRECORD
  5
2F8
102
{ACAD_REACTORS
330
2F7
102
}
330
2F7
100
AcDbXrecord
280
     1
102
RTVSPropertyOp0
 70
     1
102
RTVSPropertyOp1
 70
     1
102
RTVSPropertyOp2
 70
     1
102
RTVSPropertyOp3
 70
     1
102
RTVSPropertyOp4
 70
     1
102
RTVSPropertyOp5
 70
     1
102
RTVSPropertyOp6
 70
     1
102
RTVSPropertyOp7
 70
     1
102
RTVSPropertyOp8
 70
     1
102
RTVSPropertyOp9
 70
     1
102
RTVSPropertyOp10
 70
     1
102
RTVSPropertyOp11
 70
     1
102
RTVSPropertyOp12
 70
     1
102
RTVSPropertyOp13
 70
     1
102
RTVSPropertyOp14
 70
     1
102
RTVSPropertyOp15
 70
     1
102
RTVSPropertyOp16
 70
     1
102
RTVSPropertyOp17
 70
     1
102
RTVSPropertyOp18
 70
     1
102
RTVSPropertyOp19
 70
     1
102
RTVSPropertyOp20
 70
     1
102
RTVSPropertyOp21
 70
     1
102
RTVSPropertyOp22
 70
     1
102
RTVSPropertyOp23
 70
     1
102
RTVSPropertyOp24
 70
     1
102
RTVSPropertyOp25
 70
     1
102
RTVSPropertyOp26
 70
     1
102
RTVSPropertyOp27
 70
     1
102
RTVSPropertyOp28
 70
     1
102
RTVSPropertyOp29
 70
     1
102
RTVSPropertyOp30
 70
     1
102
RTVSPropertyOp31
 70
     1
102
RTVSPropertyOp32
 70
     1
102
RTVSPropertyOp33
 70
     1
102
RTVSPropertyOp34
 70
     1
102
RTVSPropertyOp35
 70
     1
102
RTVSPropertyOp36
 70
     1
102
RTVSPropertyOp37
 70
     1
102
RTVSPropertyOp38
 70
     1
102
RTVSPropertyOp39
 70
     1
102
RTVSPropertyOp40
 70
     1
102
RTVSPropertyOp41
 70
     1
102
RTVSPropertyOp42
 70
     1
102
RTVSPropertyOp43
 70
     1
102
RTVSPropertyOp44
 70
     1
102
RTVSPropertyOp45
 70
     1
102
RTVSPropertyOp46
 70
     1
102
RTVSPropertyOp47
 70
     1
102
RTVSPropertyOp48
 70
     1
102
RTVSPropertyOp49
 70
     1
102
RTVSPropertyOp50
 70
     1
102
RTVSPropertyOp51
 70
     0
102
RTVSPropertyOp52
 70
     0
102
RTVSPropertyOp53
 70
     1
102
RTVSPropertyOp54
 70
     1
102
RTVSPropertyOp55
 70
     1
102
RTVSPropertyOp56
 70
     1
102
RTVSPropertyOp57
 70
     1
102
RTVSPost2010Prop28
280
     0
102
RTVSPost2010PropOp28
 70
     1
102
RTVSPost2010Prop29
280
     1
102
RTVSPost2010PropOp29
 70
     1
102
RTVSPost2010Prop30
280
     1
102
RTVSPost2010PropOp30
 70
     1
102
RTVSPost2010Prop31
280
     0
102
RTVSPost2010PropOp31
 70
     1
102
RTVSPost2010Prop32
280
     0
102
RTVSPost2010PropOp32
 70
     1
102
RTVSPost2010Prop33
280
     0
102
RTVSPost2010PropOp33
 70
     1
102
RTVSPost2010Prop34
280
     0
102
RTVSPost2010PropOp34
 70
     1
102
RTVSPost2010Prop35
280
     0
102
RTVSPost2010PropOp35
 70
     1
102
RTVSPost2010Prop36
280
     0
102
RTVSPost2010PropOp36
 70
     1
102
RTVSPost2010Prop37
 90
       50
102
RTVSPost2010PropOp37
 70
     1
102
RTVSPost2010Prop38
140
0.0
102
RTVSPost2010PropOp38
 70
     1
102
RTVSPost2010Prop39
140
1.0
102
RTVSPost2010PropOp39
 70
     1
102
RTVSPost2010Prop40
 90
        0
102
RTVSPost2010PropOp40
 70
     1
102
RTVSPost2010Prop41ColorIndex
 90
       18
102
RTVSPost2010Prop41ColorRGB
 90
        0
102
RTVSPost2010PropOp41
 70
     1
102
RTVSPost2010Prop42
 90
       50
102
RTVSPost2010PropOp42
 70
     1
102
RTVSPost2010Prop43
 90
        3
102
RTVSPost2010PropOp43
 70
     1
102
RTVSPost2010Prop44ColorIndex
 90
        5
102
RTVSPost2010Prop44ColorRGB
 90
      255
102
RTVSPost2010PropOp44
 70
     1
102
RTVSPost2010Prop45
280
     0
102
RTVSPost2010PropOp45
 70
     1
102
RTVSPost2010Prop46
 90
       50
102
RTVSPost2010PropOp46
 70
     1
102
RTVSPost2010Prop47
 90
       50
102
RTVSPost2010PropOp47
 70
     1
102
RTVSPost2010Prop48
 90
       50
102
RTVSPost2010PropOp48
 70
     1
102
RTVSPost2010Prop49
280
     0
102
RTVSPost2010PropOp49
 70
     1
102
RTVSPost2010Prop50
 90
       50
102
RTVSPost2010PropOp50
 70
     1
102
RTVSPost2010Prop51ColorIndex
 90
      256
102
RTVSPost2010Prop51ColorRGB
 90
-16777216
102
RTVSPost2010PropOp51
 70
     0
102
RTVSPost2010Prop52
140
1.0
102
RTVSPost2010PropOp52
 70
     0
102
RTVSPost2010Prop53
 90
        2
102
RTVSPost2010PropOp53
 70
     1
102
RTVSPost2010Prop54
  1
strokes_ogs.tif
102
RTVSPost2010PropOp54
 70
     1
102
RTVSPost2010Prop55
280
     0
102
RTVSPost2010PropOp55
 70
     1
102
RTVSPost2010Prop56
140
1.0
102
RTVSPost2010PropOp56
 70
     1
102
RTVSPost2010Prop57
140
1.0
102
RTVSPost2010PropOp57
 70
     1
  0
XRECORD
  5
2FA
102
{ACAD_REACTORS
330
2F9
102
}
330
2F9
100
AcDbXrecord
280
     1
102
RTVSPropertyOp0
 70
     1
102
RTVSPropertyOp1
 70
     1
102
RTVSPropertyOp2
 70
     1
102
RTVSPropertyOp3
 70
     1
102
RTVSPropertyOp4
 70
     1
102
RTVSPropertyOp5
 70
     1
102
RTVSPropertyOp6
 70
     1
102
RTVSPropertyOp7
 70
     1
102
RTVSPropertyOp8
 70
     1
102
RTVSPropertyOp9
 70
     1
102
RTVSPropertyOp10
 70
     1
102
RTVSPropertyOp11
 70
     1
102
RTVSPropertyOp12
 70
     1
102
RTVSPropertyOp13
 70
     1
102
RTVSPropertyOp14
 70
     1
102
RTVSPropertyOp15
 70
     1
102
RTVSPropertyOp16
 70
     1
102
RTVSPropertyOp17
 70
     1
102
RTVSPropertyOp18
 70
     1
102
RTVSPropertyOp19
 70
     1
102
RTVSPropertyOp20
 70
     1
102
RTVSPropertyOp21
 70
     1
102
RTVSPropertyOp22
 70
     1
102
RTVSPropertyOp23
 70
     1
102
RTVSPropertyOp24
 70
     1
102
RTVSPropertyOp25
 70
     1
102
RTVSPropertyOp26
 70
     1
102
RTVSPropertyOp27
 70
     1
102
RTVSPropertyOp28
 70
     1
102
RTVSPropertyOp29
 70
     1
102
RTVSPropertyOp30
 70
     1
102
RTVSPropertyOp31
 70
     1
102
RTVSPropertyOp32
 70
     1
102
RTVSPropertyOp33
 70
     1
102
RTVSPropertyOp34
 70
     1
102
RTVSPropertyOp35
 70
     1
102
RTVSPropertyOp36
 70
     1
102
RTVSPropertyOp37
 70
     1
102
RTVSPropertyOp38
 70
     1
102
RTVSPropertyOp39
 70
     1
102
RTVSPropertyOp40
 70
     1
102
RTVSPropertyOp41
 70
     1
102
RTVSPropertyOp42
 70
     1
102
RTVSPropertyOp43
 70
     1
102
RTVSPropertyOp44
 70
     1
102
RTVSPropertyOp45
 70
     1
102
RTVSPropertyOp46
 70
     1
102
RTVSPropertyOp47
 70
     1
102
RTVSPropertyOp48
 70
     1
102
RTVSPropertyOp49
 70
     1
102
RTVSPropertyOp50
 70
     1
102
RTVSPropertyOp51
 70
     0
102
RTVSPropertyOp52
 70
     0
102
RTVSPropertyOp53
 70
     1
102
RTVSPropertyOp54
 70
     1
102
RTVSPropertyOp55
 70
     1
102
RTVSPropertyOp56
 70
     1
102
RTVSPropertyOp57
 70
     1
102
RTVSPost2010Prop28
280
     0
102
RTVSPost2010PropOp28
 70
     1
102
RTVSPost2010Prop29
280
     1
102
RTVSPost2010PropOp29
 70
     1
102
RTVSPost2010Prop30
280
     1
102
RTVSPost2010PropOp30
 70
     1
102
RTVSPost2010Prop31
280
     0
102
RTVSPost2010PropOp31
 70
     1
102
RTVSPost2010Prop32
280
     0
102
RTVSPost2010PropOp32
 70
     1
102
RTVSPost2010Prop33
280
     0
102
RTVSPost2010PropOp33
 70
     1
102
RTVSPost2010Prop34
280
     0
102
RTVSPost2010PropOp34
 70
     1
102
RTVSPost2010Prop35
280
     0
102
RTVSPost2010PropOp35
 70
     1
102
RTVSPost2010Prop36
280
     0
102
RTVSPost2010PropOp36
 70
     1
102
RTVSPost2010Prop37
 90
       50
102
RTVSPost2010PropOp37
 70
     1
102
RTVSPost2010Prop38
140
0.0
102
RTVSPost2010PropOp38
 70
     1
102
RTVSPost2010Prop39
140
1.0
102
RTVSPost2010PropOp39
 70
     1
102
RTVSPost2010Prop40
 90
        0
102
RTVSPost2010PropOp40
 70
     1
102
RTVSPost2010Prop41ColorIndex
 90
       18
102
RTVSPost2010Prop41ColorRGB
 90
        0
102
RTVSPost2010PropOp41
 70
     1
102
RTVSPost2010Prop42
 90
       50
102
RTVSPost2010PropOp42
 70
     1
102
RTVSPost2010Prop43
 90
        3
102
RTVSPost2010PropOp43
 70
     1
102
RTVSPost2010Prop44ColorIndex
 90
        5
102
RTVSPost2010Prop44ColorRGB
 90
      255
102
RTVSPost2010PropOp44
 70
     1
102
RTVSPost2010Prop45
280
     0
102
RTVSPost2010PropOp45
 70
     1
102
RTVSPost2010Prop46
 90
       50
102
RTVSPost2010PropOp46
 70
     1
102
RTVSPost2010Prop47
 90
       50
102
RTVSPost2010PropOp47
 70
     1
102
RTVSPost2010Prop48
 90
       50
102
RTVSPost2010PropOp48
 70
     1
102
RTVSPost2010Prop49
280
     0
102
RTVSPost2010PropOp49
 70
     1
102
RTVSPost2010Prop50
 90
       50
102
RTVSPost2010PropOp50
 70
     1
102
RTVSPost2010Prop51ColorIndex
 90
      256
102
RTVSPost2010Prop51ColorRGB
 90
-16777216
102
RTVSPost2010PropOp51
 70
     0
102
RTVSPost2010Prop52
140
1.0
102
RTVSPost2010PropOp52
 70
     0
102
RTVSPost2010Prop53
 90
        2
102
RTVSPost2010PropOp53
 70
     1
102
RTVSPost2010Prop54
  1
strokes_ogs.tif
102
RTVSPost2010PropOp54
 70
     1
102
RTVSPost2010Prop55
280
     0
102
RTVSPost2010PropOp55
 70
     1
102
RTVSPost2010Prop56
140
1.0
102
RTVSPost2010PropOp56
 70
     1
102
RTVSPost2010Prop57
140
1.0
102
RTVSPost2010PropOp57
 70
     1
  0
XRECORD
  5
30A
102
{ACAD_REACTORS
330
309
102
}
330
309
100
AcDbXrecord
280
     1
102
RTVSPropertyOp0
 70
     0
102
RTVSPropertyOp1
 70
     0
102
RTVSPropertyOp2
 70
     0
102
RTVSPropertyOp3
 70
     0
102
RTVSPropertyOp4
 70
     0
102
RTVSPropertyOp5
 70
     0
102
RTVSPropertyOp6
 70
     0
102
RTVSPropertyOp7
 70
     0
102
RTVSPropertyOp8
 70
     0
102
RTVSPropertyOp9
 70
     0
102
RTVSPropertyOp10
 70
     0
102
RTVSPropertyOp11
 70
     0
102
RTVSPropertyOp12
 70
     0
102
RTVSPropertyOp13
 70
     0
102
RTVSPropertyOp14
 70
     2
102
RTVSPropertyOp15
 70
     0
102
RTVSPropertyOp16
 70
     0
102
RTVSPropertyOp17
 70
     0
102
RTVSPropertyOp18
 70
     0
102
RTVSPropertyOp19
 70
     0
102
RTVSPropertyOp20
 70
     0
102
RTVSPropertyOp21
 70
     0
102
RTVSPropertyOp22
 70
     0
102
RTVSPropertyOp23
 70
     0
102
RTVSPropertyOp24
 70
     0
102
RTVSPropertyOp25
 70
     0
102
RTVSPropertyOp26
 70
     0
102
RTVSPropertyOp27
 70
     0
102
RTVSPropertyOp28
 70
     0
102
RTVSPropertyOp29
 70
     0
102
RTVSPropertyOp30
 70
     0
102
RTVSPropertyOp31
 70
     0
102
RTVSPropertyOp32
 70
     0
102
RTVSPropertyOp33
 70
     0
102
RTVSPropertyOp34
 70
     0
102
RTVSPropertyOp35
 70
     0
102
RTVSPropertyOp36
 70
     0
102
RTVSPropertyOp37
 70
     0
102
RTVSPropertyOp38
 70
     0
102
RTVSPropertyOp39
 70
     0
102
RTVSPropertyOp40
 70
     0
102
RTVSPropertyOp41
 70
     0
102
RTVSPropertyOp42
 70
     0
102
RTVSPropertyOp43
 70
     0
102
RTVSPropertyOp44
 70
     0
102
RTVSPropertyOp45
 70
     0
102
RTVSPropertyOp46
 70
     0
102
RTVSPropertyOp47
 70
     0
102
RTVSPropertyOp48
 70
     0
102
RTVSPropertyOp49
 70
     0
102
RTVSPropertyOp50
 70
     0
102
RTVSPropertyOp51
 70
     0
102
RTVSPropertyOp52
 70
     0
102
RTVSPropertyOp53
 70
     0
102
RTVSPropertyOp54
 70
     0
102
RTVSPropertyOp55
 70
     0
102
RTVSPropertyOp56
 70
     0
102
RTVSPropertyOp57
 70
     0
102
RTVSPost2010Prop28
280
     0
102
RTVSPost2010PropOp28
 70
     0
102
RTVSPost2010Prop29
280
     1
102
RTVSPost2010PropOp29
 70
     0
102
RTVSPost2010Prop30
280
     1
102
RTVSPost2010PropOp30
 70
     0
102
RTVSPost2010Prop31
280
     0
102
RTVSPost2010PropOp31
 70
     0
102
RTVSPost2010Prop32
280
     0
102
RTVSPost2010PropOp32
 70
     0
102
RTVSPost2010Prop33
280
     0
102
RTVSPost2010PropOp33
 70
     0
102
RTVSPost2010Prop34
280
     0
102
RTVSPost2010PropOp34
 70
     0
102
RTVSPost2010Prop35
280
     0
102
RTVSPost2010PropOp35
 70
     0
102
RTVSPost2010Prop36
280
     0
102
RTVSPost2010PropOp36
 70
     0
102
RTVSPost2010Prop37
 90
       50
102
RTVSPost2010PropOp37
 70
     0
102
RTVSPost2010Prop38
140
0.0
102
RTVSPost2010PropOp38
 70
     0
102
RTVSPost2010Prop39
140
1.0
102
RTVSPost2010PropOp39
 70
     0
102
RTVSPost2010Prop40
 90
        0
102
RTVSPost2010PropOp40
 70
     0
102
RTVSPost2010Prop41ColorIndex
 90
       18
102
RTVSPost2010Prop41ColorRGB
 90
        0
102
RTVSPost2010PropOp41
 70
     0
102
RTVSPost2010Prop42
 90
       50
102
RTVSPost2010PropOp42
 70
     0
102
RTVSPost2010Prop43
 90
        3
102
RTVSPost2010PropOp43
 70
     0
102
RTVSPost2010Prop44ColorIndex
 90
        5
102
RTVSPost2010Prop44ColorRGB
 90
      255
102
RTVSPost2010PropOp44
 70
     0
102
RTVSPost2010Prop45
280
     0
102
RTVSPost2010PropOp45
 70
     0
102
RTVSPost2010Prop46
 90
       50
102
RTVSPost2010PropOp46
 70
     0
102
RTVSPost2010Prop47
 90
       50
102
RTVSPost2010PropOp47
 70
     0
102
RTVSPost2010Prop48
 90
       50
102
RTVSPost2010PropOp48
 70
     0
102
RTVSPost2010Prop49
280
     0
102
RTVSPost2010PropOp49
 70
     0
102
RTVSPost2010Prop50
 90
       50
102
RTVSPost2010PropOp50
 70
     0
102
RTVSPost2010Prop51ColorIndex
 90
      256
102
RTVSPost2010Prop51ColorRGB
 90
-16777216
102
RTVSPost2010PropOp51
 70
     0
102
RTVSPost2010Prop52
140
1.0
102
RTVSPost2010PropOp52
 70
     0
102
RTVSPost2010Prop53
 90
        2
102
RTVSPost2010PropOp53
 70
     0
102
RTVSPost2010Prop54
  1
strokes_ogs.tif
102
RTVSPost2010PropOp54
 70
     0
102
RTVSPost2010Prop55
280
     0
102
RTVSPost2010PropOp55
 70
     0
102
RTVSPost2010Prop56
140
1.0
102
RTVSPost2010PropOp56
 70
     0
102
RTVSPost2010Prop57
140
1.0
102
RTVSPost2010PropOp57
 70
     0
  0
XRECORD
  5
302
102
{ACAD_REACTORS
330
301
102
}
330
301
100
AcDbXrecord
280
     1
102
RTVSPropertyOp0
 70
     1
102
RTVSPropertyOp1
 70
     1
102
RTVSPropertyOp2
 70
     1
102
RTVSPropertyOp3
 70
     1
102
RTVSPropertyOp4
 70
     1
102
RTVSPropertyOp5
 70
     1
102
RTVSPropertyOp6
 70
     1
102
RTVSPropertyOp7
 70
     1
102
RTVSPropertyOp8
 70
     1
102
RTVSPropertyOp9
 70
     1
102
RTVSPropertyOp10
 70
     1
102
RTVSPropertyOp11
 70
     1
102
RTVSPropertyOp12
 70
     1
102
RTVSPropertyOp13
 70
     1
102
RTVSPropertyOp14
 70
     1
102
RTVSPropertyOp15
 70
     1
102
RTVSPropertyOp16
 70
     1
102
RTVSPropertyOp17
 70
     1
102
RTVSPropertyOp18
 70
     1
102
RTVSPropertyOp19
 70
     1
102
RTVSPropertyOp20
 70
     1
102
RTVSPropertyOp21
 70
     1
102
RTVSPropertyOp22
 70
     1
102
RTVSPropertyOp23
 70
     1
102
RTVSPropertyOp24
 70
     1
102
RTVSPropertyOp25
 70
     1
102
RTVSPropertyOp26
 70
     1
102
RTVSPropertyOp27
 70
     1
102
RTVSPropertyOp28
 70
     1
102
RTVSPropertyOp29
 70
     1
102
RTVSPropertyOp30
 70
     1
102
RTVSPropertyOp31
 70
     1
102
RTVSPropertyOp32
 70
     1
102
RTVSPropertyOp33
 70
     1
102
RTVSPropertyOp34
 70
     1
102
RTVSPropertyOp35
 70
     1
102
RTVSPropertyOp36
 70
     1
102
RTVSPropertyOp37
 70
     1
102
RTVSPropertyOp38
 70
     1
102
RTVSPropertyOp39
 70
     1
102
RTVSPropertyOp40
 70
     1
102
RTVSPropertyOp41
 70
     1
102
RTVSPropertyOp42
 70
     1
102
RTVSPropertyOp43
 70
     1
102
RTVSPropertyOp44
 70
     1
102
RTVSPropertyOp45
 70
     1
102
RTVSPropertyOp46
 70
     1
102
RTVSPropertyOp47
 70
     1
102
RTVSPropertyOp48
 70
     1
102
RTVSPropertyOp49
 70
     1
102
RTVSPropertyOp50
 70
     1
102
RTVSPropertyOp51
 70
     0
102
RTVSPropertyOp52
 70
     0
102
RTVSPropertyOp53
 70
     1
102
RTVSPropertyOp54
 70
     1
102
RTVSPropertyOp55
 70
     1
102
RTVSPropertyOp56
 70
     1
102
RTVSPropertyOp57
 70
     1
102
RTVSPost2010Prop28
280
     0
102
RTVSPost2010PropOp28
 70
     1
102
RTVSPost2010Prop29
280
     1
102
RTVSPost2010PropOp29
 70
     1
102
RTVSPost2010Prop30
280
     1
102
RTVSPost2010PropOp30
 70
     1
102
RTVSPost2010Prop31
280
     0
102
RTVSPost2010PropOp31
 70
     1
102
RTVSPost2010Prop32
280
     0
102
RTVSPost2010PropOp32
 70
     1
102
RTVSPost2010Prop33
280
     0
102
RTVSPost2010PropOp33
 70
     1
102
RTVSPost2010Prop34
280
     0
102
RTVSPost2010PropOp34
 70
     1
102
RTVSPost2010Prop35
280
     0
102
RTVSPost2010PropOp35
 70
     1
102
RTVSPost2010Prop36
280
     0
102
RTVSPost2010PropOp36
 70
     1
102
RTVSPost2010Prop37
 90
       50
102
RTVSPost2010PropOp37
 70
     1
102
RTVSPost2010Prop38
140
0.0
102
RTVSPost2010PropOp38
 70
     1
102
RTVSPost2010Prop39
140
1.0
102
RTVSPost2010PropOp39
 70
     1
102
RTVSPost2010Prop40
 90
        0
102
RTVSPost2010PropOp40
 70
     1
102
RTVSPost2010Prop41ColorIndex
 90
       18
102
RTVSPost2010Prop41ColorRGB
 90
        0
102
RTVSPost2010PropOp41
 70
     1
102
RTVSPost2010Prop42
 90
       50
102
RTVSPost2010PropOp42
 70
     1
102
RTVSPost2010Prop43
 90
        3
102
RTVSPost2010PropOp43
 70
     1
102
RTVSPost2010Prop44ColorIndex
 90
        5
102
RTVSPost2010Prop44ColorRGB
 90
      255
102
RTVSPost2010PropOp44
 70
     1
102
RTVSPost2010Prop45
280
     0
102
RTVSPost2010PropOp45
 70
     1
102
RTVSPost2010Prop46
 90
       50
102
RTVSPost2010PropOp46
 70
     1
102
RTVSPost2010Prop47
 90
       50
102
RTVSPost2010PropOp47
 70
     1
102
RTVSPost2010Prop48
 90
       50
102
RTVSPost2010PropOp48
 70
     1
102
RTVSPost2010Prop49
280
     0
102
RTVSPost2010PropOp49
 70
     1
102
RTVSPost2010Prop50
 90
       50
102
RTVSPost2010PropOp50
 70
     1
102
RTVSPost2010Prop51ColorIndex
 90
      256
102
RTVSPost2010Prop51ColorRGB
 90
-16777216
102
RTVSPost2010PropOp51
 70
     0
102
RTVSPost2010Prop52
140
1.0
102
RTVSPost2010PropOp52
 70
     0
102
RTVSPost2010Prop53
 90
        2
102
RTVSPost2010PropOp53
 70
     1
102
RTVSPost2010Prop54
  1
strokes_ogs.tif
102
RTVSPost2010PropOp54
 70
     1
102
RTVSPost2010Prop55
280
     0
102
RTVSPost2010PropOp55
 70
     1
102
RTVSPost2010Prop56
140
1.0
102
RTVSPost2010PropOp56
 70
     1
102
RTVSPost2010Prop57
140
1.0
102
RTVSPost2010PropOp57
 70
     1
  0
XRECORD
  5
2E6
102
{ACAD_REACTORS
330
2E5
102
}
330
2E5
100
AcDbXrecord
280
     1
102
RTVSPropertyOp0
 70
     1
102
RTVSPropertyOp1
 70
     1
102
RTVSPropertyOp2
 70
     1
102
RTVSPropertyOp3
 70
     1
102
RTVSPropertyOp4
 70
     1
102
RTVSPropertyOp5
 70
     1
102
RTVSPropertyOp6
 70
     1
102
RTVSPropertyOp7
 70
     1
102
RTVSPropertyOp8
 70
     1
102
RTVSPropertyOp9
 70
     1
102
RTVSPropertyOp10
 70
     1
102
RTVSPropertyOp11
 70
     1
102
RTVSPropertyOp12
 70
     1
102
RTVSPropertyOp13
 70
     1
102
RTVSPropertyOp14
 70
     1
102
RTVSPropertyOp15
 70
     1
102
RTVSPropertyOp16
 70
     1
102
RTVSPropertyOp17
 70
     1
102
RTVSPropertyOp18
 70
     1
102
RTVSPropertyOp19
 70
     1
102
RTVSPropertyOp20
 70
     1
102
RTVSPropertyOp21
 70
     1
102
RTVSPropertyOp22
 70
     1
102
RTVSPropertyOp23
 70
     1
102
RTVSPropertyOp24
 70
     1
102
RTVSPropertyOp25
 70
     1
102
RTVSPropertyOp26
 70
     1
102
RTVSPropertyOp27
 70
     1
102
RTVSPropertyOp28
 70
     1
102
RTVSPropertyOp29
 70
     1
102
RTVSPropertyOp30
 70
     1
102
RTVSPropertyOp31
 70
     1
102
RTVSPropertyOp32
 70
     1
102
RTVSPropertyOp33
 70
     1
102
RTVSPropertyOp34
 70
     1
102
RTVSPropertyOp35
 70
     1
102
RTVSPropertyOp36
 70
     1
102
RTVSPropertyOp37
 70
     1
102
RTVSPropertyOp38
 70
     1
102
RTVSPropertyOp39
 70
     1
102
RTVSPropertyOp40
 70
     1
102
RTVSPropertyOp41
 70
     1
102
RTVSPropertyOp42
 70
     1
102
RTVSPropertyOp43
 70
     1
102
RTVSPropertyOp44
 70
     1
102
RTVSPropertyOp45
 70
     1
102
RTVSPropertyOp46
 70
     1
102
RTVSPropertyOp47
 70
     1
102
RTVSPropertyOp48
 70
     1
102
RTVSPropertyOp49
 70
     1
102
RTVSPropertyOp50
 70
     1
102
RTVSPropertyOp51
 70
     0
102
RTVSPropertyOp52
 70
     0
102
RTVSPropertyOp53
 70
     1
102
RTVSPropertyOp54
 70
     1
102
RTVSPropertyOp55
 70
     1
102
RTVSPropertyOp56
 70
     1
102
RTVSPropertyOp57
 70
     1
102
RTVSPost2010Prop28
280
     0
102
RTVSPost2010PropOp28
 70
     1
102
RTVSPost2010Prop29
280
     1
102
RTVSPost2010PropOp29
 70
     1
102
RTVSPost2010Prop30
280
     1
102
RTVSPost2010PropOp30
 70
     1
102
RTVSPost2010Prop31
280
     0
102
RTVSPost2010PropOp31
 70
     1
102
RTVSPost2010Prop32
280
     0
102
RTVSPost2010PropOp32
 70
     1
102
RTVSPost2010Prop33
280
     0
102
RTVSPost2010PropOp33
 70
     1
102
RTVSPost2010Prop34
280
     0
102
RTVSPost2010PropOp34
 70
     1
102
RTVSPost2010Prop35
280
     0
102
RTVSPost2010PropOp35
 70
     1
102
RTVSPost2010Prop36
280
     0
102
RTVSPost2010PropOp36
 70
     1
102
RTVSPost2010Prop37
 90
       50
102
RTVSPost2010PropOp37
 70
     1
102
RTVSPost2010Prop38
140
0.0
102
RTVSPost2010PropOp38
 70
     1
102
RTVSPost2010Prop39
140
1.0
102
RTVSPost2010PropOp39
 70
     1
102
RTVSPost2010Prop40
 90
        0
102
RTVSPost2010PropOp40
 70
     1
102
RTVSPost2010Prop41ColorIndex
 90
       18
102
RTVSPost2010Prop41ColorRGB
 90
        0
102
RTVSPost2010PropOp41
 70
     1
102
RTVSPost2010Prop42
 90
       50
102
RTVSPost2010PropOp42
 70
     1
102
RTVSPost2010Prop43
 90
        3
102
RTVSPost2010PropOp43
 70
     1
102
RTVSPost2010Prop44ColorIndex
 90
        5
102
RTVSPost2010Prop44ColorRGB
 90
      255
102
RTVSPost2010PropOp44
 70
     1
102
RTVSPost2010Prop45
280
     0
102
RTVSPost2010PropOp45
 70
     1
102
RTVSPost2010Prop46
 90
       50
102
RTVSPost2010PropOp46
 70
     1
102
RTVSPost2010Prop47
 90
       50
102
RTVSPost2010PropOp47
 70
     1
102
RTVSPost2010Prop48
 90
       50
102
RTVSPost2010PropOp48
 70
     1
102
RTVSPost2010Prop49
280
     0
102
RTVSPost2010PropOp49
 70
     1
102
RTVSPost2010Prop50
 90
       50
102
RTVSPost2010PropOp50
 70
     1
102
RTVSPost2010Prop51ColorIndex
 90
      256
102
RTVSPost2010Prop51ColorRGB
 90
-16777216
102
RTVSPost2010PropOp51
 70
     0
102
RTVSPost2010Prop52
140
1.0
102
RTVSPost2010PropOp52
 70
     0
102
RTVSPost2010Prop53
 90
        2
102
RTVSPost2010PropOp53
 70
     1
102
RTVSPost2010Prop54
  1
strokes_ogs.tif
102
RTVSPost2010PropOp54
 70
     1
102
RTVSPost2010Prop55
280
     0
102
RTVSPost2010PropOp55
 70
     1
102
RTVSPost2010Prop56
140
1.0
102
RTVSPost2010PropOp56
 70
     1
102
RTVSPost2010Prop57
140
1.0
102
RTVSPost2010PropOp57
 70
     1
  0
XRECORD
  5
2E8
102
{ACAD_REACTORS
330
2E7
102
}
330
2E7
100
AcDbXrecord
280
     1
102
RTVSPropertyOp0
 70
     1
102
RTVSPropertyOp1
 70
     1
102
RTVSPropertyOp2
 70
     1
102
RTVSPropertyOp3
 70
     1
102
RTVSPropertyOp4
 70
     1
102
RTVSPropertyOp5
 70
     1
102
RTVSPropertyOp6
 70
     1
102
RTVSPropertyOp7
 70
     1
102
RTVSPropertyOp8
 70
     1
102
RTVSPropertyOp9
 70
     1
102
RTVSPropertyOp10
 70
     1
102
RTVSPropertyOp11
 70
     1
102
RTVSPropertyOp12
 70
     1
102
RTVSPropertyOp13
 70
     1
102
RTVSPropertyOp14
 70
     1
102
RTVSPropertyOp15
 70
     1
102
RTVSPropertyOp16
 70
     1
102
RTVSPropertyOp17
 70
     1
102
RTVSPropertyOp18
 70
     1
102
RTVSPropertyOp19
 70
     1
102
RTVSPropertyOp20
 70
     1
102
RTVSPropertyOp21
 70
     1
102
RTVSPropertyOp22
 70
     1
102
RTVSPropertyOp23
 70
     1
102
RTVSPropertyOp24
 70
     1
102
RTVSPropertyOp25
 70
     1
102
RTVSPropertyOp26
 70
     1
102
RTVSPropertyOp27
 70
     1
102
RTVSPropertyOp28
 70
     1
102
RTVSPropertyOp29
 70
     1
102
RTVSPropertyOp30
 70
     1
102
RTVSPropertyOp31
 70
     1
102
RTVSPropertyOp32
 70
     1
102
RTVSPropertyOp33
 70
     1
102
RTVSPropertyOp34
 70
     1
102
RTVSPropertyOp35
 70
     1
102
RTVSPropertyOp36
 70
     1
102
RTVSPropertyOp37
 70
     1
102
RTVSPropertyOp38
 70
     1
102
RTVSPropertyOp39
 70
     1
102
RTVSPropertyOp40
 70
     1
102
RTVSPropertyOp41
 70
     1
102
RTVSPropertyOp42
 70
     1
102
RTVSPropertyOp43
 70
     1
102
RTVSPropertyOp44
 70
     1
102
RTVSPropertyOp45
 70
     1
102
RTVSPropertyOp46
 70
     1
102
RTVSPropertyOp47
 70
     1
102
RTVSPropertyOp48
 70
     1
102
RTVSPropertyOp49
 70
     1
102
RTVSPropertyOp50
 70
     1
102
RTVSPropertyOp51
 70
     0
102
RTVSPropertyOp52
 70
     0
102
RTVSPropertyOp53
 70
     1
102
RTVSPropertyOp54
 70
     1
102
RTVSPropertyOp55
 70
     1
102
RTVSPropertyOp56
 70
     1
102
RTVSPropertyOp57
 70
     1
102
RTVSPost2010Prop28
280
     0
102
RTVSPost2010PropOp28
 70
     1
102
RTVSPost2010Prop29
280
     1
102
RTVSPost2010PropOp29
 70
     1
102
RTVSPost2010Prop30
280
     1
102
RTVSPost2010PropOp30
 70
     1
102
RTVSPost2010Prop31
280
     0
102
RTVSPost2010PropOp31
 70
     1
102
RTVSPost2010Prop32
280
     0
102
RTVSPost2010PropOp32
 70
     1
102
RTVSPost2010Prop33
280
     0
102
RTVSPost2010PropOp33
 70
     1
102
RTVSPost2010Prop34
280
     0
102
RTVSPost2010PropOp34
 70
     1
102
RTVSPost2010Prop35
280
     0
102
RTVSPost2010PropOp35
 70
     1
102
RTVSPost2010Prop36
280
     0
102
RTVSPost2010PropOp36
 70
     1
102
RTVSPost2010Prop37
 90
       50
102
RTVSPost2010PropOp37
 70
     1
102
RTVSPost2010Prop38
140
0.0
102
RTVSPost2010PropOp38
 70
     1
102
RTVSPost2010Prop39
140
1.0
102
RTVSPost2010PropOp39
 70
     1
102
RTVSPost2010Prop40
 90
        0
102
RTVSPost2010PropOp40
 70
     1
102
RTVSPost2010Prop41ColorIndex
 90
       18
102
RTVSPost2010Prop41ColorRGB
 90
        0
102
RTVSPost2010PropOp41
 70
     1
102
RTVSPost2010Prop42
 90
       50
102
RTVSPost2010PropOp42
 70
     1
102
RTVSPost2010Prop43
 90
        3
102
RTVSPost2010PropOp43
 70
     1
102
RTVSPost2010Prop44ColorIndex
 90
        5
102
RTVSPost2010Prop44ColorRGB
 90
      255
102
RTVSPost2010PropOp44
 70
     1
102
RTVSPost2010Prop45
280
     0
102
RTVSPost2010PropOp45
 70
     1
102
RTVSPost2010Prop46
 90
       50
102
RTVSPost2010PropOp46
 70
     1
102
RTVSPost2010Prop47
 90
       50
102
RTVSPost2010PropOp47
 70
     1
102
RTVSPost2010Prop48
 90
       50
102
RTVSPost2010PropOp48
 70
     1
102
RTVSPost2010Prop49
280
     0
102
RTVSPost2010PropOp49
 70
     1
102
RTVSPost2010Prop50
 90
       50
102
RTVSPost2010PropOp50
 70
     1
102
RTVSPost2010Prop51ColorIndex
 90
      256
102
RTVSPost2010Prop51ColorRGB
 90
-16777216
102
RTVSPost2010PropOp51
 70
     0
102
RTVSPost2010Prop52
140
1.0
102
RTVSPost2010PropOp52
 70
     0
102
RTVSPost2010Prop53
 90
        2
102
RTVSPost2010PropOp53
 70
     1
102
RTVSPost2010Prop54
  1
strokes_ogs.tif
102
RTVSPost2010PropOp54
 70
     1
102
RTVSPost2010Prop55
280
     0
102
RTVSPost2010PropOp55
 70
     1
102
RTVSPost2010Prop56
140
1.0
102
RTVSPost2010PropOp56
 70
     1
102
RTVSPost2010Prop57
140
1.0
102
RTVSPost2010PropOp57
 70
     1
  0
XRECORD
  5
2EA
102
{ACAD_REACTORS
330
2E9
102
}
330
2E9
100
AcDbXrecord
280
     1
102
RTVSPropertyOp0
 70
     1
102
RTVSPropertyOp1
 70
     1
102
RTVSPropertyOp2
 70
     1
102
RTVSPropertyOp3
 70
     1
102
RTVSPropertyOp4
 70
     1
102
RTVSPropertyOp5
 70
     1
102
RTVSPropertyOp6
 70
     1
102
RTVSPropertyOp7
 70
     1
102
RTVSPropertyOp8
 70
     1
102
RTVSPropertyOp9
 70
     1
102
RTVSPropertyOp10
 70
     1
102
RTVSPropertyOp11
 70
     1
102
RTVSPropertyOp12
 70
     1
102
RTVSPropertyOp13
 70
     1
102
RTVSPropertyOp14
 70
     1
102
RTVSPropertyOp15
 70
     1
102
RTVSPropertyOp16
 70
     1
102
RTVSPropertyOp17
 70
     1
102
RTVSPropertyOp18
 70
     1
102
RTVSPropertyOp19
 70
     1
102
RTVSPropertyOp20
 70
     1
102
RTVSPropertyOp21
 70
     1
102
RTVSPropertyOp22
 70
     1
102
RTVSPropertyOp23
 70
     1
102
RTVSPropertyOp24
 70
     1
102
RTVSPropertyOp25
 70
     1
102
RTVSPropertyOp26
 70
     1
102
RTVSPropertyOp27
 70
     1
102
RTVSPropertyOp28
 70
     1
102
RTVSPropertyOp29
 70
     1
102
RTVSPropertyOp30
 70
     1
102
RTVSPropertyOp31
 70
     1
102
RTVSPropertyOp32
 70
     1
102
RTVSPropertyOp33
 70
     1
102
RTVSPropertyOp34
 70
     1
102
RTVSPropertyOp35
 70
     1
102
RTVSPropertyOp36
 70
     1
102
RTVSPropertyOp37
 70
     1
102
RTVSPropertyOp38
 70
     1
102
RTVSPropertyOp39
 70
     1
102
RTVSPropertyOp40
 70
     1
102
RTVSPropertyOp41
 70
     1
102
RTVSPropertyOp42
 70
     1
102
RTVSPropertyOp43
 70
     1
102
RTVSPropertyOp44
 70
     1
102
RTVSPropertyOp45
 70
     1
102
RTVSPropertyOp46
 70
     1
102
RTVSPropertyOp47
 70
     1
102
RTVSPropertyOp48
 70
     1
102
RTVSPropertyOp49
 70
     1
102
RTVSPropertyOp50
 70
     1
102
RTVSPropertyOp51
 70
     0
102
RTVSPropertyOp52
 70
     0
102
RTVSPropertyOp53
 70
     1
102
RTVSPropertyOp54
 70
     1
102
RTVSPropertyOp55
 70
     1
102
RTVSPropertyOp56
 70
     1
102
RTVSPropertyOp57
 70
     1
102
RTVSPost2010Prop28
280
     0
102
RTVSPost2010PropOp28
 70
     1
102
RTVSPost2010Prop29
280
     1
102
RTVSPost2010PropOp29
 70
     1
102
RTVSPost2010Prop30
280
     1
102
RTVSPost2010PropOp30
 70
     1
102
RTVSPost2010Prop31
280
     0
102
RTVSPost2010PropOp31
 70
     1
102
RTVSPost2010Prop32
280
     0
102
RTVSPost2010PropOp32
 70
     1
102
RTVSPost2010Prop33
280
     0
102
RTVSPost2010PropOp33
 70
     1
102
RTVSPost2010Prop34
280
     0
102
RTVSPost2010PropOp34
 70
     1
102
RTVSPost2010Prop35
280
     0
102
RTVSPost2010PropOp35
 70
     1
102
RTVSPost2010Prop36
280
     0
102
RTVSPost2010PropOp36
 70
     1
102
RTVSPost2010Prop37
 90
       50
102
RTVSPost2010PropOp37
 70
     1
102
RTVSPost2010Prop38
140
0.0
102
RTVSPost2010PropOp38
 70
     1
102
RTVSPost2010Prop39
140
1.0
102
RTVSPost2010PropOp39
 70
     1
102
RTVSPost2010Prop40
 90
        0
102
RTVSPost2010PropOp40
 70
     1
102
RTVSPost2010Prop41ColorIndex
 90
       18
102
RTVSPost2010Prop41ColorRGB
 90
        0
102
RTVSPost2010PropOp41
 70
     1
102
RTVSPost2010Prop42
 90
       50
102
RTVSPost2010PropOp42
 70
     1
102
RTVSPost2010Prop43
 90
        3
102
RTVSPost2010PropOp43
 70
     1
102
RTVSPost2010Prop44ColorIndex
 90
        5
102
RTVSPost2010Prop44ColorRGB
 90
      255
102
RTVSPost2010PropOp44
 70
     1
102
RTVSPost2010Prop45
280
     0
102
RTVSPost2010PropOp45
 70
     1
102
RTVSPost2010Prop46
 90
       50
102
RTVSPost2010PropOp46
 70
     1
102
RTVSPost2010Prop47
 90
       50
102
RTVSPost2010PropOp47
 70
     1
102
RTVSPost2010Prop48
 90
       50
102
RTVSPost2010PropOp48
 70
     1
102
RTVSPost2010Prop49
280
     0
102
RTVSPost2010PropOp49
 70
     1
102
RTVSPost2010Prop50
 90
       50
102
RTVSPost2010PropOp50
 70
     1
102
RTVSPost2010Prop51ColorIndex
 90
      256
102
RTVSPost2010Prop51ColorRGB
 90
-16777216
102
RTVSPost2010PropOp51
 70
     0
102
RTVSPost2010Prop52
140
1.0
102
RTVSPost2010PropOp52
 70
     0
102
RTVSPost2010Prop53
 90
        2
102
RTVSPost2010PropOp53
 70
     1
102
RTVSPost2010Prop54
  1
strokes_ogs.tif
102
RTVSPost2010PropOp54
 70
     1
102
RTVSPost2010Prop55
280
     0
102
RTVSPost2010PropOp55
 70
     1
102
RTVSPost2010Prop56
140
1.0
102
RTVSPost2010PropOp56
 70
     1
102
RTVSPost2010Prop57
140
1.0
102
RTVSPost2010PropOp57
 70
     1
  0
XRECORD
  5
2EC
102
{ACAD_REACTORS
330
2EB
102
}
330
2EB
100
AcDbXrecord
280
     1
102
RTVSPropertyOp0
 70
     1
102
RTVSPropertyOp1
 70
     1
102
RTVSPropertyOp2
 70
     1
102
RTVSPropertyOp3
 70
     1
102
RTVSPropertyOp4
 70
     1
102
RTVSPropertyOp5
 70
     1
102
RTVSPropertyOp6
 70
     1
102
RTVSPropertyOp7
 70
     1
102
RTVSPropertyOp8
 70
     1
102
RTVSPropertyOp9
 70
     1
102
RTVSPropertyOp10
 70
     1
102
RTVSPropertyOp11
 70
     1
102
RTVSPropertyOp12
 70
     1
102
RTVSPropertyOp13
 70
     1
102
RTVSPropertyOp14
 70
     1
102
RTVSPropertyOp15
 70
     1
102
RTVSPropertyOp16
 70
     1
102
RTVSPropertyOp17
 70
     1
102
RTVSPropertyOp18
 70
     1
102
RTVSPropertyOp19
 70
     1
102
RTVSPropertyOp20
 70
     1
102
RTVSPropertyOp21
 70
     1
102
RTVSPropertyOp22
 70
     1
102
RTVSPropertyOp23
 70
     1
102
RTVSPropertyOp24
 70
     1
102
RTVSPropertyOp25
 70
     1
102
RTVSPropertyOp26
 70
     1
102
RTVSPropertyOp27
 70
     1
102
RTVSPropertyOp28
 70
     1
102
RTVSPropertyOp29
 70
     1
102
RTVSPropertyOp30
 70
     1
102
RTVSPropertyOp31
 70
     1
102
RTVSPropertyOp32
 70
     1
102
RTVSPropertyOp33
 70
     1
102
RTVSPropertyOp34
 70
     1
102
RTVSPropertyOp35
 70
     1
102
RTVSPropertyOp36
 70
     1
102
RTVSPropertyOp37
 70
     1
102
RTVSPropertyOp38
 70
     1
102
RTVSPropertyOp39
 70
     1
102
RTVSPropertyOp40
 70
     1
102
RTVSPropertyOp41
 70
     1
102
RTVSPropertyOp42
 70
     1
102
RTVSPropertyOp43
 70
     1
102
RTVSPropertyOp44
 70
     1
102
RTVSPropertyOp45
 70
     1
102
RTVSPropertyOp46
 70
     1
102
RTVSPropertyOp47
 70
     1
102
RTVSPropertyOp48
 70
     1
102
RTVSPropertyOp49
 70
     1
102
RTVSPropertyOp50
 70
     1
102
RTVSPropertyOp51
 70
     0
102
RTVSPropertyOp52
 70
     0
102
RTVSPropertyOp53
 70
     1
102
RTVSPropertyOp54
 70
     1
102
RTVSPropertyOp55
 70
     1
102
RTVSPropertyOp56
 70
     1
102
RTVSPropertyOp57
 70
     1
102
RTVSPost2010Prop28
280
     0
102
RTVSPost2010PropOp28
 70
     1
102
RTVSPost2010Prop29
280
     1
102
RTVSPost2010PropOp29
 70
     1
102
RTVSPost2010Prop30
280
     1
102
RTVSPost2010PropOp30
 70
     1
102
RTVSPost2010Prop31
280
     0
102
RTVSPost2010PropOp31
 70
     1
102
RTVSPost2010Prop32
280
     0
102
RTVSPost2010PropOp32
 70
     1
102
RTVSPost2010Prop33
280
     0
102
RTVSPost2010PropOp33
 70
     1
102
RTVSPost2010Prop34
280
     0
102
RTVSPost2010PropOp34
 70
     1
102
RTVSPost2010Prop35
280
     0
102
RTVSPost2010PropOp35
 70
     1
102
RTVSPost2010Prop36
280
     0
102
RTVSPost2010PropOp36
 70
     1
102
RTVSPost2010Prop37
 90
       50
102
RTVSPost2010PropOp37
 70
     1
102
RTVSPost2010Prop38
140
0.0
102
RTVSPost2010PropOp38
 70
     1
102
RTVSPost2010Prop39
140
1.0
102
RTVSPost2010PropOp39
 70
     1
102
RTVSPost2010Prop40
 90
        0
102
RTVSPost2010PropOp40
 70
     1
102
RTVSPost2010Prop41ColorIndex
 90
       18
102
RTVSPost2010Prop41ColorRGB
 90
        0
102
RTVSPost2010PropOp41
 70
     1
102
RTVSPost2010Prop42
 90
       50
102
RTVSPost2010PropOp42
 70
     1
102
RTVSPost2010Prop43
 90
        3
102
RTVSPost2010PropOp43
 70
     1
102
RTVSPost2010Prop44ColorIndex
 90
        5
102
RTVSPost2010Prop44ColorRGB
 90
      255
102
RTVSPost2010PropOp44
 70
     1
102
RTVSPost2010Prop45
280
     0
102
RTVSPost2010PropOp45
 70
     1
102
RTVSPost2010Prop46
 90
       50
102
RTVSPost2010PropOp46
 70
     1
102
RTVSPost2010Prop47
 90
       50
102
RTVSPost2010PropOp47
 70
     1
102
RTVSPost2010Prop48
 90
       50
102
RTVSPost2010PropOp48
 70
     1
102
RTVSPost2010Prop49
280
     0
102
RTVSPost2010PropOp49
 70
     1
102
RTVSPost2010Prop50
 90
       50
102
RTVSPost2010PropOp50
 70
     1
102
RTVSPost2010Prop51ColorIndex
 90
      256
102
RTVSPost2010Prop51ColorRGB
 90
-16777216
102
RTVSPost2010PropOp51
 70
     0
102
RTVSPost2010Prop52
140
1.0
102
RTVSPost2010PropOp52
 70
     0
102
RTVSPost2010Prop53
 90
        2
102
RTVSPost2010PropOp53
 70
     1
102
RTVSPost2010Prop54
  1
strokes_ogs.tif
102
RTVSPost2010PropOp54
 70
     1
102
RTVSPost2010Prop55
280
     0
102
RTVSPost2010PropOp55
 70
     1
102
RTVSPost2010Prop56
140
1.0
102
RTVSPost2010PropOp56
 70
     1
102
RTVSPost2010Prop57
140
1.0
102
RTVSPost2010PropOp57
 70
     1
  0
XRECORD
  5
2F2
102
{ACAD_REACTORS
330
2F1
102
}
330
2F1
100
AcDbXrecord
280
     1
102
RTVSPropertyOp0
 70
     1
102
RTVSPropertyOp1
 70
     1
102
RTVSPropertyOp2
 70
     1
102
RTVSPropertyOp3
 70
     1
102
RTVSPropertyOp4
 70
     1
102
RTVSPropertyOp5
 70
     1
102
RTVSPropertyOp6
 70
     1
102
RTVSPropertyOp7
 70
     1
102
RTVSPropertyOp8
 70
     1
102
RTVSPropertyOp9
 70
     1
102
RTVSPropertyOp10
 70
     1
102
RTVSPropertyOp11
 70
     1
102
RTVSPropertyOp12
 70
     1
102
RTVSPropertyOp13
 70
     1
102
RTVSPropertyOp14
 70
     1
102
RTVSPropertyOp15
 70
     1
102
RTVSPropertyOp16
 70
     1
102
RTVSPropertyOp17
 70
     1
102
RTVSPropertyOp18
 70
     1
102
RTVSPropertyOp19
 70
     1
102
RTVSPropertyOp20
 70
     1
102
RTVSPropertyOp21
 70
     1
102
RTVSPropertyOp22
 70
     1
102
RTVSPropertyOp23
 70
     1
102
RTVSPropertyOp24
 70
     1
102
RTVSPropertyOp25
 70
     1
102
RTVSPropertyOp26
 70
     1
102
RTVSPropertyOp27
 70
     1
102
RTVSPropertyOp28
 70
     1
102
RTVSPropertyOp29
 70
     1
102
RTVSPropertyOp30
 70
     1
102
RTVSPropertyOp31
 70
     1
102
RTVSPropertyOp32
 70
     1
102
RTVSPropertyOp33
 70
     1
102
RTVSPropertyOp34
 70
     1
102
RTVSPropertyOp35
 70
     1
102
RTVSPropertyOp36
 70
     1
102
RTVSPropertyOp37
 70
     1
102
RTVSPropertyOp38
 70
     1
102
RTVSPropertyOp39
 70
     1
102
RTVSPropertyOp40
 70
     1
102
RTVSPropertyOp41
 70
     1
102
RTVSPropertyOp42
 70
     1
102
RTVSPropertyOp43
 70
     1
102
RTVSPropertyOp44
 70
     1
102
RTVSPropertyOp45
 70
     1
102
RTVSPropertyOp46
 70
     1
102
RTVSPropertyOp47
 70
     1
102
RTVSPropertyOp48
 70
     1
102
RTVSPropertyOp49
 70
     1
102
RTVSPropertyOp50
 70
     1
102
RTVSPropertyOp51
 70
     0
102
RTVSPropertyOp52
 70
     0
102
RTVSPropertyOp53
 70
     1
102
RTVSPropertyOp54
 70
     1
102
RTVSPropertyOp55
 70
     1
102
RTVSPropertyOp56
 70
     1
102
RTVSPropertyOp57
 70
     1
102
RTVSPost2010Prop28
280
     0
102
RTVSPost2010PropOp28
 70
     1
102
RTVSPost2010Prop29
280
     1
102
RTVSPost2010PropOp29
 70
     1
102
RTVSPost2010Prop30
280
     1
102
RTVSPost2010PropOp30
 70
     1
102
RTVSPost2010Prop31
280
     0
102
RTVSPost2010PropOp31
 70
     1
102
RTVSPost2010Prop32
280
     0
102
RTVSPost2010PropOp32
 70
     1
102
RTVSPost2010Prop33
280
     0
102
RTVSPost2010PropOp33
 70
     1
102
RTVSPost2010Prop34
280
     0
102
RTVSPost2010PropOp34
 70
     1
102
RTVSPost2010Prop35
280
     0
102
RTVSPost2010PropOp35
 70
     1
102
RTVSPost2010Prop36
280
     0
102
RTVSPost2010PropOp36
 70
     1
102
RTVSPost2010Prop37
 90
       50
102
RTVSPost2010PropOp37
 70
     1
102
RTVSPost2010Prop38
140
0.0
102
RTVSPost2010PropOp38
 70
     1
102
RTVSPost2010Prop39
140
1.0
102
RTVSPost2010PropOp39
 70
     1
102
RTVSPost2010Prop40
 90
        0
102
RTVSPost2010PropOp40
 70
     1
102
RTVSPost2010Prop41ColorIndex
 90
       18
102
RTVSPost2010Prop41ColorRGB
 90
        0
102
RTVSPost2010PropOp41
 70
     1
102
RTVSPost2010Prop42
 90
       50
102
RTVSPost2010PropOp42
 70
     1
102
RTVSPost2010Prop43
 90
        3
102
RTVSPost2010PropOp43
 70
     1
102
RTVSPost2010Prop44ColorIndex
 90
        5
102
RTVSPost2010Prop44ColorRGB
 90
      255
102
RTVSPost2010PropOp44
 70
     1
102
RTVSPost2010Prop45
280
     0
102
RTVSPost2010PropOp45
 70
     1
102
RTVSPost2010Prop46
 90
       50
102
RTVSPost2010PropOp46
 70
     1
102
RTVSPost2010Prop47
 90
       50
102
RTVSPost2010PropOp47
 70
     1
102
RTVSPost2010Prop48
 90
       50
102
RTVSPost2010PropOp48
 70
     1
102
RTVSPost2010Prop49
280
     0
102
RTVSPost2010PropOp49
 70
     1
102
RTVSPost2010Prop50
 90
       50
102
RTVSPost2010PropOp50
 70
     1
102
RTVSPost2010Prop51ColorIndex
 90
      256
102
RTVSPost2010Prop51ColorRGB
 90
-16777216
102
RTVSPost2010PropOp51
 70
     0
102
RTVSPost2010Prop52
140
1.0
102
RTVSPost2010PropOp52
 70
     0
102
RTVSPost2010Prop53
 90
        2
102
RTVSPost2010PropOp53
 70
     1
102
RTVSPost2010Prop54
  1
strokes_ogs.tif
102
RTVSPost2010PropOp54
 70
     1
102
RTVSPost2010Prop55
280
     0
102
RTVSPost2010PropOp55
 70
     1
102
RTVSPost2010Prop56
140
1.0
102
RTVSPost2010PropOp56
 70
     1
102
RTVSPost2010Prop57
140
1.0
102
RTVSPost2010PropOp57
 70
     1
  0
XRECORD
  5
306
102
{ACAD_REACTORS
330
305
102
}
330
305
100
AcDbXrecord
280
     1
102
RTVSPropertyOp0
 70
     0
102
RTVSPropertyOp1
 70
     0
102
RTVSPropertyOp2
 70
     0
102
RTVSPropertyOp3
 70
     0
102
RTVSPropertyOp4
 70
     0
102
RTVSPropertyOp5
 70
     0
102
RTVSPropertyOp6
 70
     0
102
RTVSPropertyOp7
 70
     0
102
RTVSPropertyOp8
 70
     0
102
RTVSPropertyOp9
 70
     0
102
RTVSPropertyOp10
 70
     0
102
RTVSPropertyOp11
 70
     0
102
RTVSPropertyOp12
 70
     0
102
RTVSPropertyOp13
 70
     0
102
RTVSPropertyOp14
 70
     2
102
RTVSPropertyOp15
 70
     0
102
RTVSPropertyOp16
 70
     0
102
RTVSPropertyOp17
 70
     0
102
RTVSPropertyOp18
 70
     0
102
RTVSPropertyOp19
 70
     0
102
RTVSPropertyOp20
 70
     0
102
RTVSPropertyOp21
 70
     0
102
RTVSPropertyOp22
 70
     0
102
RTVSPropertyOp23
 70
     0
102
RTVSPropertyOp24
 70
     0
102
RTVSPropertyOp25
 70
     0
102
RTVSPropertyOp26
 70
     0
102
RTVSPropertyOp27
 70
     0
102
RTVSPropertyOp28
 70
     0
102
RTVSPropertyOp29
 70
     0
102
RTVSPropertyOp30
 70
     0
102
RTVSPropertyOp31
 70
     0
102
RTVSPropertyOp32
 70
     0
102
RTVSPropertyOp33
 70
     0
102
RTVSPropertyOp34
 70
     0
102
RTVSPropertyOp35
 70
     0
102
RTVSPropertyOp36
 70
     0
102
RTVSPropertyOp37
 70
     0
102
RTVSPropertyOp38
 70
     0
102
RTVSPropertyOp39
 70
     0
102
RTVSPropertyOp40
 70
     0
102
RTVSPropertyOp41
 70
     0
102
RTVSPropertyOp42
 70
     0
102
RTVSPropertyOp43
 70
     0
102
RTVSPropertyOp44
 70
     0
102
RTVSPropertyOp45
 70
     0
102
RTVSPropertyOp46
 70
     0
102
RTVSPropertyOp47
 70
     0
102
RTVSPropertyOp48
 70
     0
102
RTVSPropertyOp49
 70
     0
102
RTVSPropertyOp50
 70
     0
102
RTVSPropertyOp51
 70
     0
102
RTVSPropertyOp52
 70
     0
102
RTVSPropertyOp53
 70
     0
102
RTVSPropertyOp54
 70
     0
102
RTVSPropertyOp55
 70
     0
102
RTVSPropertyOp56
 70
     0
102
RTVSPropertyOp57
 70
     0
102
RTVSPost2010Prop28
280
     0
102
RTVSPost2010PropOp28
 70
     0
102
RTVSPost2010Prop29
280
     1
102
RTVSPost2010PropOp29
 70
     0
102
RTVSPost2010Prop30
280
     1
102
RTVSPost2010PropOp30
 70
     0
102
RTVSPost2010Prop31
280
     0
102
RTVSPost2010PropOp31
 70
     0
102
RTVSPost2010Prop32
280
     0
102
RTVSPost2010PropOp32
 70
     0
102
RTVSPost2010Prop33
280
     0
102
RTVSPost2010PropOp33
 70
     0
102
RTVSPost2010Prop34
280
     0
102
RTVSPost2010PropOp34
 70
     0
102
RTVSPost2010Prop35
280
     0
102
RTVSPost2010PropOp35
 70
     0
102
RTVSPost2010Prop36
280
     0
102
RTVSPost2010PropOp36
 70
     0
102
RTVSPost2010Prop37
 90
       50
102
RTVSPost2010PropOp37
 70
     0
102
RTVSPost2010Prop38
140
0.0
102
RTVSPost2010PropOp38
 70
     0
102
RTVSPost2010Prop39
140
1.0
102
RTVSPost2010PropOp39
 70
     0
102
RTVSPost2010Prop40
 90
        0
102
RTVSPost2010PropOp40
 70
     0
102
RTVSPost2010Prop41ColorIndex
 90
       18
102
RTVSPost2010Prop41ColorRGB
 90
        0
102
RTVSPost2010PropOp41
 70
     0
102
RTVSPost2010Prop42
 90
       50
102
RTVSPost2010PropOp42
 70
     0
102
RTVSPost2010Prop43
 90
        3
102
RTVSPost2010PropOp43
 70
     0
102
RTVSPost2010Prop44ColorIndex
 90
        5
102
RTVSPost2010Prop44ColorRGB
 90
      255
102
RTVSPost2010PropOp44
 70
     0
102
RTVSPost2010Prop45
280
     0
102
RTVSPost2010PropOp45
 70
     0
102
RTVSPost2010Prop46
 90
       50
102
RTVSPost2010PropOp46
 70
     0
102
RTVSPost2010Prop47
 90
       50
102
RTVSPost2010PropOp47
 70
     0
102
RTVSPost2010Prop48
 90
       50
102
RTVSPost2010PropOp48
 70
     0
102
RTVSPost2010Prop49
280
     0
102
RTVSPost2010PropOp49
 70
     0
102
RTVSPost2010Prop50
 90
       50
102
RTVSPost2010PropOp50
 70
     0
102
RTVSPost2010Prop51ColorIndex
 90
      256
102
RTVSPost2010Prop51ColorRGB
 90
-16777216
102
RTVSPost2010PropOp51
 70
     0
102
RTVSPost2010Prop52
140
1.0
102
RTVSPost2010PropOp52
 70
     0
102
RTVSPost2010Prop53
 90
        2
102
RTVSPost2010PropOp53
 70
     0
102
RTVSPost2010Prop54
  1
strokes_ogs.tif
102
RTVSPost2010PropOp54
 70
     0
102
RTVSPost2010Prop55
280
     0
102
RTVSPost2010PropOp55
 70
     0
102
RTVSPost2010Prop56
140
1.0
102
RTVSPost2010PropOp56
 70
     0
102
RTVSPost2010Prop57
140
1.0
102
RTVSPost2010PropOp57
 70
     0
  0
XRECORD
  5
300
102
{ACAD_REACTORS
330
2FF
102
}
330
2FF
100
AcDbXrecord
280
     1
102
RTVSPropertyOp0
 70
     1
102
RTVSPropertyOp1
 70
     1
102
RTVSPropertyOp2
 70
     1
102
RTVSPropertyOp3
 70
     1
102
RTVSPropertyOp4
 70
     1
102
RTVSPropertyOp5
 70
     1
102
RTVSPropertyOp6
 70
     1
102
RTVSPropertyOp7
 70
     1
102
RTVSPropertyOp8
 70
     1
102
RTVSPropertyOp9
 70
     1
102
RTVSPropertyOp10
 70
     1
102
RTVSPropertyOp11
 70
     1
102
RTVSPropertyOp12
 70
     1
102
RTVSPropertyOp13
 70
     1
102
RTVSPropertyOp14
 70
     1
102
RTVSPropertyOp15
 70
     1
102
RTVSPropertyOp16
 70
     1
102
RTVSPropertyOp17
 70
     1
102
RTVSPropertyOp18
 70
     1
102
RTVSPropertyOp19
 70
     1
102
RTVSPropertyOp20
 70
     1
102
RTVSPropertyOp21
 70
     1
102
RTVSPropertyOp22
 70
     1
102
RTVSPropertyOp23
 70
     1
102
RTVSPropertyOp24
 70
     1
102
RTVSPropertyOp25
 70
     1
102
RTVSPropertyOp26
 70
     1
102
RTVSPropertyOp27
 70
     1
102
RTVSPropertyOp28
 70
     1
102
RTVSPropertyOp29
 70
     1
102
RTVSPropertyOp30
 70
     1
102
RTVSPropertyOp31
 70
     1
102
RTVSPropertyOp32
 70
     1
102
RTVSPropertyOp33
 70
     1
102
RTVSPropertyOp34
 70
     1
102
RTVSPropertyOp35
 70
     1
102
RTVSPropertyOp36
 70
     1
102
RTVSPropertyOp37
 70
     1
102
RTVSPropertyOp38
 70
     1
102
RTVSPropertyOp39
 70
     1
102
RTVSPropertyOp40
 70
     1
102
RTVSPropertyOp41
 70
     1
102
RTVSPropertyOp42
 70
     1
102
RTVSPropertyOp43
 70
     1
102
RTVSPropertyOp44
 70
     1
102
RTVSPropertyOp45
 70
     1
102
RTVSPropertyOp46
 70
     1
102
RTVSPropertyOp47
 70
     1
102
RTVSPropertyOp48
 70
     1
102
RTVSPropertyOp49
 70
     1
102
RTVSPropertyOp50
 70
     1
102
RTVSPropertyOp51
 70
     0
102
RTVSPropertyOp52
 70
     0
102
RTVSPropertyOp53
 70
     1
102
RTVSPropertyOp54
 70
     1
102
RTVSPropertyOp55
 70
     1
102
RTVSPropertyOp56
 70
     1
102
RTVSPropertyOp57
 70
     1
102
RTVSPost2010Prop28
280
     0
102
RTVSPost2010PropOp28
 70
     1
102
RTVSPost2010Prop29
280
     1
102
RTVSPost2010PropOp29
 70
     1
102
RTVSPost2010Prop30
280
     1
102
RTVSPost2010PropOp30
 70
     1
102
RTVSPost2010Prop31
280
     0
102
RTVSPost2010PropOp31
 70
     1
102
RTVSPost2010Prop32
280
     0
102
RTVSPost2010PropOp32
 70
     1
102
RTVSPost2010Prop33
280
     0
102
RTVSPost2010PropOp33
 70
     1
102
RTVSPost2010Prop34
280
     0
102
RTVSPost2010PropOp34
 70
     1
102
RTVSPost2010Prop35
280
     0
102
RTVSPost2010PropOp35
 70
     1
102
RTVSPost2010Prop36
280
     0
102
RTVSPost2010PropOp36
 70
     1
102
RTVSPost2010Prop37
 90
       50
102
RTVSPost2010PropOp37
 70
     1
102
RTVSPost2010Prop38
140
0.0
102
RTVSPost2010PropOp38
 70
     1
102
RTVSPost2010Prop39
140
1.0
102
RTVSPost2010PropOp39
 70
     1
102
RTVSPost2010Prop40
 90
        0
102
RTVSPost2010PropOp40
 70
     1
102
RTVSPost2010Prop41ColorIndex
 90
       18
102
RTVSPost2010Prop41ColorRGB
 90
        0
102
RTVSPost2010PropOp41
 70
     1
102
RTVSPost2010Prop42
 90
       50
102
RTVSPost2010PropOp42
 70
     1
102
RTVSPost2010Prop43
 90
        3
102
RTVSPost2010PropOp43
 70
     1
102
RTVSPost2010Prop44ColorIndex
 90
        5
102
RTVSPost2010Prop44ColorRGB
 90
      255
102
RTVSPost2010PropOp44
 70
     1
102
RTVSPost2010Prop45
280
     0
102
RTVSPost2010PropOp45
 70
     1
102
RTVSPost2010Prop46
 90
       50
102
RTVSPost2010PropOp46
 70
     1
102
RTVSPost2010Prop47
 90
       50
102
RTVSPost2010PropOp47
 70
     1
102
RTVSPost2010Prop48
 90
       50
102
RTVSPost2010PropOp48
 70
     1
102
RTVSPost2010Prop49
280
     0
102
RTVSPost2010PropOp49
 70
     1
102
RTVSPost2010Prop50
 90
       50
102
RTVSPost2010PropOp50
 70
     1
102
RTVSPost2010Prop51ColorIndex
 90
      256
102
RTVSPost2010Prop51ColorRGB
 90
-16777216
102
RTVSPost2010PropOp51
 70
     0
102
RTVSPost2010Prop52
140
1.0
102
RTVSPost2010PropOp52
 70
     0
102
RTVSPost2010Prop53
 90
        2
102
RTVSPost2010PropOp53
 70
     1
102
RTVSPost2010Prop54
  1
strokes_ogs.tif
102
RTVSPost2010PropOp54
 70
     1
102
RTVSPost2010Prop55
280
     0
102
RTVSPost2010PropOp55
 70
     1
102
RTVSPost2010Prop56
140
1.0
102
RTVSPost2010PropOp56
 70
     1
102
RTVSPost2010Prop57
140
1.0
102
RTVSPost2010PropOp57
 70
     1
  0
XRECORD
  5
308
102
{ACAD_REACTORS
330
307
102
}
330
307
100
AcDbXrecord
280
     1
102
RTVSPropertyOp0
 70
     0
102
RTVSPropertyOp1
 70
     0
102
RTVSPropertyOp2
 70
     0
102
RTVSPropertyOp3
 70
     0
102
RTVSPropertyOp4
 70
     0
102
RTVSPropertyOp5
 70
     0
102
RTVSPropertyOp6
 70
     0
102
RTVSPropertyOp7
 70
     0
102
RTVSPropertyOp8
 70
     0
102
RTVSPropertyOp9
 70
     0
102
RTVSPropertyOp10
 70
     0
102
RTVSPropertyOp11
 70
     0
102
RTVSPropertyOp12
 70
     0
102
RTVSPropertyOp13
 70
     0
102
RTVSPropertyOp14
 70
     2
102
RTVSPropertyOp15
 70
     0
102
RTVSPropertyOp16
 70
     0
102
RTVSPropertyOp17
 70
     0
102
RTVSPropertyOp18
 70
     0
102
RTVSPropertyOp19
 70
     0
102
RTVSPropertyOp20
 70
     0
102
RTVSPropertyOp21
 70
     0
102
RTVSPropertyOp22
 70
     0
102
RTVSPropertyOp23
 70
     0
102
RTVSPropertyOp24
 70
     0
102
RTVSPropertyOp25
 70
     0
102
RTVSPropertyOp26
 70
     0
102
RTVSPropertyOp27
 70
     0
102
RTVSPropertyOp28
 70
     0
102
RTVSPropertyOp29
 70
     0
102
RTVSPropertyOp30
 70
     0
102
RTVSPropertyOp31
 70
     0
102
RTVSPropertyOp32
 70
     0
102
RTVSPropertyOp33
 70
     0
102
RTVSPropertyOp34
 70
     0
102
RTVSPropertyOp35
 70
     0
102
RTVSPropertyOp36
 70
     0
102
RTVSPropertyOp37
 70
     0
102
RTVSPropertyOp38
 70
     0
102
RTVSPropertyOp39
 70
     0
102
RTVSPropertyOp40
 70
     0
102
RTVSPropertyOp41
 70
     0
102
RTVSPropertyOp42
 70
     0
102
RTVSPropertyOp43
 70
     0
102
RTVSPropertyOp44
 70
     0
102
RTVSPropertyOp45
 70
     0
102
RTVSPropertyOp46
 70
     0
102
RTVSPropertyOp47
 70
     0
102
RTVSPropertyOp48
 70
     0
102
RTVSPropertyOp49
 70
     0
102
RTVSPropertyOp50
 70
     0
102
RTVSPropertyOp51
 70
     0
102
RTVSPropertyOp52
 70
     0
102
RTVSPropertyOp53
 70
     0
102
RTVSPropertyOp54
 70
     0
102
RTVSPropertyOp55
 70
     0
102
RTVSPropertyOp56
 70
     0
102
RTVSPropertyOp57
 70
     0
102
RTVSPost2010Prop28
280
     0
102
RTVSPost2010PropOp28
 70
     0
102
RTVSPost2010Prop29
280
     1
102
RTVSPost2010PropOp29
 70
     0
102
RTVSPost2010Prop30
280
     1
102
RTVSPost2010PropOp30
 70
     0
102
RTVSPost2010Prop31
280
     0
102
RTVSPost2010PropOp31
 70
     0
102
RTVSPost2010Prop32
280
     0
102
RTVSPost2010PropOp32
 70
     0
102
RTVSPost2010Prop33
280
     0
102
RTVSPost2010PropOp33
 70
     0
102
RTVSPost2010Prop34
280
     0
102
RTVSPost2010PropOp34
 70
     0
102
RTVSPost2010Prop35
280
     0
102
RTVSPost2010PropOp35
 70
     0
102
RTVSPost2010Prop36
280
     0
102
RTVSPost2010PropOp36
 70
     0
102
RTVSPost2010Prop37
 90
       50
102
RTVSPost2010PropOp37
 70
     0
102
RTVSPost2010Prop38
140
0.0
102
RTVSPost2010PropOp38
 70
     0
102
RTVSPost2010Prop39
140
1.0
102
RTVSPost2010PropOp39
 70
     0
102
RTVSPost2010Prop40
 90
        0
102
RTVSPost2010PropOp40
 70
     0
102
RTVSPost2010Prop41ColorIndex
 90
       18
102
RTVSPost2010Prop41ColorRGB
 90
        0
102
RTVSPost2010PropOp41
 70
     0
102
RTVSPost2010Prop42
 90
       50
102
RTVSPost2010PropOp42
 70
     0
102
RTVSPost2010Prop43
 90
        3
102
RTVSPost2010PropOp43
 70
     0
102
RTVSPost2010Prop44ColorIndex
 90
        5
102
RTVSPost2010Prop44ColorRGB
 90
      255
102
RTVSPost2010PropOp44
 70
     0
102
RTVSPost2010Prop45
280
     0
102
RTVSPost2010PropOp45
 70
     0
102
RTVSPost2010Prop46
 90
       50
102
RTVSPost2010PropOp46
 70
     0
102
RTVSPost2010Prop47
 90
       50
102
RTVSPost2010PropOp47
 70
     0
102
RTVSPost2010Prop48
 90
       50
102
RTVSPost2010PropOp48
 70
     0
102
RTVSPost2010Prop49
280
     0
102
RTVSPost2010PropOp49
 70
     0
102
RTVSPost2010Prop50
 90
       50
102
RTVSPost2010PropOp50
 70
     0
102
RTVSPost2010Prop51ColorIndex
 90
      256
102
RTVSPost2010Prop51ColorRGB
 90
-16777216
102
RTVSPost2010PropOp51
 70
     0
102
RTVSPost2010Prop52
140
1.0
102
RTVSPost2010PropOp52
 70
     0
102
RTVSPost2010Prop53
 90
        2
102
RTVSPost2010PropOp53
 70
     0
102
RTVSPost2010Prop54
  1
strokes_ogs.tif
102
RTVSPost2010PropOp54
 70
     0
102
RTVSPost2010Prop55
280
     0
102
RTVSPost2010PropOp55
 70
     0
102
RTVSPost2010Prop56
140
1.0
102
RTVSPost2010PropOp56
 70
     0
102
RTVSPost2010Prop57
140
1.0
102
RTVSPost2010PropOp57
 70
     0
  0
XRECORD
  5
2F6
102
{ACAD_REACTORS
330
2F5
102
}
330
2F5
100
AcDbXrecord
280
     1
102
RTVSPropertyOp0
 70
     1
102
RTVSPropertyOp1
 70
     1
102
RTVSPropertyOp2
 70
     1
102
RTVSPropertyOp3
 70
     1
102
RTVSPropertyOp4
 70
     1
102
RTVSPropertyOp5
 70
     1
102
RTVSPropertyOp6
 70
     1
102
RTVSPropertyOp7
 70
     1
102
RTVSPropertyOp8
 70
     1
102
RTVSPropertyOp9
 70
     1
102
RTVSPropertyOp10
 70
     1
102
RTVSPropertyOp11
 70
     1
102
RTVSPropertyOp12
 70
     1
102
RTVSPropertyOp13
 70
     1
102
RTVSPropertyOp14
 70
     1
102
RTVSPropertyOp15
 70
     1
102
RTVSPropertyOp16
 70
     1
102
RTVSPropertyOp17
 70
     1
102
RTVSPropertyOp18
 70
     1
102
RTVSPropertyOp19
 70
     1
102
RTVSPropertyOp20
 70
     1
102
RTVSPropertyOp21
 70
     1
102
RTVSPropertyOp22
 70
     1
102
RTVSPropertyOp23
 70
     1
102
RTVSPropertyOp24
 70
     1
102
RTVSPropertyOp25
 70
     1
102
RTVSPropertyOp26
 70
     1
102
RTVSPropertyOp27
 70
     1
102
RTVSPropertyOp28
 70
     1
102
RTVSPropertyOp29
 70
     1
102
RTVSPropertyOp30
 70
     1
102
RTVSPropertyOp31
 70
     1
102
RTVSPropertyOp32
 70
     1
102
RTVSPropertyOp33
 70
     1
102
RTVSPropertyOp34
 70
     1
102
RTVSPropertyOp35
 70
     1
102
RTVSPropertyOp36
 70
     1
102
RTVSPropertyOp37
 70
     1
102
RTVSPropertyOp38
 70
     1
102
RTVSPropertyOp39
 70
     1
102
RTVSPropertyOp40
 70
     1
102
RTVSPropertyOp41
 70
     1
102
RTVSPropertyOp42
 70
     1
102
RTVSPropertyOp43
 70
     1
102
RTVSPropertyOp44
 70
     1
102
RTVSPropertyOp45
 70
     1
102
RTVSPropertyOp46
 70
     1
102
RTVSPropertyOp47
 70
     1
102
RTVSPropertyOp48
 70
     1
102
RTVSPropertyOp49
 70
     1
102
RTVSPropertyOp50
 70
     1
102
RTVSPropertyOp51
 70
     0
102
RTVSPropertyOp52
 70
     0
102
RTVSPropertyOp53
 70
     1
102
RTVSPropertyOp54
 70
     1
102
RTVSPropertyOp55
 70
     1
102
RTVSPropertyOp56
 70
     1
102
RTVSPropertyOp57
 70
     1
102
RTVSPost2010Prop28
280
     0
102
RTVSPost2010PropOp28
 70
     1
102
RTVSPost2010Prop29
280
     1
102
RTVSPost2010PropOp29
 70
     1
102
RTVSPost2010Prop30
280
     1
102
RTVSPost2010PropOp30
 70
     1
102
RTVSPost2010Prop31
280
     0
102
RTVSPost2010PropOp31
 70
     1
102
RTVSPost2010Prop32
280
     0
102
RTVSPost2010PropOp32
 70
     1
102
RTVSPost2010Prop33
280
     0
102
RTVSPost2010PropOp33
 70
     1
102
RTVSPost2010Prop34
280
     0
102
RTVSPost2010PropOp34
 70
     1
102
RTVSPost2010Prop35
280
     0
102
RTVSPost2010PropOp35
 70
     1
102
RTVSPost2010Prop36
280
     0
102
RTVSPost2010PropOp36
 70
     1
102
RTVSPost2010Prop37
 90
       50
102
RTVSPost2010PropOp37
 70
     1
102
RTVSPost2010Prop38
140
0.0
102
RTVSPost2010PropOp38
 70
     1
102
RTVSPost2010Prop39
140
1.0
102
RTVSPost2010PropOp39
 70
     1
102
RTVSPost2010Prop40
 90
        0
102
RTVSPost2010PropOp40
 70
     1
102
RTVSPost2010Prop41ColorIndex
 90
       18
102
RTVSPost2010Prop41ColorRGB
 90
        0
102
RTVSPost2010PropOp41
 70
     1
102
RTVSPost2010Prop42
 90
       50
102
RTVSPost2010PropOp42
 70
     1
102
RTVSPost2010Prop43
 90
        3
102
RTVSPost2010PropOp43
 70
     1
102
RTVSPost2010Prop44ColorIndex
 90
        5
102
RTVSPost2010Prop44ColorRGB
 90
      255
102
RTVSPost2010PropOp44
 70
     1
102
RTVSPost2010Prop45
280
     0
102
RTVSPost2010PropOp45
 70
     1
102
RTVSPost2010Prop46
 90
       50
102
RTVSPost2010PropOp46
 70
     1
102
RTVSPost2010Prop47
 90
       50
102
RTVSPost2010PropOp47
 70
     1
102
RTVSPost2010Prop48
 90
       50
102
RTVSPost2010PropOp48
 70
     1
102
RTVSPost2010Prop49
280
     0
102
RTVSPost2010PropOp49
 70
     1
102
RTVSPost2010Prop50
 90
       50
102
RTVSPost2010PropOp50
 70
     1
102
RTVSPost2010Prop51ColorIndex
 90
      256
102
RTVSPost2010Prop51ColorRGB
 90
-16777216
102
RTVSPost2010PropOp51
 70
     0
102
RTVSPost2010Prop52
140
1.0
102
RTVSPost2010PropOp52
 70
     0
102
RTVSPost2010Prop53
 90
        2
102
RTVSPost2010PropOp53
 70
     1
102
RTVSPost2010Prop54
  1
strokes_ogs.tif
102
RTVSPost2010PropOp54
 70
     1
102
RTVSPost2010Prop55
280
     0
102
RTVSPost2010PropOp55
 70
     1
102
RTVSPost2010Prop56
140
1.0
102
RTVSPost2010PropOp56
 70
     1
102
RTVSPost2010Prop57
140
1.0
102
RTVSPost2010PropOp57
 70
     1
  0
XRECORD
  5
314
102
{ACAD_REACTORS
330
313
102
}
330
313
100
AcDbXrecord
280
     1
102
RTVSPropertyOp0
 70
     1
102
RTVSPropertyOp1
 70
     1
102
RTVSPropertyOp2
 70
     1
102
RTVSPropertyOp3
 70
     1
102
RTVSPropertyOp4
 70
     1
102
RTVSPropertyOp5
 70
     1
102
RTVSPropertyOp6
 70
     1
102
RTVSPropertyOp7
 70
     1
102
RTVSPropertyOp8
 70
     1
102
RTVSPropertyOp9
 70
     1
102
RTVSPropertyOp10
 70
     1
102
RTVSPropertyOp11
 70
     1
102
RTVSPropertyOp12
 70
     1
102
RTVSPropertyOp13
 70
     1
102
RTVSPropertyOp14
 70
     1
102
RTVSPropertyOp15
 70
     1
102
RTVSPropertyOp16
 70
     1
102
RTVSPropertyOp17
 70
     1
102
RTVSPropertyOp18
 70
     1
102
RTVSPropertyOp19
 70
     1
102
RTVSPropertyOp20
 70
     1
102
RTVSPropertyOp21
 70
     1
102
RTVSPropertyOp22
 70
     1
102
RTVSPropertyOp23
 70
     1
102
RTVSPropertyOp24
 70
     1
102
RTVSPropertyOp25
 70
     1
102
RTVSPropertyOp26
 70
     1
102
RTVSPropertyOp27
 70
     1
102
RTVSPropertyOp28
 70
     1
102
RTVSPropertyOp29
 70
     1
102
RTVSPropertyOp30
 70
     1
102
RTVSPropertyOp31
 70
     1
102
RTVSPropertyOp32
 70
     1
102
RTVSPropertyOp33
 70
     1
102
RTVSPropertyOp34
 70
     1
102
RTVSPropertyOp35
 70
     1
102
RTVSPropertyOp36
 70
     1
102
RTVSPropertyOp37
 70
     1
102
RTVSPropertyOp38
 70
     1
102
RTVSPropertyOp39
 70
     1
102
RTVSPropertyOp40
 70
     1
102
RTVSPropertyOp41
 70
     1
102
RTVSPropertyOp42
 70
     1
102
RTVSPropertyOp43
 70
     1
102
RTVSPropertyOp44
 70
     1
102
RTVSPropertyOp45
 70
     1
102
RTVSPropertyOp46
 70
     1
102
RTVSPropertyOp47
 70
     1
102
RTVSPropertyOp48
 70
     1
102
RTVSPropertyOp49
 70
     1
102
RTVSPropertyOp50
 70
     1
102
RTVSPropertyOp51
 70
     0
102
RTVSPropertyOp52
 70
     0
102
RTVSPropertyOp53
 70
     1
102
RTVSPropertyOp54
 70
     1
102
RTVSPropertyOp55
 70
     1
102
RTVSPropertyOp56
 70
     1
102
RTVSPropertyOp57
 70
     1
102
RTVSPost2010Prop28
280
     0
102
RTVSPost2010PropOp28
 70
     1
102
RTVSPost2010Prop29
280
     1
102
RTVSPost2010PropOp29
 70
     1
102
RTVSPost2010Prop30
280
     1
102
RTVSPost2010PropOp30
 70
     1
102
RTVSPost2010Prop31
280
     0
102
RTVSPost2010PropOp31
 70
     1
102
RTVSPost2010Prop32
280
     0
102
RTVSPost2010PropOp32
 70
     1
102
RTVSPost2010Prop33
280
     0
102
RTVSPost2010PropOp33
 70
     1
102
RTVSPost2010Prop34
280
     0
102
RTVSPost2010PropOp34
 70
     1
102
RTVSPost2010Prop35
280
     0
102
RTVSPost2010PropOp35
 70
     1
102
RTVSPost2010Prop36
280
     0
102
RTVSPost2010PropOp36
 70
     1
102
RTVSPost2010Prop37
 90
       50
102
RTVSPost2010PropOp37
 70
     1
102
RTVSPost2010Prop38
140
0.0
102
RTVSPost2010PropOp38
 70
     1
102
RTVSPost2010Prop39
140
1.0
102
RTVSPost2010PropOp39
 70
     1
102
RTVSPost2010Prop40
 90
        0
102
RTVSPost2010PropOp40
 70
     1
102
RTVSPost2010Prop41ColorIndex
 90
       18
102
RTVSPost2010Prop41ColorRGB
 90
        0
102
RTVSPost2010PropOp41
 70
     1
102
RTVSPost2010Prop42
 90
       50
102
RTVSPost2010PropOp42
 70
     1
102
RTVSPost2010Prop43
 90
        3
102
RTVSPost2010PropOp43
 70
     1
102
RTVSPost2010Prop44ColorIndex
 90
        5
102
RTVSPost2010Prop44ColorRGB
 90
      255
102
RTVSPost2010PropOp44
 70
     1
102
RTVSPost2010Prop45
280
     0
102
RTVSPost2010PropOp45
 70
     1
102
RTVSPost2010Prop46
 90
       50
102
RTVSPost2010PropOp46
 70
     1
102
RTVSPost2010Prop47
 90
       50
102
RTVSPost2010PropOp47
 70
     1
102
RTVSPost2010Prop48
 90
       50
102
RTVSPost2010PropOp48
 70
     1
102
RTVSPost2010Prop49
280
     0
102
RTVSPost2010PropOp49
 70
     1
102
RTVSPost2010Prop50
 90
       50
102
RTVSPost2010PropOp50
 70
     1
102
RTVSPost2010Prop51ColorIndex
 90
      256
102
RTVSPost2010Prop51ColorRGB
 90
-16777216
102
RTVSPost2010PropOp51
 70
     0
102
RTVSPost2010Prop52
140
1.0
102
RTVSPost2010PropOp52
 70
     0
102
RTVSPost2010Prop53
 90
        2
102
RTVSPost2010PropOp53
 70
     1
102
RTVSPost2010Prop54
  1
strokes_ogs.tif
102
RTVSPost2010PropOp54
 70
     1
102
RTVSPost2010Prop55
280
     0
102
RTVSPost2010PropOp55
 70
     1
102
RTVSPost2010Prop56
140
1.0
102
RTVSPost2010PropOp56
 70
     1
102
RTVSPost2010Prop57
140
1.0
102
RTVSPost2010PropOp57
 70
     1
  0
XRECORD
  5
312
102
{ACAD_REACTORS
330
311
102
}
330
311
100
AcDbXrecord
280
     1
102
RTVSPropertyOp0
 70
     1
102
RTVSPropertyOp1
 70
     1
102
RTVSPropertyOp2
 70
     1
102
RTVSPropertyOp3
 70
     1
102
RTVSPropertyOp4
 70
     1
102
RTVSPropertyOp5
 70
     1
102
RTVSPropertyOp6
 70
     1
102
RTVSPropertyOp7
 70
     1
102
RTVSPropertyOp8
 70
     1
102
RTVSPropertyOp9
 70
     1
102
RTVSPropertyOp10
 70
     1
102
RTVSPropertyOp11
 70
     1
102
RTVSPropertyOp12
 70
     1
102
RTVSPropertyOp13
 70
     1
102
RTVSPropertyOp14
 70
     1
102
RTVSPropertyOp15
 70
     1
102
RTVSPropertyOp16
 70
     1
102
RTVSPropertyOp17
 70
     1
102
RTVSPropertyOp18
 70
     1
102
RTVSPropertyOp19
 70
     1
102
RTVSPropertyOp20
 70
     1
102
RTVSPropertyOp21
 70
     1
102
RTVSPropertyOp22
 70
     1
102
RTVSPropertyOp23
 70
     1
102
RTVSPropertyOp24
 70
     1
102
RTVSPropertyOp25
 70
     1
102
RTVSPropertyOp26
 70
     1
102
RTVSPropertyOp27
 70
     1
102
RTVSPropertyOp28
 70
     1
102
RTVSPropertyOp29
 70
     1
102
RTVSPropertyOp30
 70
     1
102
RTVSPropertyOp31
 70
     1
102
RTVSPropertyOp32
 70
     1
102
RTVSPropertyOp33
 70
     1
102
RTVSPropertyOp34
 70
     1
102
RTVSPropertyOp35
 70
     1
102
RTVSPropertyOp36
 70
     1
102
RTVSPropertyOp37
 70
     1
102
RTVSPropertyOp38
 70
     1
102
RTVSPropertyOp39
 70
     1
102
RTVSPropertyOp40
 70
     1
102
RTVSPropertyOp41
 70
     1
102
RTVSPropertyOp42
 70
     1
102
RTVSPropertyOp43
 70
     1
102
RTVSPropertyOp44
 70
     1
102
RTVSPropertyOp45
 70
     1
102
RTVSPropertyOp46
 70
     1
102
RTVSPropertyOp47
 70
     1
102
RTVSPropertyOp48
 70
     1
102
RTVSPropertyOp49
 70
     1
102
RTVSPropertyOp50
 70
     1
102
RTVSPropertyOp51
 70
     0
102
RTVSPropertyOp52
 70
     0
102
RTVSPropertyOp53
 70
     1
102
RTVSPropertyOp54
 70
     1
102
RTVSPropertyOp55
 70
     1
102
RTVSPropertyOp56
 70
     1
102
RTVSPropertyOp57
 70
     1
102
RTVSPost2010Prop28
280
     0
102
RTVSPost2010PropOp28
 70
     1
102
RTVSPost2010Prop29
280
     1
102
RTVSPost2010PropOp29
 70
     1
102
RTVSPost2010Prop30
280
     1
102
RTVSPost2010PropOp30
 70
     1
102
RTVSPost2010Prop31
280
     0
102
RTVSPost2010PropOp31
 70
     1
102
RTVSPost2010Prop32
280
     0
102
RTVSPost2010PropOp32
 70
     1
102
RTVSPost2010Prop33
280
     0
102
RTVSPost2010PropOp33
 70
     1
102
RTVSPost2010Prop34
280
     0
102
RTVSPost2010PropOp34
 70
     1
102
RTVSPost2010Prop35
280
     0
102
RTVSPost2010PropOp35
 70
     1
102
RTVSPost2010Prop36
280
     0
102
RTVSPost2010PropOp36
 70
     1
102
RTVSPost2010Prop37
 90
       50
102
RTVSPost2010PropOp37
 70
     1
102
RTVSPost2010Prop38
140
0.0
102
RTVSPost2010PropOp38
 70
     1
102
RTVSPost2010Prop39
140
1.0
102
RTVSPost2010PropOp39
 70
     1
102
RTVSPost2010Prop40
 90
        0
102
RTVSPost2010PropOp40
 70
     1
102
RTVSPost2010Prop41ColorIndex
 90
       18
102
RTVSPost2010Prop41ColorRGB
 90
        0
102
RTVSPost2010PropOp41
 70
     1
102
RTVSPost2010Prop42
 90
       50
102
RTVSPost2010PropOp42
 70
     1
102
RTVSPost2010Prop43
 90
        3
102
RTVSPost2010PropOp43
 70
     1
102
RTVSPost2010Prop44ColorIndex
 90
        5
102
RTVSPost2010Prop44ColorRGB
 90
      255
102
RTVSPost2010PropOp44
 70
     1
102
RTVSPost2010Prop45
280
     0
102
RTVSPost2010PropOp45
 70
     1
102
RTVSPost2010Prop46
 90
       50
102
RTVSPost2010PropOp46
 70
     1
102
RTVSPost2010Prop47
 90
       50
102
RTVSPost2010PropOp47
 70
     1
102
RTVSPost2010Prop48
 90
       50
102
RTVSPost2010PropOp48
 70
     1
102
RTVSPost2010Prop49
280
     0
102
RTVSPost2010PropOp49
 70
     1
102
RTVSPost2010Prop50
 90
       50
102
RTVSPost2010PropOp50
 70
     1
102
RTVSPost2010Prop51ColorIndex
 90
      256
102
RTVSPost2010Prop51ColorRGB
 90
-16777216
102
RTVSPost2010PropOp51
 70
     0
102
RTVSPost2010Prop52
140
1.0
102
RTVSPost2010PropOp52
 70
     0
102
RTVSPost2010Prop53
 90
        2
102
RTVSPost2010PropOp53
 70
     1
102
RTVSPost2010Prop54
  1
strokes_ogs.tif
102
RTVSPost2010PropOp54
 70
     1
102
RTVSPost2010Prop55
280
     0
102
RTVSPost2010PropOp55
 70
     1
102
RTVSPost2010Prop56
140
1.0
102
RTVSPost2010PropOp56
 70
     1
102
RTVSPost2010Prop57
140
1.0
102
RTVSPost2010PropOp57
 70
     1
  0
XRECORD
  5
30C
102
{ACAD_REACTORS
330
30B
102
}
330
30B
100
AcDbXrecord
280
     1
102
RTVSPropertyOp0
 70
     1
102
RTVSPropertyOp1
 70
     1
102
RTVSPropertyOp2
 70
     1
102
RTVSPropertyOp3
 70
     1
102
RTVSPropertyOp4
 70
     1
102
RTVSPropertyOp5
 70
     1
102
RTVSPropertyOp6
 70
     1
102
RTVSPropertyOp7
 70
     1
102
RTVSPropertyOp8
 70
     1
102
RTVSPropertyOp9
 70
     1
102
RTVSPropertyOp10
 70
     1
102
RTVSPropertyOp11
 70
     1
102
RTVSPropertyOp12
 70
     1
102
RTVSPropertyOp13
 70
     1
102
RTVSPropertyOp14
 70
     1
102
RTVSPropertyOp15
 70
     1
102
RTVSPropertyOp16
 70
     1
102
RTVSPropertyOp17
 70
     1
102
RTVSPropertyOp18
 70
     1
102
RTVSPropertyOp19
 70
     1
102
RTVSPropertyOp20
 70
     1
102
RTVSPropertyOp21
 70
     1
102
RTVSPropertyOp22
 70
     1
102
RTVSPropertyOp23
 70
     1
102
RTVSPropertyOp24
 70
     1
102
RTVSPropertyOp25
 70
     1
102
RTVSPropertyOp26
 70
     1
102
RTVSPropertyOp27
 70
     1
102
RTVSPropertyOp28
 70
     1
102
RTVSPropertyOp29
 70
     1
102
RTVSPropertyOp30
 70
     1
102
RTVSPropertyOp31
 70
     1
102
RTVSPropertyOp32
 70
     1
102
RTVSPropertyOp33
 70
     1
102
RTVSPropertyOp34
 70
     1
102
RTVSPropertyOp35
 70
     1
102
RTVSPropertyOp36
 70
     1
102
RTVSPropertyOp37
 70
     1
102
RTVSPropertyOp38
 70
     1
102
RTVSPropertyOp39
 70
     1
102
RTVSPropertyOp40
 70
     1
102
RTVSPropertyOp41
 70
     1
102
RTVSPropertyOp42
 70
     1
102
RTVSPropertyOp43
 70
     1
102
RTVSPropertyOp44
 70
     1
102
RTVSPropertyOp45
 70
     1
102
RTVSPropertyOp46
 70
     1
102
RTVSPropertyOp47
 70
     1
102
RTVSPropertyOp48
 70
     1
102
RTVSPropertyOp49
 70
     1
102
RTVSPropertyOp50
 70
     1
102
RTVSPropertyOp51
 70
     0
102
RTVSPropertyOp52
 70
     0
102
RTVSPropertyOp53
 70
     1
102
RTVSPropertyOp54
 70
     1
102
RTVSPropertyOp55
 70
     1
102
RTVSPropertyOp56
 70
     1
102
RTVSPropertyOp57
 70
     1
102
RTVSPost2010Prop28
280
     0
102
RTVSPost2010PropOp28
 70
     1
102
RTVSPost2010Prop29
280
     1
102
RTVSPost2010PropOp29
 70
     1
102
RTVSPost2010Prop30
280
     1
102
RTVSPost2010PropOp30
 70
     1
102
RTVSPost2010Prop31
280
     0
102
RTVSPost2010PropOp31
 70
     1
102
RTVSPost2010Prop32
280
     0
102
RTVSPost2010PropOp32
 70
     1
102
RTVSPost2010Prop33
280
     0
102
RTVSPost2010PropOp33
 70
     1
102
RTVSPost2010Prop34
280
     0
102
RTVSPost2010PropOp34
 70
     1
102
RTVSPost2010Prop35
280
     0
102
RTVSPost2010PropOp35
 70
     1
102
RTVSPost2010Prop36
280
     0
102
RTVSPost2010PropOp36
 70
     1
102
RTVSPost2010Prop37
 90
       50
102
RTVSPost2010PropOp37
 70
     1
102
RTVSPost2010Prop38
140
0.0
102
RTVSPost2010PropOp38
 70
     1
102
RTVSPost2010Prop39
140
1.0
102
RTVSPost2010PropOp39
 70
     1
102
RTVSPost2010Prop40
 90
        0
102
RTVSPost2010PropOp40
 70
     1
102
RTVSPost2010Prop41ColorIndex
 90
       18
102
RTVSPost2010Prop41ColorRGB
 90
        0
102
RTVSPost2010PropOp41
 70
     1
102
RTVSPost2010Prop42
 90
       50
102
RTVSPost2010PropOp42
 70
     1
102
RTVSPost2010Prop43
 90
        3
102
RTVSPost2010PropOp43
 70
     1
102
RTVSPost2010Prop44ColorIndex
 90
        5
102
RTVSPost2010Prop44ColorRGB
 90
      255
102
RTVSPost2010PropOp44
 70
     1
102
RTVSPost2010Prop45
280
     0
102
RTVSPost2010PropOp45
 70
     1
102
RTVSPost2010Prop46
 90
       50
102
RTVSPost2010PropOp46
 70
     1
102
RTVSPost2010Prop47
 90
       50
102
RTVSPost2010PropOp47
 70
     1
102
RTVSPost2010Prop48
 90
       50
102
RTVSPost2010PropOp48
 70
     1
102
RTVSPost2010Prop49
280
     0
102
RTVSPost2010PropOp49
 70
     1
102
RTVSPost2010Prop50
 90
       50
102
RTVSPost2010PropOp50
 70
     1
102
RTVSPost2010Prop51ColorIndex
 90
      256
102
RTVSPost2010Prop51ColorRGB
 90
-16777216
102
RTVSPost2010PropOp51
 70
     0
102
RTVSPost2010Prop52
140
1.0
102
RTVSPost2010PropOp52
 70
     0
102
RTVSPost2010Prop53
 90
        2
102
RTVSPost2010PropOp53
 70
     1
102
RTVSPost2010Prop54
  1
strokes_ogs.tif
102
RTVSPost2010PropOp54
 70
     1
102
RTVSPost2010Prop55
280
     0
102
RTVSPost2010PropOp55
 70
     1
102
RTVSPost2010Prop56
140
1.0
102
RTVSPost2010PropOp56
 70
     1
102
RTVSPost2010Prop57
140
1.0
102
RTVSPost2010PropOp57
 70
     1
  0
XRECORD
  5
30E
102
{ACAD_REACTORS
330
30D
102
}
330
30D
100
AcDbXrecord
280
     1
102
RTVSPropertyOp0
 70
     1
102
RTVSPropertyOp1
 70
     1
102
RTVSPropertyOp2
 70
     1
102
RTVSPropertyOp3
 70
     1
102
RTVSPropertyOp4
 70
     1
102
RTVSPropertyOp5
 70
     1
102
RTVSPropertyOp6
 70
     1
102
RTVSPropertyOp7
 70
     1
102
RTVSPropertyOp8
 70
     1
102
RTVSPropertyOp9
 70
     1
102
RTVSPropertyOp10
 70
     1
102
RTVSPropertyOp11
 70
     1
102
RTVSPropertyOp12
 70
     1
102
RTVSPropertyOp13
 70
     1
102
RTVSPropertyOp14
 70
     1
102
RTVSPropertyOp15
 70
     1
102
RTVSPropertyOp16
 70
     1
102
RTVSPropertyOp17
 70
     1
102
RTVSPropertyOp18
 70
     1
102
RTVSPropertyOp19
 70
     1
102
RTVSPropertyOp20
 70
     1
102
RTVSPropertyOp21
 70
     1
102
RTVSPropertyOp22
 70
     1
102
RTVSPropertyOp23
 70
     1
102
RTVSPropertyOp24
 70
     1
102
RTVSPropertyOp25
 70
     1
102
RTVSPropertyOp26
 70
     1
102
RTVSPropertyOp27
 70
     1
102
RTVSPropertyOp28
 70
     1
102
RTVSPropertyOp29
 70
     1
102
RTVSPropertyOp30
 70
     1
102
RTVSPropertyOp31
 70
     1
102
RTVSPropertyOp32
 70
     1
102
RTVSPropertyOp33
 70
     1
102
RTVSPropertyOp34
 70
     1
102
RTVSPropertyOp35
 70
     1
102
RTVSPropertyOp36
 70
     1
102
RTVSPropertyOp37
 70
     1
102
RTVSPropertyOp38
 70
     1
102
RTVSPropertyOp39
 70
     1
102
RTVSPropertyOp40
 70
     1
102
RTVSPropertyOp41
 70
     1
102
RTVSPropertyOp42
 70
     1
102
RTVSPropertyOp43
 70
     1
102
RTVSPropertyOp44
 70
     1
102
RTVSPropertyOp45
 70
     1
102
RTVSPropertyOp46
 70
     1
102
RTVSPropertyOp47
 70
     1
102
RTVSPropertyOp48
 70
     1
102
RTVSPropertyOp49
 70
     1
102
RTVSPropertyOp50
 70
     1
102
RTVSPropertyOp51
 70
     0
102
RTVSPropertyOp52
 70
     0
102
RTVSPropertyOp53
 70
     1
102
RTVSPropertyOp54
 70
     1
102
RTVSPropertyOp55
 70
     1
102
RTVSPropertyOp56
 70
     1
102
RTVSPropertyOp57
 70
     1
102
RTVSPost2010Prop28
280
     0
102
RTVSPost2010PropOp28
 70
     1
102
RTVSPost2010Prop29
280
     1
102
RTVSPost2010PropOp29
 70
     1
102
RTVSPost2010Prop30
280
     1
102
RTVSPost2010PropOp30
 70
     1
102
RTVSPost2010Prop31
280
     0
102
RTVSPost2010PropOp31
 70
     1
102
RTVSPost2010Prop32
280
     0
102
RTVSPost2010PropOp32
 70
     1
102
RTVSPost2010Prop33
280
     0
102
RTVSPost2010PropOp33
 70
     1
102
RTVSPost2010Prop34
280
     0
102
RTVSPost2010PropOp34
 70
     1
102
RTVSPost2010Prop35
280
     0
102
RTVSPost2010PropOp35
 70
     1
102
RTVSPost2010Prop36
280
     0
102
RTVSPost2010PropOp36
 70
     1
102
RTVSPost2010Prop37
 90
       50
102
RTVSPost2010PropOp37
 70
     1
102
RTVSPost2010Prop38
140
0.0
102
RTVSPost2010PropOp38
 70
     1
102
RTVSPost2010Prop39
140
1.0
102
RTVSPost2010PropOp39
 70
     1
102
RTVSPost2010Prop40
 90
        0
102
RTVSPost2010PropOp40
 70
     1
102
RTVSPost2010Prop41ColorIndex
 90
       18
102
RTVSPost2010Prop41ColorRGB
 90
        0
102
RTVSPost2010PropOp41
 70
     1
102
RTVSPost2010Prop42
 90
       50
102
RTVSPost2010PropOp42
 70
     1
102
RTVSPost2010Prop43
 90
        3
102
RTVSPost2010PropOp43
 70
     1
102
RTVSPost2010Prop44ColorIndex
 90
        5
102
RTVSPost2010Prop44ColorRGB
 90
      255
102
RTVSPost2010PropOp44
 70
     1
102
RTVSPost2010Prop45
280
     0
102
RTVSPost2010PropOp45
 70
     1
102
RTVSPost2010Prop46
 90
       50
102
RTVSPost2010PropOp46
 70
     1
102
RTVSPost2010Prop47
 90
       50
102
RTVSPost2010PropOp47
 70
     1
102
RTVSPost2010Prop48
 90
       50
102
RTVSPost2010PropOp48
 70
     1
102
RTVSPost2010Prop49
280
     0
102
RTVSPost2010PropOp49
 70
     1
102
RTVSPost2010Prop50
 90
       50
102
RTVSPost2010PropOp50
 70
     1
102
RTVSPost2010Prop51ColorIndex
 90
      256
102
RTVSPost2010Prop51ColorRGB
 90
-16777216
102
RTVSPost2010PropOp51
 70
     0
102
RTVSPost2010Prop52
140
1.0
102
RTVSPost2010PropOp52
 70
     0
102
RTVSPost2010Prop53
 90
        2
102
RTVSPost2010PropOp53
 70
     1
102
RTVSPost2010Prop54
  1
strokes_ogs.tif
102
RTVSPost2010PropOp54
 70
     1
102
RTVSPost2010Prop55
280
     0
102
RTVSPost2010PropOp55
 70
     1
102
RTVSPost2010Prop56
140
1.0
102
RTVSPost2010PropOp56
 70
     1
102
RTVSPost2010Prop57
140
1.0
102
RTVSPost2010PropOp57
 70
     1
  0
XRECORD
  5
2FE
102
{ACAD_REACTORS
330
2FD
102
}
330
2FD
100
AcDbXrecord
280
     1
102
RTVSPropertyOp0
 70
     1
102
RTVSPropertyOp1
 70
     1
102
RTVSPropertyOp2
 70
     1
102
RTVSPropertyOp3
 70
     1
102
RTVSPropertyOp4
 70
     1
102
RTVSPropertyOp5
 70
     1
102
RTVSPropertyOp6
 70
     1
102
RTVSPropertyOp7
 70
     1
102
RTVSPropertyOp8
 70
     1
102
RTVSPropertyOp9
 70
     1
102
RTVSPropertyOp10
 70
     1
102
RTVSPropertyOp11
 70
     1
102
RTVSPropertyOp12
 70
     1
102
RTVSPropertyOp13
 70
     1
102
RTVSPropertyOp14
 70
     1
102
RTVSPropertyOp15
 70
     1
102
RTVSPropertyOp16
 70
     1
102
RTVSPropertyOp17
 70
     1
102
RTVSPropertyOp18
 70
     1
102
RTVSPropertyOp19
 70
     1
102
RTVSPropertyOp20
 70
     1
102
RTVSPropertyOp21
 70
     1
102
RTVSPropertyOp22
 70
     1
102
RTVSPropertyOp23
 70
     1
102
RTVSPropertyOp24
 70
     1
102
RTVSPropertyOp25
 70
     1
102
RTVSPropertyOp26
 70
     1
102
RTVSPropertyOp27
 70
     1
102
RTVSPropertyOp28
 70
     1
102
RTVSPropertyOp29
 70
     1
102
RTVSPropertyOp30
 70
     1
102
RTVSPropertyOp31
 70
     1
102
RTVSPropertyOp32
 70
     1
102
RTVSPropertyOp33
 70
     1
102
RTVSPropertyOp34
 70
     1
102
RTVSPropertyOp35
 70
     1
102
RTVSPropertyOp36
 70
     1
102
RTVSPropertyOp37
 70
     1
102
RTVSPropertyOp38
 70
     1
102
RTVSPropertyOp39
 70
     1
102
RTVSPropertyOp40
 70
     1
102
RTVSPropertyOp41
 70
     1
102
RTVSPropertyOp42
 70
     1
102
RTVSPropertyOp43
 70
     1
102
RTVSPropertyOp44
 70
     1
102
RTVSPropertyOp45
 70
     1
102
RTVSPropertyOp46
 70
     1
102
RTVSPropertyOp47
 70
     1
102
RTVSPropertyOp48
 70
     1
102
RTVSPropertyOp49
 70
     1
102
RTVSPropertyOp50
 70
     1
102
RTVSPropertyOp51
 70
     0
102
RTVSPropertyOp52
 70
     0
102
RTVSPropertyOp53
 70
     1
102
RTVSPropertyOp54
 70
     1
102
RTVSPropertyOp55
 70
     1
102
RTVSPropertyOp56
 70
     1
102
RTVSPropertyOp57
 70
     1
102
RTVSPost2010Prop28
280
     0
102
RTVSPost2010PropOp28
 70
     1
102
RTVSPost2010Prop29
280
     1
102
RTVSPost2010PropOp29
 70
     1
102
RTVSPost2010Prop30
280
     1
102
RTVSPost2010PropOp30
 70
     1
102
RTVSPost2010Prop31
280
     0
102
RTVSPost2010PropOp31
 70
     1
102
RTVSPost2010Prop32
280
     0
102
RTVSPost2010PropOp32
 70
     1
102
RTVSPost2010Prop33
280
     0
102
RTVSPost2010PropOp33
 70
     1
102
RTVSPost2010Prop34
280
     0
102
RTVSPost2010PropOp34
 70
     1
102
RTVSPost2010Prop35
280
     0
102
RTVSPost2010PropOp35
 70
     1
102
RTVSPost2010Prop36
280
     0
102
RTVSPost2010PropOp36
 70
     1
102
RTVSPost2010Prop37
 90
       50
102
RTVSPost2010PropOp37
 70
     1
102
RTVSPost2010Prop38
140
0.0
102
RTVSPost2010PropOp38
 70
     1
102
RTVSPost2010Prop39
140
1.0
102
RTVSPost2010PropOp39
 70
     1
102
RTVSPost2010Prop40
 90
        0
102
RTVSPost2010PropOp40
 70
     1
102
RTVSPost2010Prop41ColorIndex
 90
       18
102
RTVSPost2010Prop41ColorRGB
 90
        0
102
RTVSPost2010PropOp41
 70
     1
102
RTVSPost2010Prop42
 90
       50
102
RTVSPost2010PropOp42
 70
     1
102
RTVSPost2010Prop43
 90
        3
102
RTVSPost2010PropOp43
 70
     1
102
RTVSPost2010Prop44ColorIndex
 90
        5
102
RTVSPost2010Prop44ColorRGB
 90
      255
102
RTVSPost2010PropOp44
 70
     1
102
RTVSPost2010Prop45
280
     0
102
RTVSPost2010PropOp45
 70
     1
102
RTVSPost2010Prop46
 90
       50
102
RTVSPost2010PropOp46
 70
     1
102
RTVSPost2010Prop47
 90
       50
102
RTVSPost2010PropOp47
 70
     1
102
RTVSPost2010Prop48
 90
       50
102
RTVSPost2010PropOp48
 70
     1
102
RTVSPost2010Prop49
280
     0
102
RTVSPost2010PropOp49
 70
     1
102
RTVSPost2010Prop50
 90
       50
102
RTVSPost2010PropOp50
 70
     1
102
RTVSPost2010Prop51ColorIndex
 90
      256
102
RTVSPost2010Prop51ColorRGB
 90
-16777216
102
RTVSPost2010PropOp51
 70
     0
102
RTVSPost2010Prop52
140
1.0
102
RTVSPost2010PropOp52
 70
     0
102
RTVSPost2010Prop53
 90
        2
102
RTVSPost2010PropOp53
 70
     1
102
RTVSPost2010Prop54
  1
strokes_ogs.tif
102
RTVSPost2010PropOp54
 70
     1
102
RTVSPost2010Prop55
280
     0
102
RTVSPost2010PropOp55
 70
     1
102
RTVSPost2010Prop56
140
1.0
102
RTVSPost2010PropOp56
 70
     1
102
RTVSPost2010Prop57
140
1.0
102
RTVSPost2010PropOp57
 70
     1
  0
XRECORD
  5
2F0
102
{ACAD_REACTORS
330
2EF
102
}
330
2EF
100
AcDbXrecord
280
     1
102
RTVSPropertyOp0
 70
     1
102
RTVSPropertyOp1
 70
     1
102
RTVSPropertyOp2
 70
     1
102
RTVSPropertyOp3
 70
     1
102
RTVSPropertyOp4
 70
     1
102
RTVSPropertyOp5
 70
     1
102
RTVSPropertyOp6
 70
     1
102
RTVSPropertyOp7
 70
     1
102
RTVSPropertyOp8
 70
     1
102
RTVSPropertyOp9
 70
     1
102
RTVSPropertyOp10
 70
     1
102
RTVSPropertyOp11
 70
     1
102
RTVSPropertyOp12
 70
     1
102
RTVSPropertyOp13
 70
     1
102
RTVSPropertyOp14
 70
     1
102
RTVSPropertyOp15
 70
     1
102
RTVSPropertyOp16
 70
     1
102
RTVSPropertyOp17
 70
     1
102
RTVSPropertyOp18
 70
     1
102
RTVSPropertyOp19
 70
     1
102
RTVSPropertyOp20
 70
     1
102
RTVSPropertyOp21
 70
     1
102
RTVSPropertyOp22
 70
     1
102
RTVSPropertyOp23
 70
     1
102
RTVSPropertyOp24
 70
     1
102
RTVSPropertyOp25
 70
     1
102
RTVSPropertyOp26
 70
     1
102
RTVSPropertyOp27
 70
     1
102
RTVSPropertyOp28
 70
     1
102
RTVSPropertyOp29
 70
     1
102
RTVSPropertyOp30
 70
     1
102
RTVSPropertyOp31
 70
     1
102
RTVSPropertyOp32
 70
     1
102
RTVSPropertyOp33
 70
     1
102
RTVSPropertyOp34
 70
     1
102
RTVSPropertyOp35
 70
     1
102
RTVSPropertyOp36
 70
     1
102
RTVSPropertyOp37
 70
     1
102
RTVSPropertyOp38
 70
     1
102
RTVSPropertyOp39
 70
     1
102
RTVSPropertyOp40
 70
     1
102
RTVSPropertyOp41
 70
     1
102
RTVSPropertyOp42
 70
     1
102
RTVSPropertyOp43
 70
     1
102
RTVSPropertyOp44
 70
     1
102
RTVSPropertyOp45
 70
     1
102
RTVSPropertyOp46
 70
     1
102
RTVSPropertyOp47
 70
     1
102
RTVSPropertyOp48
 70
     1
102
RTVSPropertyOp49
 70
     1
102
RTVSPropertyOp50
 70
     1
102
RTVSPropertyOp51
 70
     0
102
RTVSPropertyOp52
 70
     0
102
RTVSPropertyOp53
 70
     1
102
RTVSPropertyOp54
 70
     1
102
RTVSPropertyOp55
 70
     1
102
RTVSPropertyOp56
 70
     1
102
RTVSPropertyOp57
 70
     1
102
RTVSPost2010Prop28
280
     0
102
RTVSPost2010PropOp28
 70
     1
102
RTVSPost2010Prop29
280
     1
102
RTVSPost2010PropOp29
 70
     1
102
RTVSPost2010Prop30
280
     1
102
RTVSPost2010PropOp30
 70
     1
102
RTVSPost2010Prop31
280
     0
102
RTVSPost2010PropOp31
 70
     1
102
RTVSPost2010Prop32
280
     0
102
RTVSPost2010PropOp32
 70
     1
102
RTVSPost2010Prop33
280
     0
102
RTVSPost2010PropOp33
 70
     1
102
RTVSPost2010Prop34
280
     0
102
RTVSPost2010PropOp34
 70
     1
102
RTVSPost2010Prop35
280
     0
102
RTVSPost2010PropOp35
 70
     1
102
RTVSPost2010Prop36
280
     0
102
RTVSPost2010PropOp36
 70
     1
102
RTVSPost2010Prop37
 90
       50
102
RTVSPost2010PropOp37
 70
     1
102
RTVSPost2010Prop38
140
0.0
102
RTVSPost2010PropOp38
 70
     1
102
RTVSPost2010Prop39
140
1.0
102
RTVSPost2010PropOp39
 70
     1
102
RTVSPost2010Prop40
 90
        0
102
RTVSPost2010PropOp40
 70
     1
102
RTVSPost2010Prop41ColorIndex
 90
       18
102
RTVSPost2010Prop41ColorRGB
 90
        0
102
RTVSPost2010PropOp41
 70
     1
102
RTVSPost2010Prop42
 90
       50
102
RTVSPost2010PropOp42
 70
     1
102
RTVSPost2010Prop43
 90
        3
102
RTVSPost2010PropOp43
 70
     1
102
RTVSPost2010Prop44ColorIndex
 90
        5
102
RTVSPost2010Prop44ColorRGB
 90
      255
102
RTVSPost2010PropOp44
 70
     1
102
RTVSPost2010Prop45
280
     0
102
RTVSPost2010PropOp45
 70
     1
102
RTVSPost2010Prop46
 90
       50
102
RTVSPost2010PropOp46
 70
     1
102
RTVSPost2010Prop47
 90
       50
102
RTVSPost2010PropOp47
 70
     1
102
RTVSPost2010Prop48
 90
       50
102
RTVSPost2010PropOp48
 70
     1
102
RTVSPost2010Prop49
280
     0
102
RTVSPost2010PropOp49
 70
     1
102
RTVSPost2010Prop50
 90
       50
102
RTVSPost2010PropOp50
 70
     1
102
RTVSPost2010Prop51ColorIndex
 90
      256
102
RTVSPost2010Prop51ColorRGB
 90
-16777216
102
RTVSPost2010PropOp51
 70
     0
102
RTVSPost2010Prop52
140
1.0
102
RTVSPost2010PropOp52
 70
     0
102
RTVSPost2010Prop53
 90
        2
102
RTVSPost2010PropOp53
 70
     1
102
RTVSPost2010Prop54
  1
strokes_ogs.tif
102
RTVSPost2010PropOp54
 70
     1
102
RTVSPost2010Prop55
280
     0
102
RTVSPost2010PropOp55
 70
     1
102
RTVSPost2010Prop56
140
1.0
102
RTVSPost2010PropOp56
 70
     1
102
RTVSPost2010Prop57
140
1.0
102
RTVSPost2010PropOp57
 70
     1
  0
XRECORD
  5
310
102
{ACAD_REACTORS
330
30F
102
}
330
30F
100
AcDbXrecord
280
     1
102
RTVSPropertyOp0
 70
     1
102
RTVSPropertyOp1
 70
     1
102
RTVSPropertyOp2
 70
     1
102
RTVSPropertyOp3
 70
     1
102
RTVSPropertyOp4
 70
     1
102
RTVSPropertyOp5
 70
     1
102
RTVSPropertyOp6
 70
     1
102
RTVSPropertyOp7
 70
     1
102
RTVSPropertyOp8
 70
     1
102
RTVSPropertyOp9
 70
     1
102
RTVSPropertyOp10
 70
     1
102
RTVSPropertyOp11
 70
     1
102
RTVSPropertyOp12
 70
     1
102
RTVSPropertyOp13
 70
     1
102
RTVSPropertyOp14
 70
     1
102
RTVSPropertyOp15
 70
     1
102
RTVSPropertyOp16
 70
     1
102
RTVSPropertyOp17
 70
     1
102
RTVSPropertyOp18
 70
     1
102
RTVSPropertyOp19
 70
     1
102
RTVSPropertyOp20
 70
     1
102
RTVSPropertyOp21
 70
     1
102
RTVSPropertyOp22
 70
     1
102
RTVSPropertyOp23
 70
     1
102
RTVSPropertyOp24
 70
     1
102
RTVSPropertyOp25
 70
     1
102
RTVSPropertyOp26
 70
     1
102
RTVSPropertyOp27
 70
     1
102
RTVSPropertyOp28
 70
     1
102
RTVSPropertyOp29
 70
     1
102
RTVSPropertyOp30
 70
     1
102
RTVSPropertyOp31
 70
     1
102
RTVSPropertyOp32
 70
     1
102
RTVSPropertyOp33
 70
     1
102
RTVSPropertyOp34
 70
     1
102
RTVSPropertyOp35
 70
     1
102
RTVSPropertyOp36
 70
     1
102
RTVSPropertyOp37
 70
     1
102
RTVSPropertyOp38
 70
     1
102
RTVSPropertyOp39
 70
     1
102
RTVSPropertyOp40
 70
     1
102
RTVSPropertyOp41
 70
     1
102
RTVSPropertyOp42
 70
     1
102
RTVSPropertyOp43
 70
     1
102
RTVSPropertyOp44
 70
     1
102
RTVSPropertyOp45
 70
     1
102
RTVSPropertyOp46
 70
     1
102
RTVSPropertyOp47
 70
     1
102
RTVSPropertyOp48
 70
     1
102
RTVSPropertyOp49
 70
     1
102
RTVSPropertyOp50
 70
     1
102
RTVSPropertyOp51
 70
     0
102
RTVSPropertyOp52
 70
     0
102
RTVSPropertyOp53
 70
     1
102
RTVSPropertyOp54
 70
     1
102
RTVSPropertyOp55
 70
     1
102
RTVSPropertyOp56
 70
     1
102
RTVSPropertyOp57
 70
     1
102
RTVSPost2010Prop28
280
     0
102
RTVSPost2010PropOp28
 70
     1
102
RTVSPost2010Prop29
280
     1
102
RTVSPost2010PropOp29
 70
     1
102
RTVSPost2010Prop30
280
     1
102
RTVSPost2010PropOp30
 70
     1
102
RTVSPost2010Prop31
280
     0
102
RTVSPost2010PropOp31
 70
     1
102
RTVSPost2010Prop32
280
     0
102
RTVSPost2010PropOp32
 70
     1
102
RTVSPost2010Prop33
280
     0
102
RTVSPost2010PropOp33
 70
     1
102
RTVSPost2010Prop34
280
     0
102
RTVSPost2010PropOp34
 70
     1
102
RTVSPost2010Prop35
280
     0
102
RTVSPost2010PropOp35
 70
     1
102
RTVSPost2010Prop36
280
     0
102
RTVSPost2010PropOp36
 70
     1
102
RTVSPost2010Prop37
 90
       50
102
RTVSPost2010PropOp37
 70
     1
102
RTVSPost2010Prop38
140
0.0
102
RTVSPost2010PropOp38
 70
     1
102
RTVSPost2010Prop39
140
1.0
102
RTVSPost2010PropOp39
 70
     1
102
RTVSPost2010Prop40
 90
        0
102
RTVSPost2010PropOp40
 70
     1
102
RTVSPost2010Prop41ColorIndex
 90
       18
102
RTVSPost2010Prop41ColorRGB
 90
        0
102
RTVSPost2010PropOp41
 70
     1
102
RTVSPost2010Prop42
 90
       50
102
RTVSPost2010PropOp42
 70
     1
102
RTVSPost2010Prop43
 90
        3
102
RTVSPost2010PropOp43
 70
     1
102
RTVSPost2010Prop44ColorIndex
 90
        5
102
RTVSPost2010Prop44ColorRGB
 90
      255
102
RTVSPost2010PropOp44
 70
     1
102
RTVSPost2010Prop45
280
     0
102
RTVSPost2010PropOp45
 70
     1
102
RTVSPost2010Prop46
 90
       50
102
RTVSPost2010PropOp46
 70
     1
102
RTVSPost2010Prop47
 90
       50
102
RTVSPost2010PropOp47
 70
     1
102
RTVSPost2010Prop48
 90
       50
102
RTVSPost2010PropOp48
 70
     1
102
RTVSPost2010Prop49
280
     0
102
RTVSPost2010PropOp49
 70
     1
102
RTVSPost2010Prop50
 90
       50
102
RTVSPost2010PropOp50
 70
     1
102
RTVSPost2010Prop51ColorIndex
 90
      256
102
RTVSPost2010Prop51ColorRGB
 90
-16777216
102
RTVSPost2010PropOp51
 70
     0
102
RTVSPost2010Prop52
140
1.0
102
RTVSPost2010PropOp52
 70
     0
102
RTVSPost2010Prop53
 90
        2
102
RTVSPost2010PropOp53
 70
     1
102
RTVSPost2010Prop54
  1
strokes_ogs.tif
102
RTVSPost2010PropOp54
 70
     1
102
RTVSPost2010Prop55
280
     0
102
RTVSPost2010PropOp55
 70
     1
102
RTVSPost2010Prop56
140
1.0
102
RTVSPost2010PropOp56
 70
     1
102
RTVSPost2010Prop57
140
1.0
102
RTVSPost2010PropOp57
 70
     1
  0
ENDSEC
  0
EOF
