  0
SECTION
  2
HEADER
  9
$ACADVER
  1
AC1009
  9
$DWGCODEPAGE
  3
ansi_1252
  9
$INSBASE
 10
0.0
 20
0.0
 30
0.0
  9
$EXTMIN
 10
1.000000000000000E+20
 20
1.000000000000000E+20
 30
1.000000000000000E+20
  9
$EXTMAX
 10
-1.000000000000000E+20
 20
-1.000000000000000E+20
 30
-1.000000000000000E+20
  9
$LIMMIN
 10
0.0
 20
0.0
  9
$LIMMAX
 10
12.0
 20
9.0
  9
$ORTHOMODE
 70
     0
  9
$REGENMODE
 70
     1
  9
$FILLMODE
 70
     1
  9
$QTEXTMODE
 70
     0
  9
$MIRRTEXT
 70
     1
  9
$DRAGMODE
 70
     2
  9
$LTSCALE
 40
5.0
  9
$OSMODE
 70
    37
  9
$ATTMODE
 70
     1
  9
$TEXTSIZE
 40
0.2
  9
$TRACEWID
 40
0.05
  9
$TEXTSTYLE
  7
STANDARD
  9
$CLAYER
  8
FISHER_AND_PAYKEL
  9
$CELTYPE
  6
BYLAYER
  9
$CECOLOR
 62
   256
  9
$DIMSCALE
 40
1.0
  9
$DIMASZ
 40
0.18
  9
$DIMEXO
 40
0.0625
  9
$DIMDLI
 40
0.38
  9
$DIMRND
 40
0.0
  9
$DIMDLE
 40
0.0
  9
$DIMEXE
 40
0.18
  9
$DIMTP
 40
0.0
  9
$DIMTM
 40
0.0
  9
$DIMTXT
 40
0.18
  9
$DIMCEN
 40
0.09
  9
$DIMTSZ
 40
0.0
  9
$DIMTOL
 70
     0
  9
$DIMLIM
 70
     0
  9
$DIMTIH
 70
     1
  9
$DIMTOH
 70
     1
  9
$DIMSE1
 70
     0
  9
$DIMSE2
 70
     0
  9
$DIMTAD
 70
     0
  9
$DIMZIN
 70
     0
  9
$DIMBLK
  1

  9
$DIMASO
 70
     1
  9
$DIMSHO
 70
     1
  9
$DIMPOST
  1

  9
$DIMAPOST
  1

  9
$DIMALT
 70
     0
  9
$DIMALTD
 70
     2
  9
$DIMALTF
 40
25.4
  9
$DIMLFAC
 40
1.0
  9
$DIMTOFL
 70
     0
  9
$DIMTVP
 40
0.0
  9
$DIMTIX
 70
     0
  9
$DIMSOXD
 70
     0
  9
$DIMSAH
 70
     0
  9
$DIMBLK1
  1

  9
$DIMBLK2
  1

  9
$DIMSTYLE
  2
STANDARD_ACAD
  9
$DIMCLRD
 70
     0
  9
$DIMCLRE
 70
     0
  9
$DIMCLRT
 70
     0
  9
$DIMTFAC
 40
1.0
  9
$DIMGAP
 40
0.09
  9
$LUNITS
 70
     2
  9
$LUPREC
 70
     3
  9
$SKETCHINC
 40
0.1
  9
$FILLETRAD
 40
0.0
  9
$AUNITS
 70
     0
  9
$AUPREC
 70
     0
  9
$MENU
  1
.
  9
$ELEVATION
 40
0.0
  9
$PELEVATION
 40
0.0
  9
$THICKNESS
 40
0.0
  9
$LIMCHECK
 70
     0
  9
$CHAMFERA
 40
0.0
  9
$CHAMFERB
 40
0.0
  9
$SKPOLY
 70
     0
  9
$TDCREATE
 40
2459411.492498542
  9
$TDUPDATE
 40
2459411.492514445
  9
$TDINDWG
 40
0.0000000116
  9
$TDUSRTIMER
 40
0.0000000116
  9
$USRTIMER
 70
     1
  9
$ANGBASE
 50
0.0
  9
$ANGDIR
 70
     0
  9
$PDMODE
 70
     0
  9
$PDSIZE
 40
0.0
  9
$PLINEWID
 40
0.0
  9
$COORDS
 70
     1
  9
$SPLFRAME
 70
     0
  9
$SPLINETYPE
 70
     6
  9
$SPLINESEGS
 70
     8
  9
$ATTDIA
 70
     0
  9
$ATTREQ
 70
     1
  9
$HANDLING
 70
     1
  9
$HANDSEED
  5
24C
  9
$SURFTAB1
 70
     6
  9
$SURFTAB2
 70
     6
  9
$SURFTYPE
 70
     6
  9
$SURFU
 70
     6
  9
$SURFV
 70
     6
  9
$UCSNAME
  2

  9
$UCSORG
 10
0.0
 20
0.0
 30
0.0
  9
$UCSXDIR
 10
1.0
 20
0.0
 30
0.0
  9
$UCSYDIR
 10
0.0
 20
1.0
 30
0.0
  9
$PUCSNAME
  2

  9
$PUCSORG
 10
0.0
 20
0.0
 30
0.0
  9
$PUCSXDIR
 10
1.0
 20
0.0
 30
0.0
  9
$PUCSYDIR
 10
0.0
 20
1.0
 30
0.0
  9
$USERI1
 70
     0
  9
$USERI2
 70
     0
  9
$USERI3
 70
     0
  9
$USERI4
 70
     0
  9
$USERI5
 70
     0
  9
$USERR1
 40
0.0
  9
$USERR2
 40
0.0
  9
$USERR3
 40
0.0
  9
$USERR4
 40
0.0
  9
$USERR5
 40
0.0
  9
$WORLDVIEW
 70
     1
  9
$SHADEDGE
 70
     3
  9
$SHADEDIF
 70
    70
  9
$TILEMODE
 70
     1
  9
$MAXACTVP
 70
    64
  9
$PLIMCHECK
 70
     0
  9
$PEXTMIN
 10
1.000000000000000E+20
 20
1.000000000000000E+20
 30
1.000000000000000E+20
  9
$PEXTMAX
 10
-1.000000000000000E+20
 20
-1.000000000000000E+20
 30
-1.000000000000000E+20
  9
$PLIMMIN
 10
0.0
 20
0.0
  9
$PLIMMAX
 10
12.0
 20
9.0
  9
$UNITMODE
 70
     0
  9
$VISRETAIN
 70
     1
  9
$PLINEGEN
 70
     0
  9
$PSLTSCALE
 70
     1
  0
ENDSEC
  0
SECTION
  2
TABLES
  0
TABLE
  2
VPORT
 70
     1
  0
VPORT
  2
*ACTIVE
 70
     0
 10
0.0
 20
0.0
 11
1.0
 21
1.0
 12
10.42990654205607
 22
4.5
 13
0.0
 23
0.0
 14
0.5
 24
0.5
 15
0.5
 25
0.5
 16
0.0
 26
0.0
 36
1.0
 17
0.0
 27
0.0
 37
0.0
 40
9.0
 41
1.972972972850329
 42
50.0
 43
0.0
 44
0.0
 50
0.0
 51
0.0
 71
     0
 72
   100
 73
     1
 74
     3
 75
     0
 76
     0
 77
     0
 78
     0
  0
ENDTAB
  0
TABLE
  2
LTYPE
 70
     1
  0
LTYPE
  2
CONTINUOUS
 70
     0
  3
Solid line
 72
    65
 73
     0
 40
0.0
  0
ENDTAB
  0
TABLE
  2
LAYER
 70
     2
  0
LAYER
  2
0
 70
     0
 62
     7
  6
CONTINUOUS
  0
LAYER
  2
FISHER_AND_PAYKEL
 70
     0
 62
     7
  6
CONTINUOUS
  0
ENDTAB
  0
TABLE
  2
STYLE
 70
     1
  0
STYLE
  2
STANDARD
 70
     0
 40
0.0
 41
1.0
 50
0.0
 71
     0
 42
0.2
  3
txt
  4

  0
ENDTAB
  0
TABLE
  2
VIEW
 70
     0
  0
ENDTAB
  0
TABLE
  2
UCS
 70
     0
  0
ENDTAB
  0
TABLE
  2
APPID
 70
     2
  0
APPID
  2
ACAD
 70
     0
  0
APPID
  2
RHINO
 70
     0
  0
ENDTAB
  0
TABLE
  2
DIMSTYLE
 70
     1
  0
DIMSTYLE
  2
STANDARD_ACAD
 70
     0
  3

  4

  5

  6

  7

 40
1.0
 41
0.18
 42
0.0625
 43
0.38
 44
0.18
 45
0.0
 46
0.0
 47
0.0
 48
0.0
140
0.18
141
0.09
142
0.0
143
25.4
144
1.0
145
0.0
146
1.0
147
0.09
 71
     0
 72
     0
 73
     1
 74
     1
 75
     0
 76
     0
 77
     0
 78
     0
170
     0
171
     2
172
     0
173
     0
174
     0
175
     0
176
     0
177
     0
178
     0
  0
ENDTAB
  0
ENDSEC
  0
SECTION
  2
BLOCKS
  0
BLOCK
  8
0
  2
$MODEL_SPACE
 70
     0
 10
0.0
 20
0.0
 30
0.0
  3
$MODEL_SPACE
  1

  0
ENDBLK
  5
21
  8
0
  0
BLOCK
 67
     1
  8
0
  2
$PAPER_SPACE
 70
     0
 10
0.0
 20
0.0
 30
0.0
  3
$PAPER_SPACE
  1

  0
ENDBLK
  5
1D
 67
     1
  8
0
  0
ENDSEC
  0
SECTION
  2
ENTITIES
  0
ARC
  5
60
  8
FISHER_AND_PAYKEL
 62
     7
 10
797.0002023117906
 20
-20.29999999999836
 30
0.0
 40
2.999999999957481
 50
180.0000000000347
 51
212.0053832088645
210
0.0
220
0.0
230
-1.0
  0
ARC
  5
61
  8
FISHER_AND_PAYKEL
 62
     7
 10
797.0002023119072
 20
-20.30000000000528
 30
0.0
 40
3.000000000074006
 50
156.0053832085875
 51
179.9999999999027
210
0.0
220
0.0
230
-1.0
  0
LINE
  5
62
  8
FISHER_AND_PAYKEL
 62
     7
 10
-797.9562073998331
 20
-27.48999682001022
 30
0.0
 11
-794.4562073998331
 21
-21.88999682002009
 31
0.0
  0
LINE
  5
63
  8
FISHER_AND_PAYKEL
 62
     7
 10
-794.880206551833
 20
-21.62499735001006
 30
0.0
 11
-798.380206551833
 21
-27.2249973500102
 31
0.0
  0
LINE
  5
64
  8
FISHER_AND_PAYKEL
 62
     7
 10
-794.2594513065333
 20
-19.08004757184017
 30
0.0
 11
-795.4968952695335
 21
-16.30000000000018
 31
0.0
  0
LINE
  5
65
  8
FISHER_AND_PAYKEL
 62
     7
 10
-795.9536871037335
 20
-16.50332540469003
 30
0.0
 11
-794.7162431407332
 21
-19.28337297653025
 31
0.0
  0
LINE
  5
66
  8
FISHER_AND_PAYKEL
 62
     7
 10
-795.4968952695335
 20
-16.30000000000018
 30
0.0
 11
-795.9536871037335
 21
-16.50332540469003
 31
0.0
  0
ARC
  5
67
  8
FISHER_AND_PAYKEL
 62
     7
 10
797.0002023120701
 20
-20.30000000000096
 30
0.0
 40
2.500000000236925
 50
156.0053832103805
 51
179.9999999999821
210
0.0
220
0.0
230
-1.0
  0
ARC
  5
68
  8
FISHER_AND_PAYKEL
 62
     7
 10
797.0002023117792
 20
-20.29999999999754
 30
0.0
 40
2.499999999945999
 50
180.0000000000606
 51
212.005383208981
210
0.0
220
0.0
230
-1.0
  0
ARC
  5
69
  8
FISHER_AND_PAYKEL
 62
     7
 10
1603.000202311794
 20
-20.29999999999788
 30
0.0
 40
3.000000000039336
 50
359.9999999999561
 51
23.99461679155287
210
0.0
220
0.0
230
-1.0
  0
LINE
  5
6A
  8
FISHER_AND_PAYKEL
 62
     7
 10
-1605.544197223833
 20
-21.88999682002009
 30
0.0
 11
-1602.044197223833
 21
-27.48999682001022
 31
0.0
  0
LINE
  5
6B
  8
FISHER_AND_PAYKEL
 62
     7
 10
-1605.120198071833
 20
-21.62499735001006
 30
0.0
 11
-1601.620198071833
 21
-27.2249973500102
 31
0.0
  0
LINE
  5
6C
  8
FISHER_AND_PAYKEL
 62
     7
 10
-1605.740953317133
 20
-19.08004757184017
 30
0.0
 11
-1604.503509354133
 21
-16.30000000000018
 31
0.0
  0
LINE
  5
6D
  8
FISHER_AND_PAYKEL
 62
     7
 10
-1604.503509354133
 20
-16.30000000000018
 30
0.0
 11
-1604.046717519933
 21
-16.50332540469003
 31
0.0
  0
LINE
  5
6E
  8
FISHER_AND_PAYKEL
 62
     7
 10
-1604.046717519933
 20
-16.50332540469003
 30
0.0
 11
-1605.284161482933
 21
-19.28337297653025
 31
0.0
  0
ARC
  5
6F
  8
FISHER_AND_PAYKEL
 62
     7
 10
-1603.000202311611
 20
-20.29999999999785
 30
0.0
 40
2.500000000222365
 50
156.00538321031
 51
180.0000000000534
  0
ARC
  5
70
  8
FISHER_AND_PAYKEL
 62
     7
 10
1603.000202311877
 20
-20.29999999999882
 30
0.0
 40
2.999999999955882
 50
327.9946167911257
 51
359.999999999974
210
0.0
220
0.0
230
-1.0
  0
ARC
  5
71
  8
FISHER_AND_PAYKEL
 62
     7
 10
-1603.000202311904
 20
-20.30000000000223
 30
0.0
 40
2.499999999929287
 50
179.9999999999531
 51
212.0053832090923
  0
ARC
  5
72
  8
FISHER_AND_PAYKEL
 62
     7
 10
1599.500202311826
 20
-25.89999999999612
 30
0.0
 40
2.499999999999057
 50
281.5369590364737
 51
327.994616791735
210
0.0
220
0.0
230
-1.0
  0
ARC
  5
73
  8
FISHER_AND_PAYKEL
 62
     7
 10
1599.500202311826
 20
-25.8999999999991
 30
0.0
 40
2.999999999994153
 50
279.5940682299182
 51
327.9946167918097
210
0.0
220
0.0
230
-1.0
  0
ARC
  5
74
  8
FISHER_AND_PAYKEL
 62
     7
 10
800.5002023118376
 20
-25.90000000000092
 30
0.0
 40
2.499999999993817
 50
212.0053832082079
 51
258.4630409705993
210
0.0
220
0.0
230
-1.0
  0
ARC
  5
75
  8
FISHER_AND_PAYKEL
 62
     7
 10
-800.5002023118399
 20
-25.90000000000025
 30
0.0
 40
2.999999999992915
 50
279.5940682241065
 51
327.9946167918225
  0
LINE
  5
76
  8
FISHER_AND_PAYKEL
 62
     7
 10
-1615.0
 20
-4.0
 30
0.0
 11
-785.0
 21
-4.0
 31
0.0
  0
LINE
  5
77
  8
FISHER_AND_PAYKEL
 62
     7
 10
-823.1399999999999
 20
-57.0
 30
0.0
 11
-823.1399999999999
 21
-198.5
 31
0.0
  0
LINE
  5
78
  8
FISHER_AND_PAYKEL
 62
     7
 10
-1370.9358057705
 20
-198.5
 30
0.0
 11
-1370.9358057705
 21
-57.0
 31
0.0
  0
LINE
  5
79
  8
FISHER_AND_PAYKEL
 62
     7
 10
-823.1144694657968
 20
-64.99999999999979
 30
0.0
 11
-819.6399999999999
 21
-65.0
 31
0.0
  0
LINE
  5
7A
  8
FISHER_AND_PAYKEL
 62
     7
 10
-976.8335982542999
 20
-198.5
 30
0.0
 11
-823.6399999999999
 21
-198.5
 31
0.0
  0
LINE
  5
7B
  8
FISHER_AND_PAYKEL
 62
     7
 10
-1368.7911083783
 20
-198.5
 30
0.0
 11
-1192.4431906147
 21
-198.5
 31
0.0
  0
LINE
  5
7C
  8
FISHER_AND_PAYKEL
 62
     7
 10
-1372.0
 20
-116.0
 30
0.0
 11
-1372.0
 21
-57.0
 31
0.0
  0
LINE
  5
7D
  8
FISHER_AND_PAYKEL
 62
     7
 10
-1608.0
 20
-5.5
 30
0.0
 11
-792.0
 21
-5.5
 31
0.0
  0
LINE
  5
7E
  8
FISHER_AND_PAYKEL
 62
     7
 10
-1600.0
 20
-57.0
 30
0.0
 11
-800.0
 21
-57.0
 31
0.0
  0
LINE
  5
7F
  8
FISHER_AND_PAYKEL
 62
     7
 10
-1010.709097253339
 20
-175.9968394556535
 30
0.0
 11
-1035.785442532636
 21
-175.2916150271129
 31
0.0
  0
ARC
  5
80
  8
FISHER_AND_PAYKEL
 62
     7
 10
976.2181732631642
 20
-233.9218711720337
 30
0.0
 40
151.8045316886469
 50
85.72415168663434
 51
90.6439671797812
210
0.0
220
0.0
230
-1.0
  0
ARC
  5
81
  8
FISHER_AND_PAYKEL
 62
     7
 10
976.2157145267065
 20
-27.38719734898442
 30
0.0
 40
151.4936944333648
 50
269.3556414287795
 51
274.2857169491393
210
0.0
220
0.0
230
-1.0
  0
LINE
  5
82
  8
FISHER_AND_PAYKEL
 62
     7
 10
-1041.514843561
 20
-88.22320786137425
 30
0.0
 11
-861.51693158938
 21
-88.22320786153796
 31
0.0
  0
ARC
  5
83
  8
FISHER_AND_PAYKEL
 62
     7
 10
861.5165275880374
 20
-107.7237685945638
 30
0.0
 40
19.50056073721074
 50
89.9988129791672
 51
179.9978301988853
210
0.0
220
0.0
230
-1.0
  0
ARC
  5
84
  8
FISHER_AND_PAYKEL
 62
     7
 10
861.5163380943873
 20
-153.2561637361995
 30
0.0
 40
19.50037123947961
 50
180.0022653772419
 51
270.0016132560493
210
0.0
220
0.0
230
-1.0
  0
LINE
  5
85
  8
FISHER_AND_PAYKEL
 62
     7
 10
-1041.5148435606
 20
-175.2565349510785
 30
0.0
 11
-861.5169316096499
 21
-175.2565365012779
 31
0.0
  0
ARC
  5
86
  8
FISHER_AND_PAYKEL
 62
     7
 10
-861.5162743841075
 20
-153.2561324615061
 30
0.0
 40
22.00040404958851
 50
269.9982883837185
 51
359.9986330752109
  0
ARC
  5
87
  8
FISHER_AND_PAYKEL
 62
     7
 10
861.5162904943452
 20
-107.7236267052085
 30
0.0
 40
22.00041883684156
 50
89.99825622978096
 51
179.9977346219785
210
0.0
220
0.0
230
-1.0
  0
LINE
  5
88
  8
FISHER_AND_PAYKEL
 62
     7
 10
-861.51696006679
 20
-85.72320787855597
 30
0.0
 11
-1041.514843561
 21
-85.72320787837953
 31
0.0
  0
LINE
  5
89
  8
FISHER_AND_PAYKEL
 62
     7
 10
-976.8341555612783
 20
-178.8572039428507
 30
0.0
 11
-976.8335982542999
 21
-198.5
 31
0.0
  0
LINE
  5
8A
  8
FISHER_AND_PAYKEL
 62
     7
 10
-1035.798200373376
 20
-175.2911521640055
 30
0.0
 11
-1035.997308393322
 21
-175.256534998597
 31
0.0
  0
LINE
  5
8B
  8
FISHER_AND_PAYKEL
 62
     7
 10
-785.0
 20
0.0
 30
0.0
 11
-1615.0
 21
0.0
 31
0.0
  0
ARC
  5
8C
  8
FISHER_AND_PAYKEL
 62
     7
 10
1417.0
 20
-102.0
 30
0.0
 40
4.0
 50
0.0
 51
180.0
210
0.0
220
0.0
230
-1.0
  0
LINE
  5
8D
  8
FISHER_AND_PAYKEL
 62
     7
 10
-1387.0
 20
-108.0
 30
0.0
 11
-1387.0
 21
-57.0
 31
0.0
  0
LINE
  5
8E
  8
FISHER_AND_PAYKEL
 62
     7
 10
-1615.0
 20
0.0
 30
0.0
 11
-1615.0
 21
-4.0
 31
0.0
  0
LINE
  5
8F
  8
FISHER_AND_PAYKEL
 62
     7
 10
-785.0
 20
0.0
 30
0.0
 11
-785.0
 21
-4.0
 31
0.0
  0
LINE
  5
90
  8
FISHER_AND_PAYKEL
 62
     7
 10
-976.8335982542999
 20
-198.5
 30
0.0
 11
-1192.4431906147
 21
-198.5
 31
0.0
  0
LINE
  5
91
  8
FISHER_AND_PAYKEL
 62
     7
 10
-819.6399999999999
 20
-57.0
 30
0.0
 11
-819.6399999999999
 21
-65.0
 31
0.0
  0
LINE
  5
92
  8
FISHER_AND_PAYKEL
 62
     7
 10
-1370.935805770521
 20
-198.5
 30
0.0
 11
-1368.7911083783
 21
-198.5
 31
0.0
  0
LINE
  5
93
  8
FISHER_AND_PAYKEL
 62
     7
 10
-823.6399999999999
 20
-198.5
 30
0.0
 11
-823.1400000000035
 21
-198.5
 31
0.0
  0
LINE
  5
94
  8
FISHER_AND_PAYKEL
 62
     7
 10
-976.8376129036001
 20
-57.0
 30
0.0
 11
-976.8368997781672
 21
-82.13476052603937
 31
0.0
  0
ARC
  5
95
  8
FISHER_AND_PAYKEL
 62
     7
 10
1417.0
 20
-102.0
 30
0.0
 40
4.0
 50
180.0
 51
0.0
210
0.0
220
0.0
230
-1.0
  0
LINE
  5
96
  8
FISHER_AND_PAYKEL
 62
     7
 10
-1465.0
 20
-108.0
 30
0.0
 11
-1387.0
 21
-108.0
 31
0.0
  0
LINE
  5
97
  8
FISHER_AND_PAYKEL
 62
     7
 10
-1465.0
 20
-108.0
 30
0.0
 11
-1465.0
 21
-57.0
 31
0.0
  0
LINE
  5
98
  8
FISHER_AND_PAYKEL
 62
     7
 10
-1597.0
 20
-57.0
 30
0.0
 11
-1597.0
 21
-116.0
 31
0.0
  0
LINE
  5
99
  8
FISHER_AND_PAYKEL
 62
     7
 10
-1597.0
 20
-116.0
 30
0.0
 11
-1372.0
 21
-116.0
 31
0.0
  0
LINE
  5
9A
  8
FISHER_AND_PAYKEL
 62
     7
 10
-1608.0
 20
-4.0
 30
0.0
 11
-1608.0
 21
-5.5
 31
0.0
  0
LINE
  5
9B
  8
FISHER_AND_PAYKEL
 62
     7
 10
-792.0
 20
-5.5
 30
0.0
 11
-792.0
 21
-4.0
 31
0.0
  0
LINE
  5
9C
  8
FISHER_AND_PAYKEL
 62
     7
 10
-1600.0
 20
-5.5
 30
0.0
 11
-1600.0
 21
-57.0
 31
0.0
  0
LINE
  5
9D
  8
FISHER_AND_PAYKEL
 62
     7
 10
-800.0
 20
-57.0
 30
0.0
 11
-800.0
 21
-5.5
 31
0.0
  0
ARC
  5
9E
  8
FISHER_AND_PAYKEL
 62
     7
 10
1041.515214881218
 20
-153.2561637599519
 30
0.0
 40
19.50037121171811
 50
269.9989089906629
 51
359.9989089310737
210
0.0
220
0.0
230
-1.0
  0
ARC
  5
9F
  8
FISHER_AND_PAYKEL
 62
     7
 10
1041.515214881273
 20
-107.7235790695021
 30
0.0
 40
19.50037121166316
 50
0.0010910692351108
 51
90.00109100920417
210
0.0
220
0.0
230
-1.0
  0
ARC
  5
A0
  8
FISHER_AND_PAYKEL
 62
     7
 10
-1041.515262486542
 20
-107.7236266772373
 30
0.0
 40
22.00041880284632
 50
89.99890899051799
 51
179.9989089308883
  0
ARC
  5
A1
  8
FISHER_AND_PAYKEL
 62
     7
 10
-1041.515262486596
 20
-153.2561161522738
 30
0.0
 40
22.00041880279324
 50
180.0010910694679
 51
270.0010910106622
  0
LINE
  5
A2
  8
FISHER_AND_PAYKEL
 62
     7
 10
-861.51688715912
 20
-172.7565349679492
 30
0.0
 11
-964.7811834564202
 21
-172.7565349680556
 31
0.0
  0
LINE
  5
A3
  8
FISHER_AND_PAYKEL
 62
     7
 10
-1061.1373419529
 20
-153.2055051730972
 30
0.0
 11
-1061.1373419529
 21
-153.2581619319831
 31
0.0
  0
LINE
  5
A4
  8
FISHER_AND_PAYKEL
 62
     7
 10
-1035.785068602356
 20
-85.69650433576187
 30
0.0
 11
-1010.708725760076
 21
-84.99597391158065
 31
0.0
  0
ARC
  5
A5
  8
FISHER_AND_PAYKEL
 62
     7
 10
976.4045196541935
 20
-63.4182518213692
 30
0.0
 40
115.5764452237115
 50
275.527276963232
 51
279.259276328465
210
0.0
220
0.0
230
-1.0
  0
ARC
  5
A6
  8
FISHER_AND_PAYKEL
 62
     7
 10
-1014.010717843127
 20
-294.2028179043514
 30
0.0
 40
118.2520783729208
 50
80.7493117863025
 51
88.40008297331931
  0
ARC
  5
A7
  8
FISHER_AND_PAYKEL
 62
     7
 10
-1013.98795971068
 20
33.20428571234538
 30
0.0
 40
118.2457388257812
 50
271.5891512519482
 51
279.2401843868917
  0
ARC
  5
A8
  8
FISHER_AND_PAYKEL
 62
     7
 10
976.4619507124222
 20
-197.3118699572731
 30
0.0
 40
115.3049856760812
 50
80.74793401067238
 51
84.48856958643154
210
0.0
220
0.0
230
-1.0
  0
LINE
  5
A9
  8
FISHER_AND_PAYKEL
 62
     7
 10
-973.5120252911302
 20
-82.12692341511615
 30
0.0
 11
-972.0829726863976
 21
-82.10566662537826
 31
0.0
  0
LINE
  5
AA
  8
FISHER_AND_PAYKEL
 62
     7
 10
-972.0933088855677
 20
-178.8923495037111
 30
0.0
 11
-973.5120252641973
 21
-178.8713159077183
 31
0.0
  0
LINE
  5
AB
  8
FISHER_AND_PAYKEL
 62
     7
 10
-839.51142573129
 20
-81.99962719943846
 30
0.0
 11
-970.5120252912
 21
-81.9996271986472
 31
0.0
  0
LINE
  5
AC
  8
FISHER_AND_PAYKEL
 62
     7
 10
-842.01596686481
 20
-107.7230301049442
 30
0.0
 11
-842.0159668701499
 21
-153.2569347475651
 31
0.0
  0
ARC
  5
AD
  8
FISHER_AND_PAYKEL
 62
     7
 10
-1063.544111912626
 20
-91.122483962039
 30
0.0
 40
62.13590336475027
 50
269.9043630698895
 51
270.0192077357703
  0
LINE
  5
AE
  8
FISHER_AND_PAYKEL
 62
     7
 10
-1061.0155860894
 20
-153.2565351005508
 30
0.0
 11
-1061.0155860894
 21
-107.7232077287981
 31
0.0
  0
LINE
  5
AF
  8
FISHER_AND_PAYKEL
 62
     7
 10
-1063.5156812854
 20
-107.7232077287981
 30
0.0
 11
-1063.5156812854
 21
-153.2565351008498
 31
0.0
  0
LINE
  5
B0
  8
FISHER_AND_PAYKEL
 62
     7
 10
-839.5158703407801
 20
-153.256657332586
 30
0.0
 11
-839.5158716747001
 21
-107.7227568459325
 31
0.0
  0
ARC
  5
B1
  8
FISHER_AND_PAYKEL
 62
     7
 10
839.5212842592751
 20
-176.9909966192256
 30
0.0
 40
2.0086311924876
 50
180.029333605226
 51
269.9355078282996
210
0.0
220
0.0
230
-1.0
  0
LINE
  5
B2
  8
FISHER_AND_PAYKEL
 62
     7
 10
-837.4508820250101
 20
-83.97629086131678
 30
0.0
 11
-837.4508815858599
 21
-177.0233652664306
 31
0.0
  0
ARC
  5
B3
  8
FISHER_AND_PAYKEL
 62
     7
 10
-839.5120252615657
 20
-83.99900838462014
 30
0.0
 40
1.999381275068596
 50
359.9824997588222
 51
89.98281940747043
  0
LINE
  5
B4
  8
FISHER_AND_PAYKEL
 62
     7
 10
-973.5120252912
 20
-82.13036373548152
 30
0.0
 11
-974.5120252914999
 21
-82.13036373547152
 31
0.0
  0
LINE
  5
B5
  8
FISHER_AND_PAYKEL
 62
     7
 10
-970.5120252912
 20
-178.9996265392685
 30
0.0
 11
-839.5190233430001
 21
-178.9996265392685
 31
0.0
  0
LINE
  5
B6
  8
FISHER_AND_PAYKEL
 62
     7
 10
-974.5120252909
 20
-178.8678481686547
 30
0.0
 11
-973.5120252638999
 21
-178.8678481686541
 31
0.0
  0
LINE
  5
B7
  8
FISHER_AND_PAYKEL
 62
     7
 10
-823.1400000000001
 20
-68.0
 30
0.0
 11
-822.6399999999999
 21
-68.0
 31
0.0
  0
LINE
  5
B8
  8
FISHER_AND_PAYKEL
 62
     7
 10
-821.1399999999999
 20
-65.0
 30
0.0
 11
-821.1399999999999
 21
-66.5
 31
0.0
  0
ARC
  5
B9
  8
FISHER_AND_PAYKEL
 62
     7
 10
-822.6399999999999
 20
-66.5
 30
0.0
 40
1.5
 50
270.0
 51
0.0
  0
LINE
  5
BA
  8
FISHER_AND_PAYKEL
 62
     7
 10
-970.5120252912
 20
-81.9996271986472
 30
0.0
 11
-970.8843099948832
 21
-82.03457589798198
 31
0.0
  0
LINE
  5
BB
  8
FISHER_AND_PAYKEL
 62
     7
 10
-972.0829726863976
 20
-82.10566662537826
 30
0.0
 11
-970.8843099948833
 21
-82.03457589798154
 31
0.0
  0
LINE
  5
BC
  8
FISHER_AND_PAYKEL
 62
     7
 10
-970.5120252912
 20
-178.9996265392685
 30
0.0
 11
-970.8869222571193
 21
-178.9641813707385
 31
0.0
  0
LINE
  5
BD
  8
FISHER_AND_PAYKEL
 62
     7
 10
-970.8869222571197
 20
-178.9641813707387
 30
0.0
 11
-972.0933088855677
 21
-178.8923495037111
 31
0.0
  0
LINE
  5
BE
  8
FISHER_AND_PAYKEL
 62
     7
 10
-964.7811834564202
 20
-172.7565349680556
 30
0.0
 11
-1041.5148435609
 21
-172.7565349681347
 31
0.0
  0
ARC
  5
BF
  8
FISHER_AND_PAYKEL
 62
     7
 10
968.0120252979985
 20
-170.7565349748575
 30
0.0
 40
1.99999999320147
 50
269.9999998052283
 51
359.9999998054807
210
0.0
220
0.0
230
-1.0
  0
LINE
  5
C0
  8
FISHER_AND_PAYKEL
 62
     7
 10
-970.0120252912001
 20
-88.53036376407398
 30
0.0
 11
-969.9733054883594
 21
-88.22320786144023
 31
0.0
  0
LINE
  5
C1
  8
FISHER_AND_PAYKEL
 62
     7
 10
-970.0120252912
 20
-170.7565349816475
 30
0.0
 11
-970.0120252912
 21
-88.53036376407385
 31
0.0
  0
LINE
  5
C2
  8
FISHER_AND_PAYKEL
 62
     7
 10
-1352.9358057705
 20
-221.0
 30
0.0
 11
-1352.9358057705
 21
-220.9999999999998
 31
0.0
  0
LINE
  5
C3
  8
FISHER_AND_PAYKEL
 62
     7
 10
-841.1399999999999
 20
-198.5
 30
0.0
 11
-841.1399999999996
 21
-218.0
 31
0.0
  0
LINE
  5
C4
  8
FISHER_AND_PAYKEL
 62
     7
 10
-1352.9358057705
 20
-218.0000000000002
 30
0.0
 11
-841.1399999999996
 21
-218.0
 31
0.0
  0
LINE
  5
C5
  8
FISHER_AND_PAYKEL
 62
     7
 10
-1352.9358057705
 20
-218.0
 30
0.0
 11
-1352.9358057705
 21
-198.5
 31
0.0
  0
LINE
  5
C6
  8
FISHER_AND_PAYKEL
 62
     1
 10
-1600.000202311833
 20
-420.0
 30
0.0
 11
-800.0002023118332
 21
-420.0
 31
0.0
  0
LINE
  5
C7
  8
FISHER_AND_PAYKEL
 62
     7
 10
1370.9358057705
 20
-57.0
 30
0.0
 11
1370.9358057705
 21
-198.5
 31
0.0
  0
LINE
  5
C8
  8
FISHER_AND_PAYKEL
 62
     7
 10
1344.690262578647
 20
-68.00126396220571
 30
0.0
 11
1341.63999999999
 21
-67.99999999999977
 31
0.0
  0
LINE
  5
C9
  8
FISHER_AND_PAYKEL
 62
     7
 10
1350.20647547425
 20
-101.0573811367526
 30
0.0
 11
1345.68507244069
 21
-101.0573811367526
 31
0.0
  0
LINE
  5
CA
  8
FISHER_AND_PAYKEL
 62
     7
 10
1345.68507244069
 20
-88.0
 30
0.0
 11
1350.20647547425
 21
-88.0
 31
0.0
  0
ARC
  5
CB
  8
FISHER_AND_PAYKEL
 62
     7
 10
1345.68507244069
 20
-99.05738113675261
 30
0.0
 40
2.0
 50
180.0
 51
270.0
  0
LINE
  5
CC
  8
FISHER_AND_PAYKEL
 62
     7
 10
1343.68507244069
 20
-90.0
 30
0.0
 11
1343.68507244069
 21
-99.05738113675261
 31
0.0
  0
ARC
  5
CD
  8
FISHER_AND_PAYKEL
 62
     7
 10
1345.68507244069
 20
-90.0
 30
0.0
 40
2.0
 50
90.0
 51
180.0
  0
LINE
  5
CE
  8
FISHER_AND_PAYKEL
 62
     7
 10
1345.637494638999
 20
-68.91548289247203
 30
0.0
 11
1345.637494638999
 21
-87.99999999998181
 31
0.0
  0
ARC
  5
CF
  8
FISHER_AND_PAYKEL
 62
     7
 10
-1344.657943876107
 20
-68.98257784206783
 30
0.0
 40
0.9818459295349836
 50
91.88630389664927
 51
176.0816095718232
210
0.0
220
0.0
230
-1.0
  0
LINE
  5
D0
  8
FISHER_AND_PAYKEL
 62
     7
 10
1340.13999999999
 20
-65.0
 30
0.0
 11
1340.13999999999
 21
-66.49999999999955
 31
0.0
  0
ARC
  5
D1
  8
FISHER_AND_PAYKEL
 62
     7
 10
-1341.63999999999
 20
-66.49999999999955
 30
0.0
 40
1.5
 50
270.0
 51
0.0
210
0.0
220
0.0
230
-1.0
  0
ARC
  5
D2
  8
FISHER_AND_PAYKEL
 62
     7
 10
-1350.20647547425
 20
-99.05738113675261
 30
0.0
 40
2.0
 50
180.0
 51
270.0
210
0.0
220
0.0
230
-1.0
  0
LINE
  5
D3
  8
FISHER_AND_PAYKEL
 62
     7
 10
1352.20647547425
 20
-90.0
 30
0.0
 11
1352.20647547425
 21
-99.05738113675261
 31
0.0
  0
ARC
  5
D4
  8
FISHER_AND_PAYKEL
 62
     7
 10
-1350.20647547425
 20
-90.0
 30
0.0
 40
2.0
 50
90.0
 51
180.0
210
0.0
220
0.0
230
-1.0
  0
ARC
  5
D5
  8
FISHER_AND_PAYKEL
 62
     7
 10
1354.25154791495
 20
-66.49999999999955
 30
0.0
 40
1.5
 50
270.0
 51
0.0
  0
LINE
  5
D6
  8
FISHER_AND_PAYKEL
 62
     7
 10
1355.75154791495
 20
-65.0
 30
0.0
 11
1355.75154791495
 21
-66.49999999999955
 31
0.0
  0
LINE
  5
D7
  8
FISHER_AND_PAYKEL
 62
     7
 10
1351.25154966823
 20
-68.0
 30
0.0
 11
1354.25154791495
 21
-67.99999999999977
 31
0.0
  0
ARC
  5
D8
  8
FISHER_AND_PAYKEL
 62
     7
 10
1351.233604038832
 20
-68.98257784206763
 30
0.0
 40
0.9818459295347997
 50
91.88630389667617
 51
176.081609571833
  0
LINE
  5
D9
  8
FISHER_AND_PAYKEL
 62
     7
 10
1350.25405327594
 20
-68.91548289247203
 30
0.0
 11
1350.25405327594
 21
-87.99999999998181
 31
0.0
  0
LINE
  5
DA
  8
FISHER_AND_PAYKEL
 62
     7
 10
1339.25154791495
 20
-65.0
 30
0.0
 11
1356.63999999999
 21
-65.0
 31
0.0
  0
LINE
  5
DB
  8
FISHER_AND_PAYKEL
 62
     7
 10
1356.64
 20
-57.0
 30
0.0
 11
1356.63999999999
 21
-65.0
 31
0.0
  0
LINE
  5
DC
  8
FISHER_AND_PAYKEL
 62
     7
 10
1339.25154791495
 20
-65.0
 30
0.0
 11
1339.25154791495
 21
-57.0
 31
0.0
  0
ARC
  5
DD
  8
FISHER_AND_PAYKEL
 62
     7
 10
-1351.251547914952
 20
-69.00000000007397
 30
0.0
 40
1.000000000075505
 50
87.11895242812848
 51
90.00010045541421
210
0.0
220
0.0
230
-1.0
  0
LINE
  5
DE
  8
FISHER_AND_PAYKEL
 62
     7
 10
823.1399999999999
 20
-198.5
 30
0.0
 11
823.1399830266037
 21
-68.00046059415013
 31
0.0
  0
LINE
  5
DF
  8
FISHER_AND_PAYKEL
 62
     7
 10
825.0787146636976
 20
-68.00126396220571
 30
0.0
 11
822.02845208504
 21
-67.99999999999977
 31
0.0
  0
LINE
  5
E0
  8
FISHER_AND_PAYKEL
 62
     7
 10
830.5949275593002
 20
-101.0573811367526
 30
0.0
 11
826.0735245257397
 21
-101.0573811367526
 31
0.0
  0
LINE
  5
E1
  8
FISHER_AND_PAYKEL
 62
     7
 10
826.0735245257397
 20
-88.0
 30
0.0
 11
830.5949275593002
 21
-88.0
 31
0.0
  0
ARC
  5
E2
  8
FISHER_AND_PAYKEL
 62
     7
 10
826.0735245257397
 20
-99.05738113675261
 30
0.0
 40
2.0
 50
180.0
 51
270.0
  0
LINE
  5
E3
  8
FISHER_AND_PAYKEL
 62
     7
 10
824.0735245257397
 20
-90.0
 30
0.0
 11
824.0735245257397
 21
-99.05738113675261
 31
0.0
  0
ARC
  5
E4
  8
FISHER_AND_PAYKEL
 62
     7
 10
826.0735245257397
 20
-90.0
 30
0.0
 40
2.0
 50
90.0
 51
180.0
  0
LINE
  5
E5
  8
FISHER_AND_PAYKEL
 62
     7
 10
826.0259467240494
 20
-68.91548289247203
 30
0.0
 11
826.0259467240494
 21
-87.99999999998181
 31
0.0
  0
ARC
  5
E6
  8
FISHER_AND_PAYKEL
 62
     7
 10
-825.0463959611576
 20
-68.98257784206794
 30
0.0
 40
0.9818459295350784
 50
91.8863038966159
 51
176.0816095717943
210
0.0
220
0.0
230
-1.0
  0
LINE
  5
E7
  8
FISHER_AND_PAYKEL
 62
     7
 10
820.52845208504
 20
-65.0
 30
0.0
 11
820.52845208504
 21
-66.49999999999955
 31
0.0
  0
ARC
  5
E8
  8
FISHER_AND_PAYKEL
 62
     7
 10
-822.02845208504
 20
-66.49999999999955
 30
0.0
 40
1.5
 50
270.0
 51
0.0
210
0.0
220
0.0
230
-1.0
  0
ARC
  5
E9
  8
FISHER_AND_PAYKEL
 62
     7
 10
-830.5949275593002
 20
-99.05738113675261
 30
0.0
 40
2.0
 50
180.0
 51
270.0
210
0.0
220
0.0
230
-1.0
  0
LINE
  5
EA
  8
FISHER_AND_PAYKEL
 62
     7
 10
832.5949275593002
 20
-90.0
 30
0.0
 11
832.5949275593002
 21
-99.05738113675261
 31
0.0
  0
ARC
  5
EB
  8
FISHER_AND_PAYKEL
 62
     7
 10
-830.5949275593002
 20
-90.0
 30
0.0
 40
2.0
 50
90.0
 51
180.0
210
0.0
220
0.0
230
-1.0
  0
ARC
  5
EC
  8
FISHER_AND_PAYKEL
 62
     7
 10
834.6399999999999
 20
-66.49999999999955
 30
0.0
 40
1.5
 50
270.0
 51
0.0
  0
LINE
  5
ED
  8
FISHER_AND_PAYKEL
 62
     7
 10
836.1399999999999
 20
-65.0
 30
0.0
 11
836.1399999999999
 21
-66.49999999999955
 31
0.0
  0
LINE
  5
EE
  8
FISHER_AND_PAYKEL
 62
     7
 10
831.6400017532801
 20
-68.0
 30
0.0
 11
834.6399999999999
 21
-67.99999999999977
 31
0.0
  0
ARC
  5
EF
  8
FISHER_AND_PAYKEL
 62
     7
 10
831.6220561238828
 20
-68.9825778420672
 30
0.0
 40
0.9818459295343698
 50
91.88630389667036
 51
176.0816095718355
  0
LINE
  5
F0
  8
FISHER_AND_PAYKEL
 62
     7
 10
830.6425053609901
 20
-68.91548289247203
 30
0.0
 11
830.6425053609901
 21
-87.99999999998181
 31
0.0
  0
LINE
  5
F1
  8
FISHER_AND_PAYKEL
 62
     7
 10
819.6399999999999
 20
-65.0
 30
0.0
 11
837.02845208504
 21
-65.0
 31
0.0
  0
LINE
  5
F2
  8
FISHER_AND_PAYKEL
 62
     7
 10
1597.0
 20
-116.0
 30
0.0
 11
1597.0
 21
-57.0
 31
0.0
  0
LINE
  5
F3
  8
FISHER_AND_PAYKEL
 62
     7
 10
1372.0
 20
-116.0
 30
0.0
 11
1597.0
 21
-116.0
 31
0.0
  0
LINE
  5
F4
  8
FISHER_AND_PAYKEL
 62
     7
 10
837.02845208505
 20
-57.0
 30
0.0
 11
837.02845208504
 21
-65.0
 31
0.0
  0
LINE
  5
F5
  8
FISHER_AND_PAYKEL
 62
     7
 10
819.6399999999999
 20
-65.0
 30
0.0
 11
819.6399999999999
 21
-57.0
 31
0.0
  0
LINE
  5
F6
  8
FISHER_AND_PAYKEL
 62
     7
 10
969.6399999999999
 20
-198.5
 30
0.0
 11
984.8923704432
 21
-198.5
 31
0.0
  0
LINE
  5
F7
  8
FISHER_AND_PAYKEL
 62
     7
 10
1226.4327875796
 20
-198.5
 30
0.0
 11
984.8923704432
 21
-198.5
 31
0.0
  0
LINE
  5
F8
  8
FISHER_AND_PAYKEL
 62
     7
 10
785.0
 20
-4.0
 30
0.0
 11
785.0
 21
0.0
 31
0.0
  0
LINE
  5
F9
  8
FISHER_AND_PAYKEL
 62
     7
 10
1615.0
 20
0.0
 30
0.0
 11
1615.0
 21
-4.0
 31
0.0
  0
LINE
  5
FA
  8
FISHER_AND_PAYKEL
 62
     7
 10
1608.0
 20
-4.0
 30
0.0
 11
1608.0
 21
-5.5
 31
0.0
  0
LINE
  5
FB
  8
FISHER_AND_PAYKEL
 62
     7
 10
792.0
 20
-4.0
 30
0.0
 11
792.0
 21
-5.5
 31
0.0
  0
LINE
  5
FC
  8
FISHER_AND_PAYKEL
 62
     7
 10
1615.0
 20
0.0
 30
0.0
 11
785.0
 21
0.0
 31
0.0
  0
ARC
  5
FD
  8
FISHER_AND_PAYKEL
 62
     7
 10
-831.6400000000021
 20
-69.00000000006436
 30
0.0
 40
1.000000000065894
 50
87.11895242812032
 51
90.00010045542722
210
0.0
220
0.0
230
-1.0
  0
LINE
  5
FE
  8
FISHER_AND_PAYKEL
 62
     7
 10
1372.0
 20
-116.0
 30
0.0
 11
1372.0
 21
-57.0
 31
0.0
  0
LINE
  5
FF
  8
FISHER_AND_PAYKEL
 62
     7
 10
1226.4327875796
 20
-198.5
 30
0.0
 11
1370.935805770521
 21
-198.5
 31
0.0
  0
LINE
  5
100
  8
FISHER_AND_PAYKEL
 62
     7
 10
823.1400000000035
 20
-198.5
 30
0.0
 11
969.6400000000003
 21
-198.5
 31
0.0
  0
LINE
  5
101
  8
FISHER_AND_PAYKEL
 62
     7
 10
785.0
 20
-4.0
 30
0.0
 11
1615.0
 21
-4.0
 31
0.0
  0
LINE
  5
102
  8
FISHER_AND_PAYKEL
 62
     7
 10
792.0
 20
-5.5
 30
0.0
 11
1608.0
 21
-5.5
 31
0.0
  0
LINE
  5
103
  8
FISHER_AND_PAYKEL
 62
     7
 10
1352.9358057705
 20
-198.5
 30
0.0
 11
1352.9358057705
 21
-218.0
 31
0.0
  0
LINE
  5
104
  8
FISHER_AND_PAYKEL
 62
     7
 10
841.1399999999999
 20
-218.0000000000002
 30
0.0
 11
1352.9358057705
 21
-218.0
 31
0.0
  0
LINE
  5
105
  8
FISHER_AND_PAYKEL
 62
     7
 10
841.1399999999994
 20
-218.0
 30
0.0
 11
841.1399999999999
 21
-198.5
 31
0.0
  0
LINE
  5
106
  8
FISHER_AND_PAYKEL
 62
     1
 10
800.0
 20
-420.0
 30
0.0
 11
1600.0
 21
-420.0
 31
0.0
  0
LINE
  5
107
  8
FISHER_AND_PAYKEL
 62
     7
 10
1599.5
 20
-5.5
 30
0.0
 11
1599.5
 21
-57.0
 31
0.0
  0
LINE
  5
108
  8
FISHER_AND_PAYKEL
 62
     7
 10
800.5
 20
-5.5
 30
0.0
 11
800.5
 21
-57.0
 31
0.0
  0
LINE
  5
109
  8
FISHER_AND_PAYKEL
 62
     7
 10
800.5
 20
-57.0
 30
0.0
 11
1599.5
 21
-57.0
 31
0.0
  0
ARC
  5
10A
  8
FISHER_AND_PAYKEL
 62
     7
 10
1599.000000000145
 20
-26.06903085089885
 30
0.0
 40
2.999999999990508
 50
279.5940682240857
 51
327.994616791844
  0
ARC
  5
10B
  8
FISHER_AND_PAYKEL
 62
     7
 10
-1599.000000000147
 20
-26.0690308508998
 30
0.0
 40
2.499999999991075
 50
212.0053832081811
 51
258.4630409706263
210
0.0
220
0.0
230
-1.0
  0
ARC
  5
10C
  8
FISHER_AND_PAYKEL
 62
     7
 10
-800.0000000001589
 20
-26.06903085089311
 30
0.0
 40
2.999999999996725
 50
279.5940682299385
 51
327.9946167917871
210
0.0
220
0.0
230
-1.0
  0
ARC
  5
10D
  8
FISHER_AND_PAYKEL
 62
     7
 10
-800.0000000001561
 20
-26.06903085089509
 30
0.0
 40
2.499999999996295
 50
281.53695903646
 51
327.9946167917681
210
0.0
220
0.0
230
-1.0
  0
ARC
  5
10E
  8
FISHER_AND_PAYKEL
 62
     7
 10
796.5000000000796
 20
-20.46903085089868
 30
0.0
 40
2.499999999929514
 50
179.9999999999528
 51
212.0053832090896
  0
ARC
  5
10F
  8
FISHER_AND_PAYKEL
 62
     7
 10
-796.5000000000979
 20
-20.46903085089755
 30
0.0
 40
2.999999999947816
 50
327.9946167910813
 51
0.0000000000179129
210
0.0
220
0.0
230
-1.0
  0
ARC
  5
110
  8
FISHER_AND_PAYKEL
 62
     7
 10
796.5000000003921
 20
-20.46903085089848
 30
0.0
 40
2.500000000242038
 50
156.0053832104055
 51
179.9999999999573
  0
LINE
  5
111
  8
FISHER_AND_PAYKEL
 62
     7
 10
795.45348479205
 20
-16.67235625558646
 30
0.0
 11
794.2160408290501
 21
-19.45240382742668
 31
0.0
  0
LINE
  5
112
  8
FISHER_AND_PAYKEL
 62
     7
 10
794.99669295785
 20
-16.46903085089662
 30
0.0
 11
795.45348479205
 21
-16.67235625558646
 31
0.0
  0
LINE
  5
113
  8
FISHER_AND_PAYKEL
 62
     7
 10
793.7592489948502
 20
-19.2490784227366
 30
0.0
 11
794.99669295785
 21
-16.46903085089662
 31
0.0
  0
LINE
  5
114
  8
FISHER_AND_PAYKEL
 62
     7
 10
794.3800042401499
 20
-21.7940282009065
 30
0.0
 11
797.8800042401499
 21
-27.39402820090663
 31
0.0
  0
LINE
  5
115
  8
FISHER_AND_PAYKEL
 62
     7
 10
793.95600508815
 20
-22.05902767091652
 30
0.0
 11
797.45600508815
 21
-27.65902767090665
 31
0.0
  0
ARC
  5
116
  8
FISHER_AND_PAYKEL
 62
     7
 10
-796.5000000001997
 20
-20.46903085089654
 30
0.0
 40
3.000000000049681
 50
359.9999999999985
 51
23.99461679151127
210
0.0
220
0.0
230
-1.0
  0
ARC
  5
117
  8
FISHER_AND_PAYKEL
 62
     7
 10
-1602.500000000199
 20
-20.46903085089244
 30
0.0
 40
2.499999999951115
 50
180.0000000000958
 51
212.0053832089482
210
0.0
220
0.0
230
-1.0
  0
ARC
  5
118
  8
FISHER_AND_PAYKEL
 62
     7
 10
-1602.499999999938
 20
-20.4690308508921
 30
0.0
 40
2.50000000021192
 50
156.0053832102583
 51
180.0000000001036
210
0.0
220
0.0
230
-1.0
  0
LINE
  5
119
  8
FISHER_AND_PAYKEL
 62
     7
 10
1604.00330704245
 20
-16.46903085089662
 30
0.0
 11
1603.54651520825
 21
-16.67235625558646
 31
0.0
  0
LINE
  5
11A
  8
FISHER_AND_PAYKEL
 62
     7
 10
1603.54651520825
 20
-16.67235625558646
 30
0.0
 11
1604.78395917125
 21
-19.45240382742668
 31
0.0
  0
LINE
  5
11B
  8
FISHER_AND_PAYKEL
 62
     7
 10
1605.24075100545
 20
-19.2490784227366
 30
0.0
 11
1604.00330704245
 21
-16.46903085089662
 31
0.0
  0
LINE
  5
11C
  8
FISHER_AND_PAYKEL
 62
     7
 10
1604.61999576015
 20
-21.7940282009065
 30
0.0
 11
1601.11999576015
 21
-27.39402820090663
 31
0.0
  0
LINE
  5
11D
  8
FISHER_AND_PAYKEL
 62
     7
 10
1601.54399491215
 20
-27.65902767090665
 30
0.0
 11
1605.04399491215
 21
-22.05902767091652
 31
0.0
  0
ARC
  5
11E
  8
FISHER_AND_PAYKEL
 62
     7
 10
-1602.50000000009
 20
-20.46903085089869
 30
0.0
 40
3.000000000060003
 50
156.0053832085316
 51
179.9999999999604
210
0.0
220
0.0
230
-1.0
  0
ARC
  5
11F
  8
FISHER_AND_PAYKEL
 62
     7
 10
-1602.500000000209
 20
-20.46903085089943
 30
0.0
 40
2.999999999941338
 50
179.9999999999463
 51
212.005383208954
210
0.0
220
0.0
230
-1.0
  0
ARC
  5
120
  8
FISHER_AND_PAYKEL
 62
     7
 10
1613.0
 20
1315.296380396651
 30
0.0
 40
2.0
 50
0.0
 51
90.0
  0
LINE
  5
121
  8
FISHER_AND_PAYKEL
 62
     7
 10
787.0000000000005
 20
1317.296380396651
 30
0.0
 11
1613.0
 21
1317.296380396651
 31
0.0
  0
LINE
  5
122
  8
FISHER_AND_PAYKEL
 62
     7
 10
1615.0
 20
1315.296380396651
 30
0.0
 11
1615.0
 21
804.2963803966513
 31
0.0
  0
ARC
  5
123
  8
FISHER_AND_PAYKEL
 62
     7
 10
-1613.0
 20
804.2963803966513
 30
0.0
 40
2.0
 50
180.0000000000065
 51
270.0
210
0.0
220
0.0
230
-1.0
  0
LINE
  5
124
  8
FISHER_AND_PAYKEL
 62
     7
 10
1613.0
 20
802.2963803966513
 30
0.0
 11
787.0
 21
802.2963803966513
 31
0.0
  0
ARC
  5
125
  8
FISHER_AND_PAYKEL
 62
     7
 10
787.0
 20
804.2963803966513
 30
0.0
 40
2.0
 50
180.0000000000065
 51
270.0
  0
LINE
  5
126
  8
FISHER_AND_PAYKEL
 62
     7
 10
785.0
 20
804.2963803966513
 30
0.0
 11
785.0
 21
1315.296380396651
 31
0.0
  0
ARC
  5
127
  8
FISHER_AND_PAYKEL
 62
     7
 10
787.0
 20
1315.296380396651
 30
0.0
 40
2.0
 50
89.99999999999349
 51
180.0
  0
ARC
  5
128
  8
FISHER_AND_PAYKEL
 62
     7
 10
-1200.000000018044
 20
1050.296380396658
 30
0.0
 40
89.50000001804437
 50
359.9999999999959
 51
1.570762627357049
210
0.0
220
0.0
230
-1.0
  0
ARC
  5
129
  8
FISHER_AND_PAYKEL
 62
     7
 10
-1200.0
 20
1050.296380396651
 30
0.0
 40
89.49999999999977
 50
180.0
 51
270.0000000000002
210
0.0
220
0.0
230
-1.0
  0
ARC
  5
12A
  8
FISHER_AND_PAYKEL
 62
     7
 10
-1200.0
 20
1050.296380396651
 30
0.0
 40
89.5
 50
270.0
 51
0.0
210
0.0
220
0.0
230
-1.0
  0
ARC
  5
12B
  8
FISHER_AND_PAYKEL
 62
     7
 10
-1199.99999999999
 20
1050.296380396651
 30
0.0
 40
89.50000000000986
 50
6.76745046196995
 51
179.9999999999997
210
0.0
220
0.0
230
-1.0
  0
ARC
  5
12C
  8
FISHER_AND_PAYKEL
 62
     7
 10
-1200.000000006427
 20
1050.296380396329
 30
0.0
 40
89.50000000644032
 50
1.570762627771023
 51
6.767450461688711
210
0.0
220
0.0
230
-1.0
  0
LINE
  5
12D
  8
FISHER_AND_PAYKEL
 62
     7
 10
1243.0118367998
 20
974.7497185316511
 30
0.0
 11
1156.9881632002
 21
974.7497185316511
 31
0.0
  0
LINE
  5
12E
  8
FISHER_AND_PAYKEL
 62
     7
 10
1145.1606258402
 20
982.8429945246512
 30
0.0
 11
1254.8393741598
 21
982.8429945246512
 31
0.0
  0
LINE
  5
12F
  8
FISHER_AND_PAYKEL
 62
     7
 10
1260.3757460837
 20
987.7497137494511
 30
0.0
 11
1139.6242539163
 21
987.7497137494511
 31
0.0
  0
LINE
  5
130
  8
FISHER_AND_PAYKEL
 62
     7
 10
1132.2345906358
 20
995.8430470043513
 30
0.0
 11
1267.7654093642
 21
995.8430470043513
 31
0.0
  0
LINE
  5
131
  8
FISHER_AND_PAYKEL
 62
     7
 10
1271.4313939877
 20
1000.749713739751
 30
0.0
 11
1128.5686060123
 21
1000.749713739751
 31
0.0
  0
LINE
  5
132
  8
FISHER_AND_PAYKEL
 62
     7
 10
1123.5870606104
 20
1008.843046179851
 30
0.0
 11
1276.4129393896
 21
1008.843046179851
 31
0.0
  0
LINE
  5
133
  8
FISHER_AND_PAYKEL
 62
     7
 10
1278.8774833502
 20
1013.749713733551
 30
0.0
 11
1121.1225166498
 21
1013.749713733551
 31
0.0
  0
LINE
  5
134
  8
FISHER_AND_PAYKEL
 62
     7
 10
1117.8554687028
 20
1021.843046641151
 30
0.0
 11
1282.1445312972
 21
1021.843046641151
 31
0.0
  0
LINE
  5
135
  8
FISHER_AND_PAYKEL
 62
     7
 10
1114.451705451
 20
1034.843046659351
 30
0.0
 11
1285.548294549
 21
1034.843046659351
 31
0.0
  0
LINE
  5
136
  8
FISHER_AND_PAYKEL
 62
     7
 10
1283.6831566848
 20
1026.749713729951
 30
0.0
 11
1116.3168433152
 21
1026.749713729951
 31
0.0
  0
LINE
  5
137
  8
FISHER_AND_PAYKEL
 62
     7
 10
1113.1017987645
 20
1047.843046770551
 30
0.0
 11
1286.8982012355
 21
1047.843046770551
 31
0.0
  0
LINE
  5
138
  8
FISHER_AND_PAYKEL
 62
     7
 10
1286.2906950157
 20
1039.749713741151
 30
0.0
 11
1113.7093049843
 21
1039.749713741151
 31
0.0
  0
LINE
  5
139
  8
FISHER_AND_PAYKEL
 62
     7
 10
1113.7093049623
 20
1060.843046872551
 30
0.0
 11
1286.2906950377
 21
1060.843046872551
 31
0.0
  0
LINE
  5
13A
  8
FISHER_AND_PAYKEL
 62
     7
 10
1286.8982012436
 20
1052.749713732551
 30
0.0
 11
1113.1017987564
 21
1052.749713732551
 31
0.0
  0
LINE
  5
13B
  8
FISHER_AND_PAYKEL
 62
     7
 10
1285.5482946175
 20
1065.749713754651
 30
0.0
 11
1114.4517053825
 21
1065.749713754651
 31
0.0
  0
LINE
  5
13C
  8
FISHER_AND_PAYKEL
 62
     7
 10
1116.3168432727
 20
1073.843046912151
 30
0.0
 11
1283.6831567273
 21
1073.843046912151
 31
0.0
  0
LINE
  5
13D
  8
FISHER_AND_PAYKEL
 62
     7
 10
1282.1445314303
 20
1078.749713767851
 30
0.0
 11
1117.8554685697
 21
1078.749713767851
 31
0.0
  0
LINE
  5
13E
  8
FISHER_AND_PAYKEL
 62
     7
 10
1121.1225165988
 20
1086.843046949451
 30
0.0
 11
1278.8774834012
 21
1086.843046949451
 31
0.0
  0
LINE
  5
13F
  8
FISHER_AND_PAYKEL
 62
     7
 10
1276.4129398622
 20
1091.749713742151
 30
0.0
 11
1123.5870601378
 21
1091.749713742151
 31
0.0
  0
LINE
  5
140
  8
FISHER_AND_PAYKEL
 62
     7
 10
1128.568605953
 20
1099.843046968051
 30
0.0
 11
1271.431394047
 21
1099.843046968051
 31
0.0
  0
LINE
  5
141
  8
FISHER_AND_PAYKEL
 62
     7
 10
1267.7654093896
 20
1104.749713757451
 30
0.0
 11
1132.2345906104
 21
1104.749713757451
 31
0.0
  0
LINE
  5
142
  8
FISHER_AND_PAYKEL
 62
     7
 10
1139.6242538078
 20
1112.843046939151
 30
0.0
 11
1260.3757461922
 21
1112.843046939151
 31
0.0
  0
LINE
  5
143
  8
FISHER_AND_PAYKEL
 62
     7
 10
1254.8394431053
 20
1117.749710216151
 30
0.0
 11
1145.1605568947
 21
1117.749710216151
 31
0.0
  0
LINE
  5
144
  8
FISHER_AND_PAYKEL
 62
     7
 10
1156.9881943004
 20
1125.843059968251
 30
0.0
 11
1243.0118056996
 21
1125.843059968251
 31
0.0
  0
LINE
  5
145
  8
FISHER_AND_PAYKEL
 62
     7
 10
1232.5469080491
 20
1130.906646493951
 30
0.0
 11
1167.4530919509
 21
1130.906646493951
 31
0.0
  0
LINE
  5
146
  8
FISHER_AND_PAYKEL
 62
     7
 10
1167.6887654893
 20
969.5913598079514
 30
0.0
 11
1232.3112345107
 21
969.5913598079514
 31
0.0
  0
ARC
  5
147
  8
FISHER_AND_PAYKEL
 62
     7
 10
-1199.999999999047
 20
1050.296380395146
 30
0.0
 40
86.93282592627392
 50
299.6546476029224
 51
309.1109939229827
210
0.0
220
0.0
230
-1.0
  0
ARC
  5
148
  8
FISHER_AND_PAYKEL
 62
     7
 10
-1200.000000000932
 20
1050.296380395177
 30
0.0
 40
86.93282592631138
 50
230.8890060770192
 51
240.3453523970754
210
0.0
220
0.0
230
-1.0
  0
ARC
  5
149
  8
FISHER_AND_PAYKEL
 62
     7
 10
-1199.999999996529
 20
1050.296380392936
 30
0.0
 40
86.93282592298168
 50
313.9882100958001
 51
321.2161565534956
210
0.0
220
0.0
230
-1.0
  0
ARC
  5
14A
  8
FISHER_AND_PAYKEL
 62
     7
 10
-1200.000000003378
 20
1050.296380393021
 30
0.0
 40
86.93282592310744
 50
218.7838434465097
 51
226.0117899041947
210
0.0
220
0.0
230
-1.0
  0
ARC
  5
14B
  8
FISHER_AND_PAYKEL
 62
     7
 10
-1200.000000005864
 20
1050.296380401028
 30
0.0
 40
86.93282593535946
 50
325.2538202820623
 51
331.5205659259699
210
0.0
220
0.0
230
-1.0
  0
ARC
  5
14C
  8
FISHER_AND_PAYKEL
 62
     7
 10
-1199.99999999392
 20
1050.296380401161
 30
0.0
 40
86.93282593561264
 50
208.4794340740391
 51
214.7461797179285
210
0.0
220
0.0
230
-1.0
  0
ARC
  5
14D
  8
FISHER_AND_PAYKEL
 62
     7
 10
-1200.000000007182
 20
1050.296380399162
 30
0.0
 40
86.93282593566931
 50
335.1400788021985
 51
340.8948685030118
210
0.0
220
0.0
230
-1.0
  0
ARC
  5
14E
  8
FISHER_AND_PAYKEL
 62
     7
 10
-1199.999999992813
 20
1050.296380399164
 30
0.0
 40
86.93282593567443
 50
199.1051314969883
 51
204.8599211978012
210
0.0
220
0.0
230
-1.0
  0
ARC
  5
14F
  8
FISHER_AND_PAYKEL
 62
     7
 10
-1200.000000009474
 20
1050.296380398427
 30
0.0
 40
86.93282593770188
 50
344.2845233689623
 51
349.7605832136499
210
0.0
220
0.0
230
-1.0
  0
ARC
  5
150
  8
FISHER_AND_PAYKEL
 62
     7
 10
-1199.999999990611
 20
1050.296380398403
 30
0.0
 40
86.93282593761298
 50
190.2394167863444
 51
195.7154766310375
210
0.0
220
0.0
230
-1.0
  0
ARC
  5
151
  8
FISHER_AND_PAYKEL
 62
     7
 10
-1200.000000005982
 20
1050.296380397814
 30
0.0
 40
86.93282593411811
 50
353.0317261483319
 51
358.3828395531162
210
0.0
220
0.0
230
-1.0
  0
ARC
  5
152
  8
FISHER_AND_PAYKEL
 62
     7
 10
-1199.999999994467
 20
1050.296380397781
 30
0.0
 40
86.93282593366874
 50
181.6171604468701
 51
186.9682738516821
210
0.0
220
0.0
230
-1.0
  0
ARC
  5
153
  8
FISHER_AND_PAYKEL
 62
     7
 10
-1200.000000004026
 20
1050.296380397756
 30
0.0
 40
86.9328259239577
 50
173.0317262682713
 51
178.382839745764
210
0.0
220
0.0
230
-1.0
  0
ARC
  5
154
  8
FISHER_AND_PAYKEL
 62
     7
 10
-1199.999999995756
 20
1050.296380397772
 30
0.0
 40
86.93282592373905
 50
1.617160254229284
 51
6.968273731735481
210
0.0
220
0.0
230
-1.0
  0
ARC
  5
155
  8
FISHER_AND_PAYKEL
 62
     7
 10
-1200.00000000324
 20
1050.29638039752
 30
0.0
 40
86.93282592470395
 50
164.2845234718855
 51
169.7605834679089
210
0.0
220
0.0
230
-1.0
  0
ARC
  5
156
  8
FISHER_AND_PAYKEL
 62
     7
 10
-1199.999999996762
 20
1050.296380397524
 30
0.0
 40
86.93282592470425
 50
10.23941653208801
 51
15.71547652811136
210
0.0
220
0.0
230
-1.0
  0
ARC
  5
157
  8
FISHER_AND_PAYKEL
 62
     7
 10
-1200.000000012907
 20
1050.296380401365
 30
0.0
 40
86.9328259143083
 50
155.1400788810438
 51
160.8948687712234
210
0.0
220
0.0
230
-1.0
  0
ARC
  5
158
  8
FISHER_AND_PAYKEL
 62
     7
 10
-1199.999999986654
 20
1050.296380401541
 30
0.0
 40
86.93282591383618
 50
19.10513122876102
 51
24.85992111897192
210
0.0
220
0.0
230
-1.0
  0
ARC
  5
159
  8
FISHER_AND_PAYKEL
 62
     7
 10
-1200.000000003316
 20
1050.296380398565
 30
0.0
 40
86.93282592422696
 50
145.2538203505989
 51
151.5205665800222
210
0.0
220
0.0
230
-1.0
  0
ARC
  5
15A
  8
FISHER_AND_PAYKEL
 62
     7
 10
-1199.999999996505
 20
1050.296380398675
 30
0.0
 40
86.93282592401728
 50
28.47943341997007
 51
34.74617964940857
210
0.0
220
0.0
230
-1.0
  0
ARC
  5
15B
  8
FISHER_AND_PAYKEL
 62
     7
 10
-1199.999999995022
 20
1050.296380392181
 30
0.0
 40
86.93282593476411
 50
133.9882101954354
 51
141.2161565794479
210
0.0
220
0.0
230
-1.0
  0
ARC
  5
15C
  8
FISHER_AND_PAYKEL
 62
     7
 10
-1200.000000004984
 20
1050.296380392176
 30
0.0
 40
86.93282593477149
 50
38.78384342055244
 51
46.0117898045643
210
0.0
220
0.0
230
-1.0
  0
ARC
  5
15D
  8
FISHER_AND_PAYKEL
 62
     7
 10
-1200.000000001273
 20
1050.296380398294
 30
0.0
 40
86.93282592597853
 50
119.6546240159113
 51
129.111052486094
210
0.0
220
0.0
230
-1.0
  0
ARC
  5
15E
  8
FISHER_AND_PAYKEL
 62
     7
 10
-1199.999999998756
 20
1050.296380398245
 30
0.0
 40
86.93282592603481
 50
50.88894751391148
 51
60.34537598408802
210
0.0
220
0.0
230
-1.0
  0
ARC
  5
15F
  8
FISHER_AND_PAYKEL
 62
     7
 10
-1200.0
 20
1050.296380396813
 30
0.0
 40
86.93282592788489
 50
68.01329334739778
 51
111.9867066526026
210
0.0
220
0.0
230
-1.0
  0
ARC
  5
160
  8
FISHER_AND_PAYKEL
 62
     7
 10
-1200.0
 20
1050.296380396246
 30
0.0
 40
86.93282592762392
 50
248.180705745295
 51
291.8192942547043
210
0.0
220
0.0
230
-1.0
  0
ARC
  5
161
  8
FISHER_AND_PAYKEL
 62
     7
 10
-1200.0
 20
1050.296380396651
 30
0.0
 40
91.04999999989991
 50
0.0000000000001431
 51
179.9999999999999
210
0.0
220
0.0
230
-1.0
  0
ARC
  5
162
  8
FISHER_AND_PAYKEL
 62
     7
 10
-1200.0
 20
1050.296380396651
 30
0.0
 40
91.04999999990036
 50
179.9999999999999
 51
0.0000000000001431
210
0.0
220
0.0
230
-1.0
  0
POLYLINE
  5
163
  8
FISHER_AND_PAYKEL
 62
     3
 66
     1
 10
0.0
 20
0.0
 30
0.0
 70
     1
  0
VERTEX
  5
164
  8
FISHER_AND_PAYKEL
 62
     3
 10
1617.5
 20
804.2959999999994
 30
0.0
  0
VERTEX
  5
165
  8
FISHER_AND_PAYKEL
 62
     3
 10
1617.5
 20
1315.295999999999
 30
0.0
 42
0.4142135623731542
  0
VERTEX
  5
166
  8
FISHER_AND_PAYKEL
 62
     3
 10
1612.999999999999
 20
1319.796
 30
0.0
  0
VERTEX
  5
167
  8
FISHER_AND_PAYKEL
 62
     3
 10
786.9999999999991
 20
1319.796
 30
0.0
 42
0.4142135623730231
  0
VERTEX
  5
168
  8
FISHER_AND_PAYKEL
 62
     3
 10
782.4999999999995
 20
1315.296000000001
 30
0.0
  0
VERTEX
  5
169
  8
FISHER_AND_PAYKEL
 62
     3
 10
782.5
 20
804.2959999999994
 30
0.0
 42
0.4142135623730877
  0
VERTEX
  5
16A
  8
FISHER_AND_PAYKEL
 62
     3
 10
787.0
 20
799.7959999999994
 30
0.0
  0
VERTEX
  5
16B
  8
FISHER_AND_PAYKEL
 62
     3
 10
1613.0
 20
799.7959999999994
 30
0.0
 42
0.4142135623731003
  0
SEQEND
  5
16C
  8
FISHER_AND_PAYKEL
 62
     3
  0
POLYLINE
  5
16D
  8
FISHER_AND_PAYKEL
 62
     3
 66
     1
 10
0.0
 20
0.0
 30
0.0
 70
     1
  0
VERTEX
  5
16E
  8
FISHER_AND_PAYKEL
 62
     3
 10
796.4999999999991
 20
813.7959999999998
 30
0.0
  0
VERTEX
  5
16F
  8
FISHER_AND_PAYKEL
 62
     3
 10
1603.499999999999
 20
813.7959999999998
 30
0.0
  0
VERTEX
  5
170
  8
FISHER_AND_PAYKEL
 62
     3
 10
1603.499999999999
 20
1305.796
 30
0.0
  0
VERTEX
  5
171
  8
FISHER_AND_PAYKEL
 62
     3
 10
796.4999999999991
 20
1305.796
 30
0.0
  0
SEQEND
  5
172
  8
FISHER_AND_PAYKEL
 62
     3
  0
POLYLINE
  5
173
  8
FISHER_AND_PAYKEL
 62
     1
 66
     1
 10
0.0
 20
0.0
 30
0.0
  0
VERTEX
  5
174
  8
FISHER_AND_PAYKEL
 62
     1
 10
1643.5
 20
802.2963803966513
 30
0.0
  0
VERTEX
  5
175
  8
FISHER_AND_PAYKEL
 62
     1
 10
1643.5
 20
1355.796
 30
0.0
  0
VERTEX
  5
176
  8
FISHER_AND_PAYKEL
 62
     1
 10
756.5
 20
1355.796
 30
0.0
  0
VERTEX
  5
177
  8
FISHER_AND_PAYKEL
 62
     1
 10
756.5
 20
802.2963803966513
 30
0.0
  0
SEQEND
  5
178
  8
FISHER_AND_PAYKEL
 62
     1
  0
LINE
  5
179
  8
FISHER_AND_PAYKEL
 62
     4
 10
-2000.0
 20
0.0
 30
0.0
 11
2000.0
 21
0.0
 31
0.0
  0
LINE
  5
17A
  8
FISHER_AND_PAYKEL
 62
     1
 10
-296.0000000000009
 20
500.0000000000005
 30
0.0
 11
-296.0000000000009
 21
0.0
 31
0.0
  0
LINE
  5
17B
  8
FISHER_AND_PAYKEL
 62
     1
 10
33.99999999999909
 20
450.0000000000005
 30
0.0
 11
-296.0000000000009
 21
450.0000000000005
 31
0.0
  0
LINE
  5
17C
  8
FISHER_AND_PAYKEL
 62
     1
 10
33.99999999999909
 20
500.0000000000005
 30
0.0
 11
-296.0000000000009
 21
500.0000000000005
 31
0.0
  0
LINE
  5
17D
  8
FISHER_AND_PAYKEL
 62
     1
 10
-244.9995945558887
 20
-420.0
 30
0.0
 11
245.0004054441115
 21
-420.0
 31
0.0
  0
LINE
  5
17E
  8
FISHER_AND_PAYKEL
 62
     7
 10
-99.34124276889997
 20
-218.0
 30
0.0
 11
194.6199999999899
 21
-218.0
 31
0.0
  0
LINE
  5
17F
  8
FISHER_AND_PAYKEL
 62
     7
 10
194.619999999999
 20
-198.5
 30
0.0
 11
194.619999999999
 21
-218.0
 31
0.0
  0
LINE
  5
180
  8
FISHER_AND_PAYKEL
 62
     7
 10
-99.34124276889997
 20
-218.0
 30
0.0
 11
-99.34124276889997
 21
-198.5
 31
0.0
  0
LINE
  5
181
  8
FISHER_AND_PAYKEL
 62
     7
 10
-187.0
 20
-108.0
 30
0.0
 11
-187.0
 21
-57.0
 31
0.0
  0
LINE
  5
182
  8
FISHER_AND_PAYKEL
 62
     7
 10
-254.0
 20
-5.5
 30
0.0
 11
254.0
 21
-5.5
 31
0.0
  0
LINE
  5
183
  8
FISHER_AND_PAYKEL
 62
     7
 10
212.619999999999
 20
-57.0
 30
0.0
 11
212.619999999999
 21
-198.5
 31
0.0
  0
LINE
  5
184
  8
FISHER_AND_PAYKEL
 62
     7
 10
116.119999999999
 20
-65.0
 30
0.0
 11
134.119999999999
 21
-65.0
 31
0.0
  0
LINE
  5
185
  8
FISHER_AND_PAYKEL
 62
     7
 10
-50.86941628349996
 20
-198.5
 30
0.0
 11
-112.0262003251992
 21
-198.5
 31
0.0
  0
LINE
  5
186
  8
FISHER_AND_PAYKEL
 62
     7
 10
54.02661337760037
 20
-198.5
 30
0.0
 11
212.619999999999
 21
-198.5
 31
0.0
  0
LINE
  5
187
  8
FISHER_AND_PAYKEL
 62
     7
 10
-50.88000000000102
 20
-198.5
 30
0.0
 11
-50.88000000000102
 21
-57.0
 31
0.0
  0
LINE
  5
188
  8
FISHER_AND_PAYKEL
 62
     7
 10
-257.5
 20
-4.0
 30
0.0
 11
257.5
 21
-4.0
 31
0.0
  0
LINE
  5
189
  8
FISHER_AND_PAYKEL
 62
     7
 10
-100.038436635652
 20
-175.2605085804596
 30
0.0
 11
-134.1874919372622
 21
-175.2565365012779
 31
0.0
  0
LINE
  5
18A
  8
FISHER_AND_PAYKEL
 62
     7
 10
-100.0279909443343
 20
-85.72718977839622
 30
0.0
 11
-134.1770520515129
 21
-85.72320787855597
 31
0.0
  0
ARC
  5
18B
  8
FISHER_AND_PAYKEL
 62
     7
 10
50.52197322526467
 20
-158.0909025061121
 30
0.0
 40
76.0912758239574
 50
78.52322998334259
 51
90.00668089424124
210
0.0
220
0.0
230
-1.0
  0
LINE
  5
18C
  8
FISHER_AND_PAYKEL
 62
     7
 10
-134.1849265526835
 20
-153.256657332586
 30
0.0
 11
-134.1796172727973
 21
-107.7227568459325
 31
0.0
  0
LINE
  5
18D
  8
FISHER_AND_PAYKEL
 62
     7
 10
135.2909853551901
 20
-87.42444448387619
 30
0.0
 11
135.6809272124701
 21
-87.60870027278656
 31
0.0
  0
LINE
  5
18E
  8
FISHER_AND_PAYKEL
 62
     7
 10
-117.3412427688998
 20
-85.72517099274188
 30
0.0
 11
-117.3412427688998
 21
-57.0000000000003
 31
0.0
  0
ARC
  5
18F
  8
FISHER_AND_PAYKEL
 62
     7
 10
50.51560044813278
 20
-102.9088624661205
 30
0.0
 40
76.09076254494022
 50
270.2365195952667
 51
281.490162694671
210
0.0
220
0.0
230
-1.0
  0
LINE
  5
190
  8
FISHER_AND_PAYKEL
 62
     7
 10
-117.3412427688998
 20
-198.5000000000002
 30
0.0
 11
-117.3412427688998
 21
-175.2584959884445
 31
0.0
  0
LINE
  5
191
  8
FISHER_AND_PAYKEL
 62
     7
 10
54.02661337760037
 20
-198.5
 30
0.0
 11
54.02661337760037
 21
-57.0
 31
0.0
  0
LINE
  5
192
  8
FISHER_AND_PAYKEL
 62
     7
 10
257.5
 20
0.0
 30
0.0
 11
-257.5
 21
0.0
 31
0.0
  0
LINE
  5
193
  8
FISHER_AND_PAYKEL
 62
     7
 10
212.629511629777
 20
-116.0
 30
0.0
 11
240.0
 21
-116.0
 31
0.0
  0
LINE
  5
194
  8
FISHER_AND_PAYKEL
 62
     7
 10
-227.0
 20
-98.0
 30
0.0
 11
-227.0
 21
-102.0
 31
0.0
  0
LINE
  5
195
  8
FISHER_AND_PAYKEL
 62
     7
 10
-227.0
 20
-98.0
 30
0.0
 11
-187.0
 21
-98.0
 31
0.0
  0
LINE
  5
196
  8
FISHER_AND_PAYKEL
 62
     7
 10
-187.0
 20
-106.0
 30
0.0
 11
-227.0
 21
-106.0
 31
0.0
  0
LINE
  5
197
  8
FISHER_AND_PAYKEL
 62
     7
 10
240.0
 20
-116.0
 30
0.0
 11
240.0
 21
-57.0
 31
0.0
  0
LINE
  5
198
  8
FISHER_AND_PAYKEL
 62
     7
 10
-227.0
 20
-102.0
 30
0.0
 11
-227.0
 21
-106.0
 31
0.0
  0
LINE
  5
199
  8
FISHER_AND_PAYKEL
 62
     7
 10
-187.0
 20
-108.0
 30
0.0
 11
-134.1650095986097
 21
-108.0
 31
0.0
  0
LINE
  5
19A
  8
FISHER_AND_PAYKEL
 62
     7
 10
254.0
 20
-4.0
 30
0.0
 11
254.0
 21
-5.5
 31
0.0
  0
LINE
  5
19B
  8
FISHER_AND_PAYKEL
 62
     7
 10
-254.0
 20
-5.5
 30
0.0
 11
-254.0
 21
-4.0
 31
0.0
  0
LINE
  5
19C
  8
FISHER_AND_PAYKEL
 62
     7
 10
-50.88000000000102
 20
-198.5
 30
0.0
 11
54.02661337760037
 21
-198.5
 31
0.0
  0
LINE
  5
19D
  8
FISHER_AND_PAYKEL
 62
     7
 10
116.119999999999
 20
-65.0
 30
0.0
 11
116.119999999999
 21
-57.0
 31
0.0
  0
LINE
  5
19E
  8
FISHER_AND_PAYKEL
 62
     7
 10
134.119999999999
 20
-57.0
 30
0.0
 11
134.119999999999
 21
-65.0
 31
0.0
  0
LINE
  5
19F
  8
FISHER_AND_PAYKEL
 62
     7
 10
-117.3412427689182
 20
-198.5
 30
0.0
 11
-112.0262003251992
 21
-198.5
 31
0.0
  0
LINE
  5
1A0
  8
FISHER_AND_PAYKEL
 62
     7
 10
257.5
 20
-4.0
 30
0.0
 11
257.5
 21
0.0
 31
0.0
  0
LINE
  5
1A1
  8
FISHER_AND_PAYKEL
 62
     7
 10
-257.5
 20
0.0
 30
0.0
 11
-257.5
 21
-4.0
 31
0.0
  0
LINE
  5
1A2
  8
FISHER_AND_PAYKEL
 62
     7
 10
-134.187475819801
 20
-175.1182523024224
 30
0.0
 11
-134.1849265526835
 21
-153.256657332586
 31
0.0
  0
LINE
  5
1A3
  8
FISHER_AND_PAYKEL
 62
     7
 10
-134.1770520515129
 20
-85.72320787855597
 30
0.0
 11
-134.1796172727973
 21
-107.7227568459325
 31
0.0
  0
LINE
  5
1A4
  8
FISHER_AND_PAYKEL
 62
     7
 10
-134.1874741669653
 20
-175.104077742483
 30
0.0
 11
-134.1874919440088
 21
-175.2565349510783
 31
0.0
  0
ARC
  5
1A5
  8
FISHER_AND_PAYKEL
 62
     7
 10
100.0221590173841
 20
-35.72719007848489
 30
0.0
 40
50.00000003819993
 50
269.7516325483829
 51
270.0066828960236
210
0.0
220
0.0
230
-1.0
  0
ARC
  5
1A6
  8
FISHER_AND_PAYKEL
 62
     7
 10
100.0221590172888
 20
-35.72719011641824
 30
0.0
 40
50.00000000026652
 50
268.2238170144466
 51
269.7516325483036
210
0.0
220
0.0
230
-1.0
  0
LINE
  5
1A7
  8
FISHER_AND_PAYKEL
 62
     7
 10
-98.47239495641406
 20
-85.70316654697467
 30
0.0
 11
-98.28302162806722
 21
-85.69693486274991
 31
0.0
  0
LINE
  5
1A8
  8
FISHER_AND_PAYKEL
 62
     7
 10
-78.15514922091825
 20
-84.99640401342003
 30
0.0
 11
-98.2830217215851
 21
-85.69693497761773
 31
0.0
  0
ARC
  5
1A9
  8
FISHER_AND_PAYKEL
 62
     7
 10
-80.8301738948327
 20
-252.0411155681666
 30
0.0
 40
76.09137373872163
 50
78.50988470648743
 51
87.99332296747114
  0
ARC
  5
1AA
  8
FISHER_AND_PAYKEL
 62
     7
 10
80.80183273378947
 20
-8.951154534468978
 30
0.0
 40
76.09129320712856
 50
258.5232301754665
 51
268.0066787782231
210
0.0
220
0.0
230
-1.0
  0
POLYLINE
  5
1AB
  8
FISHER_AND_PAYKEL
 62
     7
 66
     1
 10
0.0
 20
0.0
 30
0.0
  0
VERTEX
  5
1AC
  8
FISHER_AND_PAYKEL
 62
     7
 10
133.0704053693918
 20
-100.9989070834843
 30
0.0
  0
VERTEX
  5
1AD
  8
FISHER_AND_PAYKEL
 62
     7
 10
130.5472989251136
 20
-100.9083200281364
 30
0.0
  0
VERTEX
  5
1AE
  8
FISHER_AND_PAYKEL
 62
     7
 10
129.3664394479743
 20
-100.8304887469361
 30
0.0
  0
VERTEX
  5
1AF
  8
FISHER_AND_PAYKEL
 62
     7
 10
128.7212100789166
 20
-100.7745106489035
 30
0.0
  0
VERTEX
  5
1B0
  8
FISHER_AND_PAYKEL
 62
     7
 10
128.0466253263877
 20
-100.7035921784983
 30
0.0
  0
VERTEX
  5
1B1
  8
FISHER_AND_PAYKEL
 62
     7
 10
127.3401663311671
 20
-100.6135993619275
 30
0.0
  0
VERTEX
  5
1B2
  8
FISHER_AND_PAYKEL
 62
     7
 10
126.5970993253014
 20
-100.4981173031431
 30
0.0
  0
VERTEX
  5
1B3
  8
FISHER_AND_PAYKEL
 62
     7
 10
126.2082276442093
 20
-100.4276700255454
 30
0.0
  0
VERTEX
  5
1B4
  8
FISHER_AND_PAYKEL
 62
     7
 10
125.8184648749634
 20
-100.3492515815397
 30
0.0
  0
VERTEX
  5
1B5
  8
FISHER_AND_PAYKEL
 62
     7
 10
125.4153561635244
 20
-100.2591011402548
 30
0.0
  0
VERTEX
  5
1B6
  8
FISHER_AND_PAYKEL
 62
     7
 10
125.0111880635526
 20
-100.1582092854645
 30
0.0
  0
VERTEX
  5
1B7
  8
FISHER_AND_PAYKEL
 62
     7
 10
124.60223330561
 20
-100.0439963555044
 30
0.0
  0
VERTEX
  5
1B8
  8
FISHER_AND_PAYKEL
 62
     7
 10
124.1932579806155
 20
-99.9161163344991
 30
0.0
  0
VERTEX
  5
1B9
  8
FISHER_AND_PAYKEL
 62
     7
 10
123.991253269629
 20
-99.84742191359729
 30
0.0
  0
VERTEX
  5
1BA
  8
FISHER_AND_PAYKEL
 62
     7
 10
123.7894932047553
 20
-99.7748230344705
 30
0.0
  0
VERTEX
  5
1BB
  8
FISHER_AND_PAYKEL
 62
     7
 10
123.5880219946778
 20
-99.69806650820072
 30
0.0
  0
VERTEX
  5
1BC
  8
FISHER_AND_PAYKEL
 62
     7
 10
123.3868838480798
 20
-99.61689914587
 30
0.0
  0
VERTEX
  5
1BD
  8
FISHER_AND_PAYKEL
 62
     7
 10
123.1908807340686
 20
-99.5331472954747
 30
0.0
  0
VERTEX
  5
1BE
  8
FISHER_AND_PAYKEL
 62
     7
 10
122.9954573859477
 20
-99.44471662730821
 30
0.0
  0
VERTEX
  5
1BF
  8
FISHER_AND_PAYKEL
 62
     7
 10
122.8008338749739
 20
-99.35137504646315
 30
0.0
  0
VERTEX
  5
1C0
  8
FISHER_AND_PAYKEL
 62
     7
 10
122.6072302724038
 20
-99.25289045803216
 30
0.0
  0
VERTEX
  5
1C1
  8
FISHER_AND_PAYKEL
 62
     7
 10
122.4200170405499
 20
-99.15189978902598
 30
0.0
  0
VERTEX
  5
1C2
  8
FISHER_AND_PAYKEL
 62
     7
 10
122.2343105453792
 20
-99.0457129857072
 30
0.0
  0
VERTEX
  5
1C3
  8
FISHER_AND_PAYKEL
 62
     7
 10
122.0504430097883
 20
-98.93422523274187
 30
0.0
  0
VERTEX
  5
1C4
  8
FISHER_AND_PAYKEL
 62
     7
 10
121.8687466566736
 20
-98.81733171479597
 30
0.0
  0
VERTEX
  5
1C5
  8
FISHER_AND_PAYKEL
 62
     7
 10
121.6959699865585
 20
-98.69945264002206
 30
0.0
  0
VERTEX
  5
1C6
  8
FISHER_AND_PAYKEL
 62
     7
 10
121.5258177148535
 20
-98.5764371350511
 30
0.0
  0
VERTEX
  5
1C7
  8
FISHER_AND_PAYKEL
 62
     7
 10
121.3585881721306
 20
-98.4482689886412
 30
0.0
  0
VERTEX
  5
1C8
  8
FISHER_AND_PAYKEL
 62
     7
 10
121.1945796889615
 20
-98.31493198955049
 30
0.0
  0
VERTEX
  5
1C9
  8
FISHER_AND_PAYKEL
 62
     7
 10
121.0451102061797
 20
-98.18622656364279
 30
0.0
  0
VERTEX
  5
1CA
  8
FISHER_AND_PAYKEL
 62
     7
 10
120.8989385404612
 20
-98.05323071965157
 30
0.0
  0
VERTEX
  5
1CB
  8
FISHER_AND_PAYKEL
 62
     7
 10
120.7563146563545
 20
-97.91614439422762
 30
0.0
  0
VERTEX
  5
1CC
  8
FISHER_AND_PAYKEL
 62
     7
 10
120.6174885184082
 20
-97.77516752402171
 30
0.0
  0
VERTEX
  5
1CD
  8
FISHER_AND_PAYKEL
 62
     7
 10
120.4965643602093
 20
-97.64576971638655
 30
0.0
  0
VERTEX
  5
1CE
  8
FISHER_AND_PAYKEL
 62
     7
 10
120.3789878354432
 20
-97.51359839821872
 30
0.0
  0
VERTEX
  5
1CF
  8
FISHER_AND_PAYKEL
 62
     7
 10
120.2648595401057
 20
-97.37884063191935
 30
0.0
  0
VERTEX
  5
1D0
  8
FISHER_AND_PAYKEL
 62
     7
 10
120.1542800701926
 20
-97.24168347988953
 30
0.0
  0
VERTEX
  5
1D1
  8
FISHER_AND_PAYKEL
 62
     7
 10
120.0588873951987
 20
-97.11770742148603
 30
0.0
  0
VERTEX
  5
1D2
  8
FISHER_AND_PAYKEL
 62
     7
 10
119.9663590405755
 20
-96.99208429480748
 30
0.0
  0
VERTEX
  5
1D3
  8
FISHER_AND_PAYKEL
 62
     7
 10
119.8766669761574
 20
-96.86492040939748
 30
0.0
  0
VERTEX
  5
1D4
  8
FISHER_AND_PAYKEL
 62
     7
 10
119.7897831717789
 20
-96.73632207479962
 30
0.0
  0
VERTEX
  5
1D5
  8
FISHER_AND_PAYKEL
 62
     7
 10
119.6415736169215
 20
-96.50351558110127
 30
0.0
  0
VERTEX
  5
1D6
  8
FISHER_AND_PAYKEL
 62
     7
 10
119.5022049449816
 20
-96.26728633677156
 30
0.0
  0
VERTEX
  5
1D7
  8
FISHER_AND_PAYKEL
 62
     7
 10
119.3848066685605
 20
-96.05342746021131
 30
0.0
  0
VERTEX
  5
1D8
  8
FISHER_AND_PAYKEL
 62
     7
 10
119.2742002340436
 20
-95.83799123329386
 30
0.0
  0
VERTEX
  5
1D9
  8
FISHER_AND_PAYKEL
 62
     7
 10
119.177467644222
 20
-95.63727042957362
 30
0.0
  0
VERTEX
  5
1DA
  8
FISHER_AND_PAYKEL
 62
     7
 10
119.0859914815438
 20
-95.43573608217353
 30
0.0
  0
VERTEX
  5
1DB
  8
FISHER_AND_PAYKEL
 62
     7
 10
119.0014162032332
 20
-95.23820535057052
 30
0.0
  0
VERTEX
  5
1DC
  8
FISHER_AND_PAYKEL
 62
     7
 10
118.921309192618
 20
-95.04005011226923
 30
0.0
  0
VERTEX
  5
1DD
  8
FISHER_AND_PAYKEL
 62
     7
 10
118.8451971515772
 20
-94.8406577815712
 30
0.0
  0
VERTEX
  5
1DE
  8
FISHER_AND_PAYKEL
 62
     7
 10
118.7731870624038
 20
-94.64088769780503
 30
0.0
  0
VERTEX
  5
1DF
  8
FISHER_AND_PAYKEL
 62
     7
 10
118.6404351404267
 20
-94.23984505522013
 30
0.0
  0
VERTEX
  5
1E0
  8
FISHER_AND_PAYKEL
 62
     7
 10
118.5222510758101
 20
-93.84016260055454
 30
0.0
  0
VERTEX
  5
1E1
  8
FISHER_AND_PAYKEL
 62
     7
 10
118.416950560045
 20
-93.4424996013046
 30
0.0
  0
VERTEX
  5
1E2
  8
FISHER_AND_PAYKEL
 62
     7
 10
118.3226315540336
 20
-93.0455740654079
 30
0.0
  0
VERTEX
  5
1E3
  8
FISHER_AND_PAYKEL
 62
     7
 10
118.2381763617581
 20
-92.64917201216272
 30
0.0
  0
VERTEX
  5
1E4
  8
FISHER_AND_PAYKEL
 62
     7
 10
118.1628351990901
 20
-92.25446419461795
 30
0.0
  0
VERTEX
  5
1E5
  8
FISHER_AND_PAYKEL
 62
     7
 10
118.0336308598063
 20
-91.45705760313925
 30
0.0
  0
VERTEX
  5
1E6
  8
FISHER_AND_PAYKEL
 62
     7
 10
117.9210132461987
 20
-90.58053777752099
 30
0.0
  0
VERTEX
  5
1E7
  8
FISHER_AND_PAYKEL
 62
     7
 10
117.8210181817167
 20
-89.55504389218774
 30
0.0
  0
VERTEX
  5
1E8
  8
FISHER_AND_PAYKEL
 62
     7
 10
117.7386711251392
 20
-88.36856861881128
 30
0.0
  0
VERTEX
  5
1E9
  8
FISHER_AND_PAYKEL
 62
     7
 10
117.6546043964834
 20
-86.24164595288757
 30
0.0
  0
VERTEX
  5
1EA
  8
FISHER_AND_PAYKEL
 62
     7
 10
117.6199999999454
 20
-83.53903038147055
 30
0.0
  0
SEQEND
  5
1EB
  8
FISHER_AND_PAYKEL
 62
     7
  0
LINE
  5
1EC
  8
FISHER_AND_PAYKEL
 62
     7
 10
117.619999999999
 20
-66.49998115419794
 30
0.0
 11
117.619999999999
 21
-65.0
 31
0.0
  0
LINE
  5
1ED
  8
FISHER_AND_PAYKEL
 62
     7
 10
117.619999999999
 20
-83.53903038147018
 30
0.0
 11
117.619999999999
 21
-66.50009543406941
 31
0.0
  0
LINE
  5
1EE
  8
FISHER_AND_PAYKEL
 62
     7
 10
134.619999999999
 20
-65.0
 30
0.0
 11
134.619999999999
 21
-66.10000001671006
 31
0.0
  0
ARC
  5
1EF
  8
FISHER_AND_PAYKEL
 62
     7
 10
133.7199999999814
 20
-66.0999999999909
 30
0.0
 40
0.9000000000202412
 50
315.0000000004554
 51
359.9999989355947
  0
ARC
  5
1F0
  8
FISHER_AND_PAYKEL
 62
     7
 10
-133.7199999999991
 20
-66.09999999999631
 30
0.0
 40
0.9000000000038317
 50
225.0000000001017
 51
269.9999999999313
210
0.0
220
0.0
230
-1.0
  0
LINE
  5
1F1
  8
FISHER_AND_PAYKEL
 62
     7
 10
133.7200000000012
 20
-67.0
 30
0.0
 11
133.1189666829105
 21
-67.0
 31
0.0
  0
ARC
  5
1F2
  8
FISHER_AND_PAYKEL
 62
     7
 10
133.1200563164037
 20
-67.50003371373437
 30
0.0
 40
0.5000743003630258
 50
90.12458865435235
 51
180.0038405987189
  0
LINE
  5
1F3
  8
FISHER_AND_PAYKEL
 62
     7
 10
134.619999999999
 20
-65.0
 30
0.0
 11
134.1199999999976
 21
-65.00000000000013
 31
0.0
  0
LINE
  5
1F4
  8
FISHER_AND_PAYKEL
 62
     7
 10
-78.16578407442648
 20
-175.9963912145922
 30
0.0
 11
-80.02589958560566
 21
-175.9312288248248
 31
0.0
  0
LINE
  5
1F5
  8
FISHER_AND_PAYKEL
 62
     7
 10
-80.02589958560566
 20
-175.9312288248248
 30
0.0
 11
-81.71088244735074
 21
-175.87219121149
 31
0.0
  0
LINE
  5
1F6
  8
FISHER_AND_PAYKEL
 62
     7
 10
-81.71088244735074
 20
-175.87219121149
 30
0.0
 11
-83.24296953569865
 21
-175.8185106862149
 31
0.0
  0
LINE
  5
1F7
  8
FISHER_AND_PAYKEL
 62
     7
 10
-83.24296953569865
 20
-175.8185106862149
 30
0.0
 11
-84.61130338232397
 21
-175.7705676677297
 31
0.0
  0
LINE
  5
1F8
  8
FISHER_AND_PAYKEL
 62
     7
 10
-84.61130338232397
 20
-175.7705676677297
 30
0.0
 11
-85.82304744740031
 21
-175.7281111661671
 31
0.0
  0
LINE
  5
1F9
  8
FISHER_AND_PAYKEL
 62
     7
 10
-85.82304744740031
 20
-175.7281111661671
 30
0.0
 11
-86.89587343433232
 21
-175.6905220089102
 31
0.0
  0
LINE
  5
1FA
  8
FISHER_AND_PAYKEL
 62
     7
 10
-86.89587343433232
 20
-175.6905220089102
 30
0.0
 11
-87.8627037686656
 21
-175.65664667597
 31
0.0
  0
LINE
  5
1FB
  8
FISHER_AND_PAYKEL
 62
     7
 10
-87.8627037686656
 20
-175.65664667597
 30
0.0
 11
-88.75239837261688
 21
-175.6254739873839
 31
0.0
  0
LINE
  5
1FC
  8
FISHER_AND_PAYKEL
 62
     7
 10
-88.75239837261688
 20
-175.6254739873839
 30
0.0
 11
-89.58256404478925
 21
-175.5963870447169
 31
0.0
  0
LINE
  5
1FD
  8
FISHER_AND_PAYKEL
 62
     7
 10
-89.58256404478925
 20
-175.5963870447169
 30
0.0
 11
-90.36502739857679
 21
-175.5689714726868
 31
0.0
  0
LINE
  5
1FE
  8
FISHER_AND_PAYKEL
 62
     7
 10
-90.36502739857679
 20
-175.5689714726868
 30
0.0
 11
-91.10808772829114
 21
-175.5429364847755
 31
0.0
  0
LINE
  5
1FF
  8
FISHER_AND_PAYKEL
 62
     7
 10
-91.10808772829114
 20
-175.5429364847755
 30
0.0
 11
-91.81787830503163
 21
-175.5180671863675
 31
0.0
  0
LINE
  5
200
  8
FISHER_AND_PAYKEL
 62
     7
 10
-91.81787830503163
 20
-175.5180671863675
 30
0.0
 11
-92.49907761597206
 21
-175.4941996549087
 31
0.0
  0
LINE
  5
201
  8
FISHER_AND_PAYKEL
 62
     7
 10
-92.49907761597206
 20
-175.4941996549087
 30
0.0
 11
-93.15535591298976
 21
-175.4712052938401
 31
0.0
  0
LINE
  5
202
  8
FISHER_AND_PAYKEL
 62
     7
 10
-93.15535591298976
 20
-175.4712052938401
 30
0.0
 11
-94.40437802746965
 21
-175.4274426620123
 31
0.0
  0
LINE
  5
203
  8
FISHER_AND_PAYKEL
 62
     7
 10
-94.40437802746965
 20
-175.4274426620123
 30
0.0
 11
-95.00151422210729
 21
-175.4065204932954
 31
0.0
  0
LINE
  5
204
  8
FISHER_AND_PAYKEL
 62
     7
 10
-95.00151422210729
 20
-175.4065204932954
 30
0.0
 11
-95.58273669998562
 21
-175.3861559016991
 31
0.0
  0
LINE
  5
205
  8
FISHER_AND_PAYKEL
 62
     7
 10
-95.58273669998562
 20
-175.3861559016991
 30
0.0
 11
-96.1494611533526
 21
-175.3662992848008
 31
0.0
  0
LINE
  5
206
  8
FISHER_AND_PAYKEL
 62
     7
 10
-97.77408794330222
 20
-175.3093763982815
 30
0.0
 11
-98.29345803299111
 21
-175.2911712821574
 31
0.0
  0
LINE
  5
207
  8
FISHER_AND_PAYKEL
 62
     7
 10
-97.2441285027071
 20
-175.3279448604239
 30
0.0
 11
-97.77408794330222
 21
-175.3093763982815
 31
0.0
  0
LINE
  5
208
  8
FISHER_AND_PAYKEL
 62
     7
 10
-96.702917561488
 20
-175.3469075472374
 30
0.0
 11
-97.2441285027071
 21
-175.3279448604239
 31
0.0
  0
LINE
  5
209
  8
FISHER_AND_PAYKEL
 62
     7
 10
-96.1494611533526
 20
-175.3662992848008
 30
0.0
 11
-96.702917561488
 21
-175.3469075472374
 31
0.0
  0
ARC
  5
20A
  8
FISHER_AND_PAYKEL
 62
     7
 10
100.0442592575097
 20
-225.2605165534439
 30
0.0
 40
50.00000004393919
 50
91.78956864062911
 51
92.00668088513189
210
0.0
220
0.0
230
-1.0
  0
LINE
  5
20B
  8
FISHER_AND_PAYKEL
 62
     7
 10
-98.48281980549473
 20
-175.2849036013301
 30
0.0
 11
-100.038436635652
 21
-175.2605085804596
 31
0.0
  0
LINE
  5
20C
  8
FISHER_AND_PAYKEL
 62
     7
 10
133.070405369388
 20
-100.9989070834843
 30
0.0
 11
148.9200000000001
 21
-100.9989070834843
 31
0.0
  0
ARC
  5
20D
  8
FISHER_AND_PAYKEL
 62
     7
 10
-148.9200000000001
 20
-98.99890708348403
 30
0.0
 40
2.0
 50
180.0000000000065
 51
270.0000000000065
210
0.0
220
0.0
230
-1.0
  0
LINE
  5
20E
  8
FISHER_AND_PAYKEL
 62
     7
 10
150.9200000000001
 20
-90.0
 30
0.0
 11
150.9200000000001
 21
-98.99890708348426
 31
0.0
  0
ARC
  5
20F
  8
FISHER_AND_PAYKEL
 62
     7
 10
-148.9200000000001
 20
-90.0
 30
0.0
 40
2.0
 50
90.00000000000651
 51
180.0
210
0.0
220
0.0
230
-1.0
  0
LINE
  5
210
  8
FISHER_AND_PAYKEL
 62
     7
 10
132.619999999999
 20
-67.50006723829051
 30
0.0
 11
132.619999999999
 21
-82.99999999740021
 31
0.0
  0
LINE
  5
211
  8
FISHER_AND_PAYKEL
 62
     7
 10
137.619999999999
 20
-88.0
 30
0.0
 11
148.9200000000001
 21
-88.0
 31
0.0
  0
ARC
  5
212
  8
FISHER_AND_PAYKEL
 62
     7
 10
137.619999999999
 20
-82.99999999740021
 30
0.0
 40
5.0
 50
180.0
 51
270.0000000000026
  0
LINE
  5
213
  8
FISHER_AND_PAYKEL
 62
     7
 10
162.9416743691654
 20
-21.889996820031
 30
0.0
 11
162.9416743691654
 21
-20.3000000000111
 31
0.0
  0
LINE
  5
214
  8
FISHER_AND_PAYKEL
 62
     7
 10
137.9416743691654
 20
-19.08004757185108
 30
0.0
 11
137.9416743691654
 21
-16.3000000000111
 31
0.0
  0
LINE
  5
215
  8
FISHER_AND_PAYKEL
 62
     7
 10
162.9416743691654
 20
-28.900000000011
 30
0.0
 11
137.9416743691654
 21
-28.900000000011
 31
0.0
  0
LINE
  5
216
  8
FISHER_AND_PAYKEL
 62
     7
 10
162.9416743691654
 20
-28.90000000000418
 30
0.0
 11
162.9416743691654
 21
-27.48999682002113
 31
0.0
  0
LINE
  5
217
  8
FISHER_AND_PAYKEL
 62
     7
 10
137.9416743691654
 20
-28.90000000000418
 30
0.0
 11
137.9416743691654
 21
-27.48999682002113
 31
0.0
  0
LINE
  5
218
  8
FISHER_AND_PAYKEL
 62
     7
 10
137.9416743691654
 20
-20.3000000000111
 30
0.0
 11
137.9416743691654
 21
-21.889996820031
 31
0.0
  0
LINE
  5
219
  8
FISHER_AND_PAYKEL
 62
     7
 10
162.9416743691654
 20
-20.3000000000111
 30
0.0
 11
162.9416743691654
 21
-19.08004757185108
 31
0.0
  0
LINE
  5
21A
  8
FISHER_AND_PAYKEL
 62
     7
 10
137.9416743691654
 20
-27.48999682002113
 30
0.0
 11
137.9416743691654
 21
-21.889996820031
 31
0.0
  0
LINE
  5
21B
  8
FISHER_AND_PAYKEL
 62
     7
 10
162.9416743691654
 20
-21.889996820031
 30
0.0
 11
162.9416743691654
 21
-27.48999682002113
 31
0.0
  0
LINE
  5
21C
  8
FISHER_AND_PAYKEL
 62
     7
 10
162.9416743691654
 20
-19.08004757185108
 30
0.0
 11
162.9416743691654
 21
-16.3000000000111
 31
0.0
  0
LINE
  5
21D
  8
FISHER_AND_PAYKEL
 62
     7
 10
137.9416743691654
 20
-16.3000000000111
 30
0.0
 11
162.9416743691654
 21
-16.3000000000111
 31
0.0
  0
LINE
  5
21E
  8
FISHER_AND_PAYKEL
 62
     7
 10
137.9416743691654
 20
-19.08004757185108
 30
0.0
 11
137.9416743691654
 21
-20.3000000000111
 31
0.0
  0
LINE
  5
21F
  8
FISHER_AND_PAYKEL
 62
     7
 10
141.4416743691654
 20
-13.70000000001096
 30
0.0
 11
159.4416743691654
 21
-13.70000000001096
 31
0.0
  0
LINE
  5
220
  8
FISHER_AND_PAYKEL
 62
     7
 10
141.4416743691654
 20
-7.900000000011914
 30
0.0
 11
141.4416743691654
 21
-13.70000000001096
 31
0.0
  0
LINE
  5
221
  8
FISHER_AND_PAYKEL
 62
     7
 10
159.4416743691654
 20
-7.900000000011914
 30
0.0
 11
159.4416743691654
 21
-13.70000000001096
 31
0.0
  0
LINE
  5
222
  8
FISHER_AND_PAYKEL
 62
     7
 10
159.4416743691654
 20
-6.200000000000045
 30
0.0
 11
141.4416743691654
 21
-6.200000000000045
 31
0.0
  0
LINE
  5
223
  8
FISHER_AND_PAYKEL
 62
     7
 10
159.4416743691654
 20
-7.238120718684058
 30
0.0
 11
159.4416743691654
 21
-6.530939640658971
 31
0.0
  0
LINE
  5
224
  8
FISHER_AND_PAYKEL
 62
     7
 10
141.4416743691654
 20
-6.530939640658971
 30
0.0
 11
141.4416743691654
 21
-7.238120718679056
 31
0.0
  0
LINE
  5
225
  8
FISHER_AND_PAYKEL
 62
     7
 10
159.4416743691654
 20
-6.530939640658971
 30
0.0
 11
159.4416743691654
 21
-6.200000000000045
 31
0.0
  0
LINE
  5
226
  8
FISHER_AND_PAYKEL
 62
     7
 10
141.4416743691654
 20
-6.530939640658971
 30
0.0
 11
141.4416743691654
 21
-6.200000000000045
 31
0.0
  0
LINE
  5
227
  8
FISHER_AND_PAYKEL
 62
     7
 10
159.4416743691654
 20
-7.900000000011914
 30
0.0
 11
159.4416743691654
 21
-7.238120718684058
 31
0.0
  0
LINE
  5
228
  8
FISHER_AND_PAYKEL
 62
     7
 10
141.4416743691654
 20
-7.900000000011914
 30
0.0
 11
141.4416743691654
 21
-7.238120718679056
 31
0.0
  0
LINE
  5
229
  8
FISHER_AND_PAYKEL
 62
     7
 10
-135.6128840513338
 20
-21.889996820031
 30
0.0
 11
-135.6128840513338
 21
-20.3000000000111
 31
0.0
  0
LINE
  5
22A
  8
FISHER_AND_PAYKEL
 62
     7
 10
-160.6128840513338
 20
-19.08004757185108
 30
0.0
 11
-160.6128840513338
 21
-16.3000000000111
 31
0.0
  0
LINE
  5
22B
  8
FISHER_AND_PAYKEL
 62
     7
 10
-135.6128840513338
 20
-28.900000000011
 30
0.0
 11
-160.6128840513338
 21
-28.900000000011
 31
0.0
  0
LINE
  5
22C
  8
FISHER_AND_PAYKEL
 62
     7
 10
-135.6128840513338
 20
-28.90000000000418
 30
0.0
 11
-135.6128840513338
 21
-27.48999682002113
 31
0.0
  0
LINE
  5
22D
  8
FISHER_AND_PAYKEL
 62
     7
 10
-160.6128840513338
 20
-28.90000000000418
 30
0.0
 11
-160.6128840513338
 21
-27.48999682002113
 31
0.0
  0
LINE
  5
22E
  8
FISHER_AND_PAYKEL
 62
     7
 10
-160.6128840513338
 20
-20.3000000000111
 30
0.0
 11
-160.6128840513338
 21
-21.889996820031
 31
0.0
  0
LINE
  5
22F
  8
FISHER_AND_PAYKEL
 62
     7
 10
-135.6128840513338
 20
-20.3000000000111
 30
0.0
 11
-135.6128840513338
 21
-19.08004757185108
 31
0.0
  0
LINE
  5
230
  8
FISHER_AND_PAYKEL
 62
     7
 10
-160.6128840513338
 20
-27.48999682002113
 30
0.0
 11
-160.6128840513338
 21
-21.889996820031
 31
0.0
  0
LINE
  5
231
  8
FISHER_AND_PAYKEL
 62
     7
 10
-135.6128840513338
 20
-21.889996820031
 30
0.0
 11
-135.6128840513338
 21
-27.48999682002113
 31
0.0
  0
LINE
  5
232
  8
FISHER_AND_PAYKEL
 62
     7
 10
-135.6128840513338
 20
-19.08004757185108
 30
0.0
 11
-135.6128840513338
 21
-16.3000000000111
 31
0.0
  0
LINE
  5
233
  8
FISHER_AND_PAYKEL
 62
     7
 10
-160.6128840513338
 20
-16.3000000000111
 30
0.0
 11
-135.6128840513338
 21
-16.3000000000111
 31
0.0
  0
LINE
  5
234
  8
FISHER_AND_PAYKEL
 62
     7
 10
-160.6128840513338
 20
-19.08004757185108
 30
0.0
 11
-160.6128840513338
 21
-20.3000000000111
 31
0.0
  0
LINE
  5
235
  8
FISHER_AND_PAYKEL
 62
     7
 10
-157.1128840513338
 20
-13.70000000001096
 30
0.0
 11
-139.1128840513338
 21
-13.70000000001096
 31
0.0
  0
LINE
  5
236
  8
FISHER_AND_PAYKEL
 62
     7
 10
-157.1128840513338
 20
-7.900000000011914
 30
0.0
 11
-157.1128840513338
 21
-13.70000000001096
 31
0.0
  0
LINE
  5
237
  8
FISHER_AND_PAYKEL
 62
     7
 10
-139.1128840513338
 20
-7.900000000011914
 30
0.0
 11
-139.1128840513338
 21
-13.70000000001096
 31
0.0
  0
LINE
  5
238
  8
FISHER_AND_PAYKEL
 62
     7
 10
-139.1128840513338
 20
-6.200000000000045
 30
0.0
 11
-157.1128840513338
 21
-6.200000000000045
 31
0.0
  0
LINE
  5
239
  8
FISHER_AND_PAYKEL
 62
     7
 10
-139.1128840513338
 20
-7.238120718684058
 30
0.0
 11
-139.1128840513338
 21
-6.530939640658971
 31
0.0
  0
LINE
  5
23A
  8
FISHER_AND_PAYKEL
 62
     7
 10
-157.1128840513338
 20
-6.530939640658971
 30
0.0
 11
-157.1128840513338
 21
-7.238120718679056
 31
0.0
  0
LINE
  5
23B
  8
FISHER_AND_PAYKEL
 62
     7
 10
-139.1128840513338
 20
-6.530939640658971
 30
0.0
 11
-139.1128840513338
 21
-6.200000000000045
 31
0.0
  0
LINE
  5
23C
  8
FISHER_AND_PAYKEL
 62
     7
 10
-157.1128840513338
 20
-6.530939640658971
 30
0.0
 11
-157.1128840513338
 21
-6.200000000000045
 31
0.0
  0
LINE
  5
23D
  8
FISHER_AND_PAYKEL
 62
     7
 10
-139.1128840513338
 20
-7.900000000011914
 30
0.0
 11
-139.1128840513338
 21
-7.238120718684058
 31
0.0
  0
LINE
  5
23E
  8
FISHER_AND_PAYKEL
 62
     7
 10
-157.1128840513338
 20
-7.900000000011914
 30
0.0
 11
-157.1128840513338
 21
-7.238120718679056
 31
0.0
  0
LINE
  5
23F
  8
FISHER_AND_PAYKEL
 62
     1
 10
33.99999999999909
 20
450.0000000000005
 30
0.0
 11
33.99999999999909
 21
675.0
 31
0.0
  0
LINE
  5
240
  8
FISHER_AND_PAYKEL
  6
CONTINUOUS
 62
     1
 10
-274.1813136482708
 20
0.0
 30
0.0
 11
-274.1813136482708
 21
-900.0
 31
0.0
  0
LINE
  5
241
  8
FISHER_AND_PAYKEL
  6
CONTINUOUS
 62
     1
 10
-174.1813136482706
 20
-420.0
 30
0.0
 11
-174.1813136482708
 21
-900.0
 31
0.0
  0
LINE
  5
242
  8
FISHER_AND_PAYKEL
 62
     7
 10
-244.0000000000009
 20
-57.0
 30
0.0
 11
-244.0000000000009
 21
-5.5
 31
0.0
  0
LINE
  5
243
  8
FISHER_AND_PAYKEL
 62
     7
 10
243.9999999999991
 20
-5.5
 30
0.0
 11
243.9999999999991
 21
-57.0
 31
0.0
  0
LINE
  5
244
  8
FISHER_AND_PAYKEL
 62
     7
 10
-244.0000000000009
 20
-57.0
 30
0.0
 11
243.9999999999991
 21
-57.0
 31
0.0
  0
ENDSEC
  0
EOF
