  0
SECTION
  2
HEADER
  9
$ACADVER
  1
AC1021
  9
$ACADMAINTVER
 70
    25
  9
$DWGCODEPAGE
  3
ANSI_1252
  9
$LASTSAVEDBY
  1
venedis
  9
$INSBASE
 10
0.0
 20
0.0
 30
0.0
  9
$EXTMIN
 10
-349.4999989986497
 20
-0.8000238418586861
 30
-0.0000000000125521
  9
$EXTMAX
 10
330.0000010609619
 20
552.9999999999873
 30
453.9999999999935
  9
$LIMMIN
 10
0.0
 20
0.0
  9
$LIMMAX
 10
12.0
 20
9.0
  9
$ORTHOMODE
 70
     0
  9
$REGENMODE
 70
     1
  9
$FILLMODE
 70
     1
  9
$QTEXTMODE
 70
     0
  9
$MIRRTEXT
 70
     1
  9
$LTSCALE
 40
1.0
  9
$ATTMODE
 70
     1
  9
$TEXTSIZE
 40
0.2
  9
$TRACEWID
 40
0.05
  9
$TEXTSTYLE
  7
Standard
  9
$CLAYER
  8
FP$FP-1
  9
$CELTYPE
  6
ByLayer
  9
$CECOLOR
 62
   256
  9
$CELTSCALE
 40
1.0
  9
$DISPSILH
 70
     0
  9
$DIMSCALE
 40
1.0
  9
$DIMASZ
 40
0.18
  9
$DIMEXO
 40
0.0625
  9
$DIMDLI
 40
0.38
  9
$DIMRND
 40
0.0
  9
$DIMDLE
 40
0.0
  9
$DIMEXE
 40
0.18
  9
$DIMTP
 40
0.0
  9
$DIMTM
 40
0.0
  9
$DIMTXT
 40
0.18
  9
$DIMCEN
 40
0.09
  9
$DIMTSZ
 40
0.0
  9
$DIMTOL
 70
     0
  9
$DIMLIM
 70
     0
  9
$DIMTIH
 70
     1
  9
$DIMTOH
 70
     1
  9
$DIMSE1
 70
     0
  9
$DIMSE2
 70
     0
  9
$DIMTAD
 70
     0
  9
$DIMZIN
 70
     0
  9
$DIMBLK
  1

  9
$DIMASO
 70
     1
  9
$DIMSHO
 70
     1
  9
$DIMPOST
  1

  9
$DIMAPOST
  1

  9
$DIMALT
 70
     0
  9
$DIMALTD
 70
     2
  9
$DIMALTF
 40
25.4
  9
$DIMLFAC
 40
1.0
  9
$DIMTOFL
 70
     0
  9
$DIMTVP
 40
0.0
  9
$DIMTIX
 70
     0
  9
$DIMSOXD
 70
     0
  9
$DIMSAH
 70
     0
  9
$DIMBLK1
  1

  9
$DIMBLK2
  1

  9
$DIMSTYLE
  2
STANDARD_ACAD
  9
$DIMCLRD
 70
     0
  9
$DIMCLRE
 70
     0
  9
$DIMCLRT
 70
     0
  9
$DIMTFAC
 40
1.0
  9
$DIMGAP
 40
0.09
  9
$DIMJUST
 70
     0
  9
$DIMSD1
 70
     0
  9
$DIMSD2
 70
     0
  9
$DIMTOLJ
 70
     1
  9
$DIMTZIN
 70
     0
  9
$DIMALTZ
 70
     0
  9
$DIMALTTZ
 70
     0
  9
$DIMUPT
 70
     0
  9
$DIMDEC
 70
     4
  9
$DIMTDEC
 70
     4
  9
$DIMALTU
 70
     2
  9
$DIMALTTD
 70
     2
  9
$DIMTXSTY
  7
Standard
  9
$DIMAUNIT
 70
     0
  9
$DIMADEC
 70
     0
  9
$DIMALTRND
 40
0.0
  9
$DIMAZIN
 70
     0
  9
$DIMDSEP
 70
    46
  9
$DIMATFIT
 70
     3
  9
$DIMFRAC
 70
     0
  9
$DIMLDRBLK
  1

  9
$DIMLUNIT
 70
     2
  9
$DIMLWD
 70
    -2
  9
$DIMLWE
 70
    -2
  9
$DIMTMOVE
 70
     2
  9
$DIMFXL
 40
1.0
  9
$DIMFXLON
 70
     0
  9
$DIMJOGANG
 40
0.7853981633974483
  9
$DIMTFILL
 70
     0
  9
$DIMTFILLCLR
 70
     0
  9
$DIMARCSYM
 70
     0
  9
$DIMLTYPE
  6

  9
$DIMLTEX1
  6

  9
$DIMLTEX2
  6

  9
$LUNITS
 70
     2
  9
$LUPREC
 70
     3
  9
$SKETCHINC
 40
0.1
  9
$FILLETRAD
 40
0.0
  9
$AUNITS
 70
     0
  9
$AUPREC
 70
     0
  9
$MENU
  1
.
  9
$ELEVATION
 40
0.0
  9
$PELEVATION
 40
0.0
  9
$THICKNESS
 40
0.0
  9
$LIMCHECK
 70
     0
  9
$CHAMFERA
 40
0.0
  9
$CHAMFERB
 40
0.0
  9
$CHAMFERC
 40
0.0
  9
$CHAMFERD
 40
0.0
  9
$SKPOLY
 70
     0
  9
$TDCREATE
 40
2460222.883731297
  9
$TDUCREATE
 40
2460222.34206463
  9
$TDUPDATE
 40
2460222.883757558
  9
$TDUUPDATE
 40
2460222.342090891
  9
$TDINDWG
 40
0.0000000116
  9
$TDUSRTIMER
 40
0.0000000116
  9
$USRTIMER
 70
     1
  9
$ANGBASE
 50
0.0
  9
$ANGDIR
 70
     0
  9
$PDMODE
 70
     0
  9
$PDSIZE
 40
0.0
  9
$PLINEWID
 40
0.0
  9
$SPLFRAME
 70
     0
  9
$SPLINETYPE
 70
     6
  9
$SPLINESEGS
 70
     8
  9
$HANDSEED
  5
241
  9
$SURFTAB1
 70
     6
  9
$SURFTAB2
 70
     6
  9
$SURFTYPE
 70
     6
  9
$SURFU
 70
     6
  9
$SURFV
 70
     6
  9
$UCSBASE
  2

  9
$UCSNAME
  2

  9
$UCSORG
 10
0.0
 20
0.0
 30
0.0
  9
$UCSXDIR
 10
1.0
 20
0.0
 30
0.0
  9
$UCSYDIR
 10
0.0
 20
1.0
 30
0.0
  9
$UCSORTHOREF
  2

  9
$UCSORTHOVIEW
 70
     0
  9
$UCSORGTOP
 10
0.0
 20
0.0
 30
0.0
  9
$UCSORGBOTTOM
 10
0.0
 20
0.0
 30
0.0
  9
$UCSORGLEFT
 10
0.0
 20
0.0
 30
0.0
  9
$UCSORGRIGHT
 10
0.0
 20
0.0
 30
0.0
  9
$UCSORGFRONT
 10
0.0
 20
0.0
 30
0.0
  9
$UCSORGBACK
 10
0.0
 20
0.0
 30
0.0
  9
$PUCSBASE
  2

  9
$PUCSNAME
  2

  9
$PUCSORG
 10
0.0
 20
0.0
 30
0.0
  9
$PUCSXDIR
 10
1.0
 20
0.0
 30
0.0
  9
$PUCSYDIR
 10
0.0
 20
1.0
 30
0.0
  9
$PUCSORTHOREF
  2

  9
$PUCSORTHOVIEW
 70
     0
  9
$PUCSORGTOP
 10
0.0
 20
0.0
 30
0.0
  9
$PUCSORGBOTTOM
 10
0.0
 20
0.0
 30
0.0
  9
$PUCSORGLEFT
 10
0.0
 20
0.0
 30
0.0
  9
$PUCSORGRIGHT
 10
0.0
 20
0.0
 30
0.0
  9
$PUCSORGFRONT
 10
0.0
 20
0.0
 30
0.0
  9
$PUCSORGBACK
 10
0.0
 20
0.0
 30
0.0
  9
$USERI1
 70
     0
  9
$USERI2
 70
     0
  9
$USERI3
 70
     0
  9
$USERI4
 70
     0
  9
$USERI5
 70
     0
  9
$USERR1
 40
0.0
  9
$USERR2
 40
0.0
  9
$USERR3
 40
0.0
  9
$USERR4
 40
0.0
  9
$USERR5
 40
0.0
  9
$WORLDVIEW
 70
     1
  9
$SHADEDGE
 70
     3
  9
$SHADEDIF
 70
    70
  9
$TILEMODE
 70
     1
  9
$MAXACTVP
 70
    64
  9
$PINSBASE
 10
0.0
 20
0.0
 30
0.0
  9
$PLIMCHECK
 70
     0
  9
$PEXTMIN
 10
1.000000000000000E+20
 20
1.000000000000000E+20
 30
1.000000000000000E+20
  9
$PEXTMAX
 10
-1.000000000000000E+20
 20
-1.000000000000000E+20
 30
-1.000000000000000E+20
  9
$PLIMMIN
 10
0.0
 20
0.0
  9
$PLIMMAX
 10
12.0
 20
9.0
  9
$UNITMODE
 70
     0
  9
$VISRETAIN
 70
     1
  9
$PLINEGEN
 70
     0
  9
$PSLTSCALE
 70
     1
  9
$TREEDEPTH
 70
  3020
  9
$CMLSTYLE
  2
Standard
  9
$CMLJUST
 70
     0
  9
$CMLSCALE
 40
1.0
  9
$PROXYGRAPHICS
 70
     1
  9
$MEASUREMENT
 70
     1
  9
$CELWEIGHT
370
    -1
  9
$ENDCAPS
280
     0
  9
$JOINSTYLE
280
     0
  9
$LWDISPLAY
290
     0
  9
$INSUNITS
 70
     4
  9
$HYPERLINKBASE
  1

  9
$STYLESHEET
  1

  9
$XEDIT
290
     1
  9
$CEPSNTYPE
380
     0
  9
$PSTYLEMODE
290
     1
  9
$FINGERPRINTGUID
  2
{7084b754-e969-4ea7-b701-67d62162b4e9}
  9
$VERSIONGUID
  2
{FAEB1C32-E019-11D5-929B-00C0DF256EC4}
  9
$EXTNAMES
290
     1
  9
$PSVPSCALE
 40
0.0
  9
$OLESTARTUP
290
     0
  9
$SORTENTS
280
   127
  9
$INDEXCTL
280
     0
  9
$HIDETEXT
280
     1
  9
$XCLIPFRAME
290
     0
  9
$HALOGAP
280
     0
  9
$OBSCOLOR
 70
   257
  9
$OBSLTYPE
280
     0
  9
$INTERSECTIONDISPLAY
280
     0
  9
$INTERSECTIONCOLOR
 70
   257
  9
$DIMASSOC
280
     2
  9
$PROJECTNAME
  1

  9
$CAMERADISPLAY
290
     0
  9
$LENSLENGTH
 40
50.0
  9
$CAMERAHEIGHT
 40
0.0
  9
$STEPSPERSEC
 40
2.0
  9
$STEPSIZE
 40
6.0
  9
$3DDWFPREC
 40
2.0
  9
$PSOLWIDTH
 40
0.25
  9
$PSOLHEIGHT
 40
4.0
  9
$LOFTANG1
 40
1.570796326794897
  9
$LOFTANG2
 40
1.570796326794897
  9
$LOFTMAG1
 40
0.0
  9
$LOFTMAG2
 40
0.0
  9
$LOFTPARAM
 70
     7
  9
$LOFTNORMALS
280
     1
  9
$LATITUDE
 40
37.795
  9
$LONGITUDE
 40
-122.394
  9
$NORTHDIRECTION
 40
0.0
  9
$TIMEZONE
 70
 -8000
  9
$LIGHTGLYPHDISPLAY
280
     1
  9
$TILEMODELIGHTSYNCH
280
     1
  9
$CMATERIAL
347
44
  9
$SOLIDHIST
280
     0
  9
$SHOWHIST
280
     1
  9
$DWFFRAME
280
     2
  9
$DGNFRAME
280
     2
  9
$REALWORLDSCALE
290
     1
  9
$INTERFERECOLOR
 62
   256
  9
$CSHADOW
280
     0
  9
$SHADOWPLANELOCATION
 40
0.0
  0
ENDSEC
  0
SECTION
  2
CLASSES
  0
CLASS
  1
ACDBDICTIONARYWDFLT
  2
AcDbDictionaryWithDefault
  3
ObjectDBX Classes
 90
        0
 91
        3
280
     0
281
     0
  0
CLASS
  1
VISUALSTYLE
  2
AcDbVisualStyle
  3
ObjectDBX Classes
 90
     4095
 91
        3
280
     0
281
     0
  0
CLASS
  1
MATERIAL
  2
AcDbMaterial
  3
ObjectDBX Classes
 90
     1153
 91
        3
280
     0
281
     0
  0
CLASS
  1
SCALE
  2
AcDbScale
  3
ObjectDBX Classes
 90
     1153
 91
        3
280
     0
281
     0
  0
CLASS
  1
TABLESTYLE
  2
AcDbTableStyle
  3
ObjectDBX Classes
 90
     4095
 91
        3
280
     0
281
     0
  0
CLASS
  1
MLEADERSTYLE
  2
AcDbMLeaderStyle
  3
ACDB_MLEADERSTYLE_CLASS
 90
     4095
 91
        3
280
     0
281
     0
  0
CLASS
  1
SUN
  2
AcDbSun
  3
SCENEOE
 90
     1153
 91
        3
280
     0
281
     0
  0
CLASS
  1
DICTIONARYVAR
  2
AcDbDictionaryVar
  3
ObjectDBX Classes
 90
        0
 91
        3
280
     0
281
     0
  0
CLASS
  1
CELLSTYLEMAP
  2
AcDbCellStyleMap
  3
ObjectDBX Classes
 90
     1152
 91
        3
280
     0
281
     0
  0
ENDSEC
  0
SECTION
  2
TABLES
  0
TABLE
  2
VPORT
  5
8
330
0
100
AcDbSymbolTable
 70
     1
  0
VPORT
  5
29
330
8
100
AcDbSymbolTableRecord
100
AcDbViewportTableRecord
  2
*Active
 70
     0
 10
0.0
 20
0.0
 11
1.0
 21
1.0
 12
10.42990654205607
 22
4.5
 13
0.0
 23
0.0
 14
0.5
 24
0.5
 15
0.5
 25
0.5
 16
0.0
 26
0.0
 36
1.0
 17
0.0
 27
0.0
 37
0.0
 40
9.0
 41
1.972972972850329
 42
50.0
 43
0.0
 44
0.0
 50
0.0
 51
0.0
 71
     0
 72
   100
 73
     1
 74
     3
 75
     0
 76
     0
 77
     0
 78
     0
281
     0
 65
     1
110
0.0
120
0.0
130
0.0
111
1.0
121
0.0
131
0.0
112
0.0
122
1.0
132
0.0
 79
     0
146
0.0
348
2F
 60
     3
 61
     5
292
     1
282
     1
141
0.0
142
0.0
 63
   250
361
5D
  0
ENDTAB
  0
TABLE
  2
LTYPE
  5
5
330
0
100
AcDbSymbolTable
 70
     1
  0
LTYPE
  5
14
330
5
100
AcDbSymbolTableRecord
100
AcDbLinetypeTableRecord
  2
ByBlock
 70
     0
  3

 72
    65
 73
     0
 40
0.0
  0
LTYPE
  5
15
330
5
100
AcDbSymbolTableRecord
100
AcDbLinetypeTableRecord
  2
ByLayer
 70
     0
  3

 72
    65
 73
     0
 40
0.0
  0
LTYPE
  5
16
330
5
100
AcDbSymbolTableRecord
100
AcDbLinetypeTableRecord
  2
Continuous
 70
     0
  3
Solid line
 72
    65
 73
     0
 40
0.0
  0
ENDTAB
  0
TABLE
  2
LAYER
  5
2
330
0
100
AcDbSymbolTable
 70
     3
  0
LAYER
  5
10
330
2
100
AcDbSymbolTableRecord
100
AcDbLayerTableRecord
  2
0
 70
     0
 62
     7
  6
Continuous
370
    -3
390
F
347
46
  0
LAYER
  5
5F
330
2
100
AcDbSymbolTableRecord
100
AcDbLayerTableRecord
  2
FP$FP-1
 70
     0
 62
   253
420
 11711154
  6
Continuous
370
    40
390
F
347
46
  0
LAYER
  5
E2
330
2
100
AcDbSymbolTableRecord
100
AcDbLayerTableRecord
  2
FP$FP-2
 70
     0
 62
    18
420
        0
  6
Continuous
370
    40
390
F
347
46
  0
ENDTAB
  0
TABLE
  2
STYLE
  5
3
330
0
100
AcDbSymbolTable
 70
     1
  0
STYLE
  5
11
330
3
100
AcDbSymbolTableRecord
100
AcDbTextStyleTableRecord
  2
Standard
 70
     0
 40
0.0
 41
1.0
 50
0.0
 71
     0
 42
0.2
  3
txt
  4

  0
ENDTAB
  0
TABLE
  2
VIEW
  5
6
330
0
100
AcDbSymbolTable
 70
     0
  0
ENDTAB
  0
TABLE
  2
UCS
  5
7
330
0
100
AcDbSymbolTable
 70
     0
  0
ENDTAB
  0
TABLE
  2
APPID
  5
9
330
0
100
AcDbSymbolTable
 70
     3
  0
APPID
  5
12
330
9
100
AcDbSymbolTableRecord
100
AcDbRegAppTableRecord
  2
ACAD
 70
     0
  0
APPID
  5
5E
330
9
100
AcDbSymbolTableRecord
100
AcDbRegAppTableRecord
  2
Rhino
 70
     0
  0
APPID
  5
239
330
9
100
AcDbSymbolTableRecord
100
AcDbRegAppTableRecord
  2
ACAD_MLEADERVER
 70
     0
  0
ENDTAB
  0
TABLE
  2
DIMSTYLE
  5
A
330
0
100
AcDbSymbolTable
 70
     1
100
AcDbDimStyleTable
  0
DIMSTYLE
105
27
330
A
100
AcDbSymbolTableRecord
100
AcDbDimStyleTableRecord
  2
STANDARD_ACAD
 70
     0
178
     0
340
11
  0
ENDTAB
  0
TABLE
  2
BLOCK_RECORD
  5
1
330
0
100
AcDbSymbolTable
 70
     2
  0
BLOCK_RECORD
  5
1F
330
1
100
AcDbSymbolTableRecord
100
AcDbBlockTableRecord
  2
*Model_Space
340
22
 70
     0
280
     1
281
     0
  0
BLOCK_RECORD
  5
1B
330
1
100
AcDbSymbolTableRecord
100
AcDbBlockTableRecord
  2
*Paper_Space
340
1E
 70
     0
280
     1
281
     0
  0
BLOCK_RECORD
  5
23
330
1
100
AcDbSymbolTableRecord
100
AcDbBlockTableRecord
  2
*Paper_Space0
340
26
 70
     0
280
     1
281
     0
  0
BLOCK_RECORD
  5
1A7
330
1
100
AcDbSymbolTableRecord
100
AcDbBlockTableRecord
  2
FamilyGeomCombination_133348-View 1
340
0
102
{BLKREFS
331
1E0
102
}
 70
     0
280
     1
281
     0
  0
ENDTAB
  0
ENDSEC
  0
SECTION
  2
BLOCKS
  0
BLOCK
  5
20
330
1F
100
AcDbEntity
  8
0
100
AcDbBlockBegin
  2
*Model_Space
 70
     0
 10
0.0
 20
0.0
 30
0.0
  3
*Model_Space
  1

  0
ENDBLK
  5
21
330
1F
100
AcDbEntity
  8
0
100
AcDbBlockEnd
  0
BLOCK
  5
1C
330
1B
100
AcDbEntity
 67
     1
  8
0
100
AcDbBlockBegin
  2
*Paper_Space
 70
     0
 10
0.0
 20
0.0
 30
0.0
  3
*Paper_Space
  1

  0
ENDBLK
  5
1D
330
1B
100
AcDbEntity
 67
     1
  8
0
100
AcDbBlockEnd
  0
BLOCK
  5
24
330
23
100
AcDbEntity
  8
0
100
AcDbBlockBegin
  2
*Paper_Space0
 70
     0
 10
0.0
 20
0.0
 30
0.0
  3
*Paper_Space0
  1

  0
ENDBLK
  5
25
330
23
100
AcDbEntity
  8
0
100
AcDbBlockEnd
  0
BLOCK
  5
1DE
330
1A7
100
AcDbEntity
  8
0
100
AcDbBlockBegin
  2
FamilyGeomCombination_133348-View 1
 70
     0
 10
0.0
 20
0.0
 30
0.0
  3
FamilyGeomCombination_133348-View 1
  1

  0
ARC
  5
1A8
330
1A7
100
AcDbEntity
  8
FP$FP-1
100
AcDbCircle
 10
554.3487009394228
 20
0.3211025383188701
 30
299.5
 40
40.00000000000207
210
1.0
220
0.0
230
0.0
100
AcDbArc
 50
91.93223802706355
 51
180.4599504460272
  0
LINE
  5
1A9
330
1A7
100
AcDbEntity
  8
FP$FP-1
100
AcDbLine
 10
299.5
 20
514.3499897956867
 30
-0.0000000000098882
 11
288.4999956607818
 21
514.3499897956867
 31
-0.0000000000098973
  0
ARC
  5
1AA
330
1A7
100
AcDbEntity
  8
FP$FP-1
100
AcDbCircle
 10
-554.34870093942
 20
0.3211025383215347
 30
-288.4999956607818
 40
39.99999999999922
210
-1.0
220
0.0
230
0.0
100
AcDbArc
 50
359.5400495539727
 51
88.06776197293877
  0
LINE
  5
1AB
330
1A7
100
AcDbEntity
  8
FP$FP-1
100
AcDbLine
 10
288.4999956607818
 20
552.9999999999857
 30
40.29835864446112
 11
299.5
 21
552.9999999999873
 31
40.29835864446153
  0
SPLINE
  5
1AC
330
1A7
100
AcDbEntity
  8
FP$FP-1
100
AcDbSpline
210
0.0
220
0.0
230
1.0
 70
    24
 71
     2
 72
     6
 73
     3
 74
     0
 42
0.0000000001
 43
0.0000000001
 40
0.0
 40
0.0
 40
0.0
 40
0.0131233595800531
 40
0.0131233595800531
 40
0.0131233595800531
 10
288.4999956607818
 20
552.9999999999784
 30
44.29835864446197
 10
288.4999956607818
 20
552.999999999982
 30
42.29835864446154
 10
288.4999956607818
 20
552.9999999999857
 30
40.29835864446112
  0
SPLINE
  5
1AD
330
1A7
100
AcDbEntity
  8
FP$FP-1
100
AcDbSpline
210
0.0
220
0.0
230
1.0
 70
    24
 71
     2
 72
     6
 73
     3
 74
     0
 42
0.0000000001
 43
0.0000000001
 40
0.0
 40
0.0
 40
0.0
 40
0.013123359580054
 40
0.013123359580054
 40
0.013123359580054
 10
288.4999956607818
 20
514.3499897956867
 30
-0.0000000000098973
 10
288.4999956607818
 20
512.3499897956865
 30
-0.0000000000072497
 10
288.4999956607818
 20
510.3499897956863
 30
-0.0000000000046022
  0
SPLINE
  5
1AE
330
1A7
100
AcDbEntity
  8
FP$FP-1
100
AcDbSpline
210
0.0
220
0.0
230
1.0
 70
    24
 71
     2
 72
     6
 73
     3
 74
     0
 42
0.0000000001
 43
0.0000000001
 40
-0.145335822324371
 40
-0.145335822324371
 40
-0.145335822324371
 40
0.0
 40
0.0
 40
0.0
 10
288.4999956607818
 20
510.3499897956863
 30
-0.0000000000046022
 10
288.4999956607818
 20
510.3499897956863
 30
22.14917932222954
 10
288.4999956607818
 20
510.3499897956863
 30
44.29835864446369
  0
SPLINE
  5
1AF
330
1A7
100
AcDbEntity
  8
FP$FP-1
100
AcDbSpline
210
0.0
220
0.0
230
1.0
 70
    24
 71
     2
 72
     6
 73
     3
 74
     0
 42
0.0000000001
 43
0.0000000001
 40
-0.1399278550009819
 40
-0.1399278550009819
 40
-0.1399278550009819
 40
-0.0000000000000351
 40
-0.0000000000000351
 40
-0.0000000000000351
 10
288.4999956607818
 20
510.3499897956863
 30
44.29835864446369
 10
288.4999956607818
 20
531.6749948978323
 30
44.29835864446283
 10
288.4999956607818
 20
552.9999999999784
 30
44.29835864446197
  0
ARC
  5
1B0
330
1A7
100
AcDbEntity
  8
FP$FP-1
100
AcDbCircle
 10
-554.3487009394182
 20
0.3211025383226289
 30
299.4999999999998
 40
39.99999999999829
210
-1.0
220
0.0
230
0.0
100
AcDbArc
 50
359.5400495539723
 51
88.06776197293857
  0
LINE
  5
1B1
330
1A7
100
AcDbEntity
  8
FP$FP-1
100
AcDbLine
 10
-299.4999999999993
 20
552.9999999999847
 30
40.29835864446162
 11
-288.4999956607818
 21
552.9999999999847
 31
40.29835864446162
  0
ARC
  5
1B2
330
1A7
100
AcDbEntity
  8
FP$FP-1
100
AcDbCircle
 10
554.3487009394182
 20
0.3211025383226573
 30
-288.4999956607818
 40
39.99999999999819
210
1.0
220
0.0
230
0.0
100
AcDbArc
 50
91.93223802706098
 51
180.4599504460241
  0
LINE
  5
1B3
330
1A7
100
AcDbEntity
  8
FP$FP-1
100
AcDbLine
 10
-288.4999956607818
 20
514.3499897956858
 30
-0.0000000000052358
 11
-299.4999999999993
 21
514.3499897956858
 31
-0.000000000009064
  0
SPLINE
  5
1B4
330
1A7
100
AcDbEntity
  8
FP$FP-1
100
AcDbSpline
210
0.0
220
0.0
230
1.0
 70
    24
 71
     2
 72
     6
 73
     3
 74
     0
 42
0.0000000001
 43
0.0000000001
 40
0.0
 40
0.0
 40
0.0
 40
0.0131233595800523
 40
0.0131233595800523
 40
0.0131233595800523
 10
-288.4999956607818
 20
510.3499897956861
 30
-0.0000000000103324
 10
-288.4999956607818
 20
512.3499897956859
 30
-0.0000000000077841
 10
-288.4999956607818
 20
514.3499897956858
 30
-0.0000000000052358
  0
SPLINE
  5
1B5
330
1A7
100
AcDbEntity
  8
FP$FP-1
100
AcDbSpline
210
0.0
220
0.0
230
1.0
 70
    24
 71
     2
 72
     6
 73
     3
 74
     0
 42
0.0000000001
 43
0.0000000001
 40
0.0
 40
0.0
 40
0.0
 40
0.0131233595800595
 40
0.0131233595800595
 40
0.0131233595800595
 10
-288.4999956607818
 20
552.9999999999847
 30
40.29835864446162
 10
-288.4999956607818
 20
552.9999999999851
 30
42.29835864446265
 10
-288.4999956607818
 20
552.9999999999856
 30
44.29835864446369
  0
SPLINE
  5
1B6
330
1A7
100
AcDbEntity
  8
FP$FP-1
100
AcDbSpline
210
0.0
220
0.0
230
1.0
 70
    24
 71
     2
 72
     6
 73
     3
 74
     0
 42
0.0000000001
 43
0.0000000001
 40
-0.1399278550009819
 40
-0.1399278550009819
 40
-0.1399278550009819
 40
0.0
 40
0.0
 40
0.0
 10
-288.4999956607818
 20
552.9999999999856
 30
44.29835864446369
 10
-288.4999956607818
 20
531.6749948978359
 30
44.29835864446369
 10
-288.4999956607818
 20
510.3499897956863
 30
44.29835864446369
  0
SPLINE
  5
1B7
330
1A7
100
AcDbEntity
  8
FP$FP-1
100
AcDbSpline
210
0.0
220
0.0
230
1.0
 70
    24
 71
     2
 72
     6
 73
     3
 74
     0
 42
0.0000000001
 43
0.0000000001
 40
-0.145335822324371
 40
-0.145335822324371
 40
-0.145335822324371
 40
0.0000000000000282
 40
0.0000000000000282
 40
0.0000000000000282
 10
-288.4999956607818
 20
510.3499897956863
 30
44.29835864446369
 10
-288.4999956607818
 20
510.3499897956862
 30
22.14917932222668
 10
-288.4999956607818
 20
510.3499897956861
 30
-0.0000000000103324
  0
SPLINE
  5
1B8
330
1A7
100
AcDbEntity
  8
FP$FP-1
100
AcDbSpline
210
0.0
220
0.0
230
1.0
 70
    24
 71
     2
 72
     6
 73
     3
 74
     0
 42
0.0000000001
 43
0.0000000001
 40
-1.893044590950012
 40
-1.893044590950012
 40
-1.893044590950012
 40
0.0
 40
0.0
 40
0.0
 10
-288.4999956607818
 20
552.9999999999856
 30
44.29835864446369
 10
0.0
 20
552.999999999982
 30
44.29835864446283
 10
288.4999956607818
 20
552.9999999999784
 30
44.29835864446197
  0
SPLINE
  5
1B9
330
1A7
100
AcDbEntity
  8
FP$FP-1
100
AcDbSpline
210
0.0
220
0.0
230
1.0
 70
    24
 71
     2
 72
     6
 73
     3
 74
     0
 42
0.0000000001
 43
0.0000000001
 40
-1.893044590950012
 40
-1.893044590950012
 40
-1.893044590950012
 40
0.0
 40
0.0
 40
0.0
 10
288.4999956607818
 20
510.3499897956863
 30
44.29835864446369
 10
0.0
 20
510.3499897956863
 30
44.29835864446369
 10
-288.4999956607818
 20
510.3499897956863
 30
44.29835864446369
  0
SPLINE
  5
1BA
330
1A7
100
AcDbEntity
  8
FP$FP-1
100
AcDbSpline
210
0.0
220
0.0
230
1.0
 70
    24
 71
     2
 72
     6
 73
     3
 74
     0
 42
0.0000000001
 43
0.0000000001
 40
-1.357288849591642
 40
-1.357288849591642
 40
-1.357288849591642
 40
-0.000000000000002
 40
-0.000000000000002
 40
-0.000000000000002
 10
299.5
 20
552.9999999999856
 30
453.9999999999935
 10
299.5
 20
552.9999999999864
 30
247.1491793222275
 10
299.5
 20
552.9999999999873
 30
40.29835864446153
  0
SPLINE
  5
1BB
330
1A7
100
AcDbEntity
  8
FP$FP-1
100
AcDbSpline
210
0.0
220
0.0
230
1.0
 70
    24
 71
     2
 72
     6
 73
     3
 74
     0
 42
0.0000000001
 43
0.0000000001
 40
-1.35728884959164
 40
-1.35728884959164
 40
-1.35728884959164
 40
0.0
 40
0.0
 40
0.0
 10
-299.4999999999993
 20
552.9999999999847
 30
40.29835864446162
 10
-299.4999999999994
 20
552.9999999999851
 30
247.1491793222276
 10
-299.4999999999994
 20
552.9999999999856
 30
453.9999999999935
  0
SPLINE
  5
1BC
330
1A7
100
AcDbEntity
  8
FP$FP-1
100
AcDbSpline
210
0.0
220
0.0
230
1.0
 70
    24
 71
     2
 72
     6
 73
     3
 74
     0
 42
0.0000000001
 43
0.0000000001
 40
-1.965223097112859
 40
-1.965223097112859
 40
-1.965223097112859
 40
0.0
 40
0.0
 40
0.0
 10
-299.4999999999994
 20
552.9999999999856
 30
453.9999999999935
 10
0.0000000000002842
 20
552.9999999999856
 30
453.9999999999935
 10
299.5
 20
552.9999999999856
 30
453.9999999999935
  0
SPLINE
  5
1BD
330
1A7
100
AcDbEntity
  8
FP$FP-1
100
AcDbSpline
210
0.0
220
0.0
230
1.0
 70
    24
 71
     2
 72
     6
 73
     3
 74
     0
 42
0.0000000001
 43
0.0000000001
 40
-1.893044590950012
 40
-1.893044590950012
 40
-1.893044590950012
 40
0.0
 40
0.0
 40
0.0
 10
288.4999956607818
 20
510.3499897956863
 30
-0.0000000000046022
 10
0.0
 20
510.3499897956862
 30
-0.0000000000074673
 10
-288.4999956607818
 20
510.3499897956861
 30
-0.0000000000103324
  0
SPLINE
  5
1BE
330
1A7
100
AcDbEntity
  8
FP$FP-1
100
AcDbSpline
210
0.0
220
0.0
230
1.0
 70
    24
 71
     2
 72
     6
 73
     3
 74
     0
 42
0.0000000001
 43
0.0000000001
 40
-1.646489467520732
 40
-1.646489467520732
 40
-1.646489467520732
 40
0.0
 40
0.0
 40
0.0
 10
299.5
 20
514.3499897956867
 30
-0.0000000000098882
 10
299.5
 20
263.4249949455271
 30
-0.0000000000072452
 10
299.5
 20
12.50000009536743
 30
-0.0000000000046022
  0
SPLINE
  5
1BF
330
1A7
100
AcDbEntity
  8
FP$FP-1
100
AcDbSpline
210
0.0
220
0.0
230
1.0
 70
    24
 71
     2
 72
     6
 73
     3
 74
     0
 42
0.0000000001
 43
0.0000000001
 40
-1.965223097112859
 40
-1.965223097112859
 40
-1.965223097112859
 40
0.0
 40
0.0
 40
0.0
 10
299.5
 20
12.50000009536743
 30
-0.0000000000046022
 10
0.0000000000002842
 20
12.50000009536743
 30
-0.0000000000046022
 10
-299.4999999999994
 20
12.50000009536743
 30
-0.0000000000046022
  0
SPLINE
  5
1C0
330
1A7
100
AcDbEntity
  8
FP$FP-1
100
AcDbSpline
210
0.0
220
0.0
230
1.0
 70
    24
 71
     2
 72
     6
 73
     3
 74
     0
 42
0.0000000001
 43
0.0000000001
 40
-1.64648946752073
 40
-1.64648946752073
 40
-1.64648946752073
 40
0.0
 40
0.0
 40
0.0
 10
-299.4999999999994
 20
12.50000009536743
 30
-0.0000000000046022
 10
-299.4999999999994
 20
263.4249949455266
 30
-0.0000000000068331
 10
-299.4999999999993
 20
514.3499897956858
 30
-0.000000000009064
  0
SPLINE
  5
1C1
330
1A7
100
AcDbEntity
  8
FP$FP-1
100
AcDbSpline
210
0.0
220
0.0
230
1.0
 70
    24
 71
     2
 72
     6
 73
     3
 74
     0
 42
0.0000000001
 43
0.0000000001
 40
-1.489501312335952
 40
-1.489501312335952
 40
-1.489501312335952
 40
0.0
 40
0.0
 40
0.0
 10
299.5
 20
12.50000009536743
 30
-0.0000000000046022
 10
299.5
 20
12.50000009536743
 30
226.9999999999944
 10
299.5
 20
12.50000009536743
 30
453.9999999999935
  0
SPLINE
  5
1C2
330
1A7
100
AcDbEntity
  8
FP$FP-1
100
AcDbSpline
210
0.0
220
0.0
230
1.0
 70
    24
 71
     2
 72
     6
 73
     3
 74
     0
 42
0.0000000001
 43
0.0000000001
 40
-1.965223097112859
 40
-1.965223097112859
 40
-1.965223097112859
 40
0.0
 40
0.0
 40
0.0
 10
299.5
 20
12.50000009536743
 30
453.9999999999935
 10
0.0000000000002842
 20
12.50000009536743
 30
453.9999999999935
 10
-299.4999999999994
 20
12.50000009536743
 30
453.9999999999935
  0
SPLINE
  5
1C3
330
1A7
100
AcDbEntity
  8
FP$FP-1
100
AcDbSpline
210
0.0
220
0.0
230
1.0
 70
    24
 71
     2
 72
     6
 73
     3
 74
     0
 42
0.0000000001
 43
0.0000000001
 40
-1.489501312335952
 40
-1.489501312335952
 40
-1.489501312335952
 40
0.0
 40
0.0
 40
0.0
 10
-299.4999999999994
 20
12.50000009536743
 30
453.9999999999935
 10
-299.4999999999994
 20
12.50000009536743
 30
226.9999999999944
 10
-299.4999999999994
 20
12.50000009536743
 30
-0.0000000000046022
  0
SPLINE
  5
1C4
330
1A7
100
AcDbEntity
  8
FP$FP-1
100
AcDbSpline
210
0.0
220
0.0
230
1.0
 70
    24
 71
     2
 72
     6
 73
     3
 74
     0
 42
0.0000000001
 43
0.0000000001
 40
-1.77329396294166
 40
-1.77329396294166
 40
-1.77329396294166
 40
0.0
 40
0.0
 40
0.0
 10
299.5
 20
12.50000009536743
 30
453.9999999999935
 10
299.5
 20
282.7500000476765
 30
453.9999999999935
 10
299.5
 20
552.9999999999856
 30
453.9999999999935
  0
SPLINE
  5
1C5
330
1A7
100
AcDbEntity
  8
FP$FP-1
100
AcDbSpline
210
0.0
220
0.0
230
1.0
 70
    24
 71
     2
 72
     6
 73
     3
 74
     0
 42
0.0000000001
 43
0.0000000001
 40
-1.77329396294166
 40
-1.77329396294166
 40
-1.77329396294166
 40
0.0
 40
0.0
 40
0.0
 10
-299.4999999999994
 20
552.9999999999856
 30
453.9999999999935
 10
-299.4999999999994
 20
282.7500000476765
 30
453.9999999999935
 10
-299.4999999999994
 20
12.50000009536743
 30
453.9999999999935
  0
ARC
  5
1C6
330
1A7
100
AcDbEntity
  8
FP$FP-1
100
AcDbCircle
 10
-554.3487009394207
 20
0.3211025383206604
 30
-293.9999978303908
 40
40.0
210
-1.0
220
0.0
230
0.0
100
AcDbArc
 50
359.5400495539702
 51
88.06776197293881
  0
LINE
  5
1C7
330
1A7
100
AcDbEntity
  8
FP$FP-1
100
AcDbLine
 10
299.5
 20
514.3487009394207
 30
0.3211025383205958
 11
288.4999956607818
 21
514.3487009394207
 31
0.3211025383205958
  0
LINE
  5
1C8
330
1A7
100
AcDbEntity
  8
FP$FP-1
100
AcDbLine
 10
288.4999956607818
 20
510.3499897956863
 30
22.14917932222557
 11
288.4999956607818
 21
520.8295263684983
 31
22.14917932222557
  0
LINE
  5
1C9
330
1A7
100
AcDbEntity
  8
FP$FP-1
100
AcDbLine
 10
288.4999956607818
 20
531.6749948978359
 30
44.2983586444624
 11
288.4999956607818
 21
531.6749948978359
 31
33.27414571099008
  0
ARC
  5
1CA
330
1A7
100
AcDbEntity
  8
FP$FP-1
100
AcDbCircle
 10
554.3487009394199
 20
0.3211025383210604
 30
-293.9999978303908
 40
40.0
210
1.0
220
0.0
230
0.0
100
AcDbArc
 50
91.93223802706396
 51
180.4599504460245
  0
LINE
  5
1CB
330
1A7
100
AcDbEntity
  8
FP$FP-1
100
AcDbLine
 10
-299.4999999999994
 20
514.3487009394199
 30
0.321102538321125
 11
-288.4999956607818
 21
514.3487009394199
 31
0.321102538321125
  0
LINE
  5
1CC
330
1A7
100
AcDbEntity
  8
FP$FP-1
100
AcDbLine
 10
-288.4999956607818
 20
531.6749948978357
 30
33.27414571099147
 11
-288.4999956607818
 21
531.6749948978357
 31
44.29835864446369
  0
LINE
  5
1CD
330
1A7
100
AcDbEntity
  8
FP$FP-1
100
AcDbLine
 10
-288.4999956607818
 20
520.8295263684965
 30
22.14917932222525
 11
-288.4999956607818
 21
510.3499897956861
 31
22.14917932222525
  0
LINE
  5
1CE
330
1A7
100
AcDbEntity
  8
FP$FP-1
100
AcDbLine
 10
288.4999956607818
 20
531.6749948978359
 30
44.29835864446369
 11
-288.4999956607819
 21
531.6749948978359
 31
44.29835864446369
  0
LINE
  5
1CF
330
1A7
100
AcDbEntity
  8
FP$FP-1
100
AcDbLine
 10
0.0
 20
510.3499897956863
 30
44.29835864446369
 11
0.0
 21
552.9999999999801
 31
44.29835864446369
  0
LINE
  5
1D0
330
1A7
100
AcDbEntity
  8
FP$FP-1
100
AcDbLine
 10
299.5
 20
552.9999999999856
 30
247.1491793222272
 11
-299.4999999999994
 21
552.9999999999856
 31
247.1491793222272
  0
LINE
  5
1D1
330
1A7
100
AcDbEntity
  8
FP$FP-1
100
AcDbLine
 10
0.0000000000002842
 20
552.9999999999856
 30
44.2983586444624
 11
0.0000000000002842
 21
552.9999999999856
 31
453.9999999999935
  0
LINE
  5
1D2
330
1A7
100
AcDbEntity
  8
FP$FP-1
100
AcDbLine
 10
288.4999956607818
 20
510.3499897956863
 30
22.14917932222525
 11
-288.4999956607819
 21
510.3499897956863
 31
22.14917932222525
  0
LINE
  5
1D3
330
1A7
100
AcDbEntity
  8
FP$FP-1
100
AcDbLine
 10
0.0
 20
510.3499897956863
 30
-0.0000000000088998
 11
0.0
 21
510.3499897956863
 31
44.29835864446369
  0
LINE
  5
1D4
330
1A7
100
AcDbEntity
  8
FP$FP-1
100
AcDbLine
 10
299.5
 20
263.4249949455271
 30
-0.0000000000046022
 11
-299.4999999999994
 21
263.4249949455271
 31
-0.0000000000046022
  0
LINE
  5
1D5
330
1A7
100
AcDbEntity
  8
FP$FP-1
100
AcDbLine
 10
0.0000000000002842
 20
12.50000009536743
 30
-0.0000000000046022
 11
0.0000000000002842
 21
510.3499897956862
 31
-0.0000000000046022
  0
LINE
  5
1D6
330
1A7
100
AcDbEntity
  8
FP$FP-1
100
AcDbLine
 10
299.5
 20
12.50000009536743
 30
226.9999999999944
 11
-299.4999999999994
 21
12.50000009536743
 31
226.9999999999944
  0
LINE
  5
1D7
330
1A7
100
AcDbEntity
  8
FP$FP-1
100
AcDbLine
 10
0.0000000000002842
 20
12.50000009536743
 30
453.9999999999935
 11
0.0000000000002842
 21
12.50000009536743
 31
-0.0000000000046154
  0
LINE
  5
1D8
330
1A7
100
AcDbEntity
  8
FP$FP-1
100
AcDbLine
 10
299.5
 20
282.7500000476765
 30
453.9999999999935
 11
-299.4999999999994
 21
282.7500000476765
 31
453.9999999999935
  0
LINE
  5
1D9
330
1A7
100
AcDbEntity
  8
FP$FP-1
100
AcDbLine
 10
0.0000000000002842
 20
552.9999999999856
 30
453.9999999999935
 11
0.0000000000002842
 21
12.50000009536747
 31
453.9999999999935
  0
LINE
  5
1DA
330
1A7
100
AcDbEntity
  8
FP$FP-1
100
AcDbLine
 10
-299.4999999999994
 20
12.50000009536743
 30
226.9999999999906
 11
-299.4999999999994
 21
552.9999999999849
 31
226.9999999999906
  0
LINE
  5
1DB
330
1A7
100
AcDbEntity
  8
FP$FP-1
100
AcDbLine
 10
-299.4999999999994
 20
282.7500000476765
 30
453.9999999999935
 11
-299.4999999999994
 21
282.7500000476765
 31
-0.0000000000087103
  0
LINE
  5
1DC
330
1A7
100
AcDbEntity
  8
FP$FP-1
100
AcDbLine
 10
299.5
 20
552.9999999999872
 30
226.9999999999905
 11
299.5
 21
12.50000009536744
 31
226.9999999999905
  0
LINE
  5
1DD
330
1A7
100
AcDbEntity
  8
FP$FP-1
100
AcDbLine
 10
299.5
 20
282.750000047678
 30
453.9999999999935
 11
299.5
 21
282.750000047678
 31
-0.0000000000088872
  0
ENDBLK
  5
1DF
330
1A7
100
AcDbEntity
  8
0
100
AcDbBlockEnd
  0
ENDSEC
  0
SECTION
  2
ENTITIES
  0
ARC
  5
60
330
1F
100
AcDbEntity
  8
FP$FP-1
100
AcDbCircle
 10
-269.0000086307524
 20
185.9517750739781
 30
-0.800023841858686
 40
4.999999999999972
210
0.0
220
1.0
230
0.0
100
AcDbArc
 50
180.0000000000003
 51
270.0
  0
LINE
  5
61
330
1F
100
AcDbEntity
  8
FP$FP-1
100
AcDbLine
 10
269.0000086307524
 20
-0.800023841858686
 30
180.9517750739781
 11
269.0000086307523
 21
0.0
 31
180.9517750739781
  0
ARC
  5
62
330
1F
100
AcDbEntity
  8
FP$FP-1
100
AcDbCircle
 10
269.0000086307523
 20
185.9517750739781
 30
0.0
 40
5.0
210
0.0
220
-1.0
230
0.0
100
AcDbArc
 50
270.0
 51
0.0
  0
LINE
  5
63
330
1F
100
AcDbEntity
  8
FP$FP-1
100
AcDbLine
 10
274.0000086307523
 20
0.0
 30
185.9517750739781
 11
274.0000086307523
 21
-0.800023841858686
 31
185.9517750739781
  0
ARC
  5
64
330
1F
100
AcDbEntity
  8
FP$FP-1
100
AcDbCircle
 10
268.9999904632572
 20
185.9517750739738
 30
-0.800023841858686
 40
5.000000000000057
210
0.0
220
1.0
230
0.0
100
AcDbArc
 50
270.0
 51
0.0
  0
LINE
  5
65
330
1F
100
AcDbEntity
  8
FP$FP-1
100
AcDbLine
 10
-273.9999904632572
 20
-0.800023841858686
 30
185.9517750739738
 11
-273.9999904632572
 21
0.0
 31
185.9517750739738
  0
ARC
  5
66
330
1F
100
AcDbEntity
  8
FP$FP-1
100
AcDbCircle
 10
-268.9999904632572
 20
185.9517750739738
 30
0.0
 40
5.000000000000028
210
0.0
220
-1.0
230
0.0
100
AcDbArc
 50
180.0
 51
270.0
  0
LINE
  5
67
330
1F
100
AcDbEntity
  8
FP$FP-1
100
AcDbLine
 10
-268.9999904632572
 20
0.0
 30
180.9517750739738
 11
-268.9999904632572
 21
-0.800023841858686
 31
180.9517750739738
  0
ARC
  5
68
330
1F
100
AcDbEntity
  8
FP$FP-1
100
AcDbCircle
 10
180.0000050067902
 20
289.9517533778875
 30
0.800023841858686
 40
8.000000000000028
210
0.0
220
-1.0
230
0.0
100
AcDbArc
 50
180.0000000000004
 51
0.0
  0
LINE
  5
69
330
1F
100
AcDbEntity
  8
FP$FP-1
100
AcDbLine
 10
188.0000050067903
 20
-0.800023841858686
 30
289.9517533778875
 11
188.0000050067903
 21
0.0
 31
289.9517533778875
  0
ARC
  5
6A
330
1F
100
AcDbEntity
  8
FP$FP-1
100
AcDbCircle
 10
-180.0000050067903
 20
289.9517533778875
 30
0.0
 40
8.0
210
0.0
220
1.0
230
0.0
100
AcDbArc
 50
180.0
 51
0.0
  0
LINE
  5
6B
330
1F
100
AcDbEntity
  8
FP$FP-1
100
AcDbLine
 10
172.0000050067902
 20
0.0
 30
289.9517533778874
 11
172.0000050067902
 21
-0.800023841858686
 31
289.9517533778874
  0
ARC
  5
6C
330
1F
100
AcDbEntity
  8
FP$FP-1
100
AcDbCircle
 10
180.0000050067903
 20
289.9517533778875
 30
0.800023841858686
 40
8.000000000000028
210
0.0
220
-1.0
230
0.0
100
AcDbArc
 50
0.0
 51
180.0
  0
ARC
  5
6D
330
1F
100
AcDbEntity
  8
FP$FP-1
100
AcDbCircle
 10
-180.0000050067903
 20
289.9517533778875
 30
0.0
 40
8.000000000000028
210
0.0
220
1.0
230
0.0
100
AcDbArc
 50
359.9999999999996
 51
180.0
  0
ARC
  5
6E
330
1F
100
AcDbEntity
  8
FP$FP-1
100
AcDbCircle
 10
212.9999983549119
 20
289.9517533778875
 30
0.800023841858686
 40
8.0
210
0.0
220
-1.0
230
0.0
100
AcDbArc
 50
180.0000000000004
 51
0.0
  0
LINE
  5
6F
330
1F
100
AcDbEntity
  8
FP$FP-1
100
AcDbLine
 10
220.9999983549119
 20
-0.800023841858686
 30
289.9517533778875
 11
220.9999983549119
 21
0.0
 31
289.9517533778875
  0
ARC
  5
70
330
1F
100
AcDbEntity
  8
FP$FP-1
100
AcDbCircle
 10
-212.9999983549119
 20
289.9517533778875
 30
0.0
 40
8.0
210
0.0
220
1.0
230
0.0
100
AcDbArc
 50
180.0
 51
0.0
  0
LINE
  5
71
330
1F
100
AcDbEntity
  8
FP$FP-1
100
AcDbLine
 10
204.9999983549119
 20
0.0
 30
289.9517533778874
 11
204.9999983549119
 21
-0.800023841858686
 31
289.9517533778874
  0
ARC
  5
72
330
1F
100
AcDbEntity
  8
FP$FP-1
100
AcDbCircle
 10
212.9999983549119
 20
289.9517533778875
 30
0.800023841858686
 40
8.000000000000028
210
0.0
220
-1.0
230
0.0
100
AcDbArc
 50
0.0
 51
180.0
  0
ARC
  5
73
330
1F
100
AcDbEntity
  8
FP$FP-1
100
AcDbCircle
 10
-212.9999983549119
 20
289.9517533778875
 30
0.0
 40
8.000000000000028
210
0.0
220
1.0
230
0.0
100
AcDbArc
 50
359.9999999999996
 51
180.0
  0
ARC
  5
74
330
1F
100
AcDbEntity
  8
FP$FP-1
100
AcDbCircle
 10
196.4999971389771
 20
322.9517558097569
 30
0.800023841858686
 40
8.000000000000028
210
0.0
220
-1.0
230
0.0
100
AcDbArc
 50
180.0
 51
0.0
  0
LINE
  5
75
330
1F
100
AcDbEntity
  8
FP$FP-1
100
AcDbLine
 10
204.4999971389772
 20
-0.800023841858686
 30
322.9517558097569
 11
204.4999971389772
 21
0.0
 31
322.9517558097569
  0
ARC
  5
76
330
1F
100
AcDbEntity
  8
FP$FP-1
100
AcDbCircle
 10
-196.4999971389772
 20
322.9517558097569
 30
0.0
 40
8.0
210
0.0
220
1.0
230
0.0
100
AcDbArc
 50
180.0
 51
0.0
  0
LINE
  5
77
330
1F
100
AcDbEntity
  8
FP$FP-1
100
AcDbLine
 10
188.4999971389771
 20
0.0
 30
322.9517558097569
 11
188.4999971389771
 21
-0.800023841858686
 31
322.9517558097569
  0
ARC
  5
78
330
1F
100
AcDbEntity
  8
FP$FP-1
100
AcDbCircle
 10
196.4999971389772
 20
322.9517558097569
 30
0.800023841858686
 40
8.000000000000028
210
0.0
220
-1.0
230
0.0
100
AcDbArc
 50
0.0
 51
180.0
  0
ARC
  5
79
330
1F
100
AcDbEntity
  8
FP$FP-1
100
AcDbCircle
 10
-196.4999971389772
 20
322.9517558097569
 30
0.0
 40
8.000000000000028
210
0.0
220
1.0
230
0.0
100
AcDbArc
 50
0.0
 51
180.0
  0
ARC
  5
7A
330
1F
100
AcDbEntity
  8
FP$FP-1
100
AcDbCircle
 10
263.9999904632572
 20
399.1758601188528
 30
-0.800023841858686
 40
9.999999999999886
210
0.0
220
1.0
230
0.0
100
AcDbArc
 50
359.9999999999993
 51
90.0
  0
LINE
  5
7B
330
1F
100
AcDbEntity
  8
FP$FP-1
100
AcDbLine
 10
-263.9999904632572
 20
-0.800023841858686
 30
409.1758601188527
 11
-263.9999904632572
 21
0.0
 31
409.1758601188527
  0
ARC
  5
7C
330
1F
100
AcDbEntity
  8
FP$FP-1
100
AcDbCircle
 10
-263.9999904632572
 20
399.1758601188527
 30
0.0
 40
10.0
210
0.0
220
-1.0
230
0.0
100
AcDbArc
 50
89.99999999999969
 51
180.0
  0
LINE
  5
7D
330
1F
100
AcDbEntity
  8
FP$FP-1
100
AcDbLine
 10
-273.9999904632572
 20
0.0
 30
399.1758601188527
 11
-273.9999904632572
 21
-0.800023841858686
 31
399.1758601188527
  0
ARC
  5
7E
330
1F
100
AcDbEntity
  8
FP$FP-1
100
AcDbCircle
 10
-264.0000086307526
 20
399.1758601188528
 30
-0.800023841858686
 40
9.999999999999886
210
0.0
220
1.0
230
0.0
100
AcDbArc
 50
89.99999999999969
 51
180.0
  0
LINE
  5
7F
330
1F
100
AcDbEntity
  8
FP$FP-1
100
AcDbLine
 10
274.0000086307524
 20
-0.800023841858686
 30
399.1758601188527
 11
274.0000086307524
 21
0.0
 31
399.1758601188527
  0
ARC
  5
80
330
1F
100
AcDbEntity
  8
FP$FP-1
100
AcDbCircle
 10
264.0000086307525
 20
399.1758601188528
 30
0.0
 40
9.999999999999943
210
0.0
220
-1.0
230
0.0
100
AcDbArc
 50
359.9999999999993
 51
90.0
  0
LINE
  5
81
330
1F
100
AcDbEntity
  8
FP$FP-1
100
AcDbLine
 10
264.0000086307525
 20
0.0
 30
409.1758601188527
 11
264.0000086307525
 21
-0.800023841858686
 31
409.1758601188527
  0
ARC
  5
82
330
1F
100
AcDbEntity
  8
FP$FP-1
100
AcDbCircle
 10
-262.500002002716
 20
272.951755428283
 30
0.800023841858686
 40
2.000005102157559
210
0.0
220
-1.0
230
0.0
100
AcDbArc
 50
180.0
 51
0.0
  0
LINE
  5
83
330
1F
100
AcDbEntity
  8
FP$FP-1
100
AcDbLine
 10
-260.4999969005585
 20
-0.800023841858686
 30
272.951755428283
 11
-260.4999969005585
 21
0.0
 31
272.951755428283
  0
ARC
  5
84
330
1F
100
AcDbEntity
  8
FP$FP-1
100
AcDbCircle
 10
262.500002002716
 20
272.951755428283
 30
0.0
 40
2.000005102157559
210
0.0
220
1.0
230
0.0
100
AcDbArc
 50
180.0
 51
0.0
  0
LINE
  5
85
330
1F
100
AcDbEntity
  8
FP$FP-1
100
AcDbLine
 10
-264.5000071048736
 20
0.0
 30
272.951755428283
 11
-264.5000071048736
 21
-0.800023841858686
 31
272.951755428283
  0
ARC
  5
86
330
1F
100
AcDbEntity
  8
FP$FP-1
100
AcDbCircle
 10
-262.500002002716
 20
272.951755428283
 30
0.800023841858686
 40
2.000005102157559
210
0.0
220
-1.0
230
0.0
100
AcDbArc
 50
0.0
 51
180.0
  0
ARC
  5
87
330
1F
100
AcDbEntity
  8
FP$FP-1
100
AcDbCircle
 10
262.500002002716
 20
272.951755428283
 30
0.0
 40
2.000005102157559
210
0.0
220
1.0
230
0.0
100
AcDbArc
 50
0.0
 51
180.0
  0
ARC
  5
88
330
1F
100
AcDbEntity
  8
FP$FP-1
100
AcDbCircle
 10
-262.500002002716
 20
368.4518128395018
 30
0.800023841858686
 40
1.94066316748075
210
0.0
220
-1.0
230
0.0
100
AcDbArc
 50
180.0000000000017
 51
0.0
  0
LINE
  5
89
330
1F
100
AcDbEntity
  8
FP$FP-1
100
AcDbLine
 10
-260.5593388352352
 20
-0.800023841858686
 30
368.4518128395017
 11
-260.5593388352352
 21
0.0
 31
368.4518128395017
  0
ARC
  5
8A
330
1F
100
AcDbEntity
  8
FP$FP-1
100
AcDbCircle
 10
262.500002002716
 20
368.4518128395018
 30
0.0
 40
1.940663167480807
210
0.0
220
1.0
230
0.0
100
AcDbArc
 50
180.0000000000017
 51
0.0
  0
LINE
  5
8B
330
1F
100
AcDbEntity
  8
FP$FP-1
100
AcDbLine
 10
-264.4406651701968
 20
0.0
 30
368.4518128395017
 11
-264.4406651701968
 21
-0.800023841858686
 31
368.4518128395017
  0
ARC
  5
8C
330
1F
100
AcDbEntity
  8
FP$FP-1
100
AcDbCircle
 10
-262.500002002716
 20
368.4518128395017
 30
0.800023841858686
 40
1.940663167480807
210
0.0
220
-1.0
230
0.0
100
AcDbArc
 50
0.0
 51
180.0
  0
ARC
  5
8D
330
1F
100
AcDbEntity
  8
FP$FP-1
100
AcDbCircle
 10
-262.500002002716
 20
368.4518128395017
 30
0.0
 40
1.940663167480807
210
0.0
220
-1.0
230
0.0
100
AcDbArc
 50
0.0
 51
180.0
  0
ARC
  5
8E
330
1F
100
AcDbEntity
  8
FP$FP-1
100
AcDbCircle
 10
262.5000020027162
 20
272.9517554282872
 30
0.800023841858686
 40
2.000005102157559
210
0.0
220
-1.0
230
0.0
100
AcDbArc
 50
180.0
 51
0.0
  0
LINE
  5
8F
330
1F
100
AcDbEntity
  8
FP$FP-1
100
AcDbLine
 10
264.5000071048737
 20
-0.800023841858686
 30
272.9517554282872
 11
264.5000071048737
 21
0.0
 31
272.9517554282872
  0
ARC
  5
90
330
1F
100
AcDbEntity
  8
FP$FP-1
100
AcDbCircle
 10
-262.5000020027162
 20
272.9517554282872
 30
0.0
 40
2.000005102157559
210
0.0
220
1.0
230
0.0
100
AcDbArc
 50
180.0
 51
0.0
  0
LINE
  5
91
330
1F
100
AcDbEntity
  8
FP$FP-1
100
AcDbLine
 10
260.4999969005586
 20
0.0
 30
272.9517554282872
 11
260.4999969005586
 21
-0.800023841858686
 31
272.9517554282872
  0
ARC
  5
92
330
1F
100
AcDbEntity
  8
FP$FP-1
100
AcDbCircle
 10
262.5000020027161
 20
272.9517554282873
 30
0.800023841858686
 40
2.000005102157559
210
0.0
220
-1.0
230
0.0
100
AcDbArc
 50
359.9999999999984
 51
180.0
  0
ARC
  5
93
330
1F
100
AcDbEntity
  8
FP$FP-1
100
AcDbCircle
 10
262.5000020027161
 20
272.9517554282873
 30
0.0
 40
2.000005102157559
210
0.0
220
-1.0
230
0.0
100
AcDbArc
 50
359.9999999999984
 51
180.0
  0
ARC
  5
94
330
1F
100
AcDbEntity
  8
FP$FP-1
100
AcDbCircle
 10
262.5000020027162
 20
368.4518128395018
 30
0.800023841858686
 40
1.94066316748075
210
0.0
220
-1.0
230
0.0
100
AcDbArc
 50
180.0
 51
0.0
  0
LINE
  5
95
330
1F
100
AcDbEntity
  8
FP$FP-1
100
AcDbLine
 10
264.4406651701969
 20
-0.800023841858686
 30
368.4518128395018
 11
264.4406651701969
 21
0.0
 31
368.4518128395018
  0
ARC
  5
96
330
1F
100
AcDbEntity
  8
FP$FP-1
100
AcDbCircle
 10
-262.5000020027162
 20
368.4518128395018
 30
0.0
 40
1.94066316748075
210
0.0
220
1.0
230
0.0
100
AcDbArc
 50
180.0
 51
0.0
  0
LINE
  5
97
330
1F
100
AcDbEntity
  8
FP$FP-1
100
AcDbLine
 10
260.5593388352354
 20
0.0
 30
368.4518128395018
 11
260.5593388352354
 21
-0.800023841858686
 31
368.4518128395018
  0
ARC
  5
98
330
1F
100
AcDbEntity
  8
FP$FP-1
100
AcDbCircle
 10
-262.5000020027161
 20
368.4518128395019
 30
-0.800023841858686
 40
1.94066316748075
210
0.0
220
1.0
230
0.0
100
AcDbArc
 50
359.9999999999983
 51
180.0
  0
ARC
  5
99
330
1F
100
AcDbEntity
  8
FP$FP-1
100
AcDbCircle
 10
262.5000020027161
 20
368.4518128395019
 30
0.0
 40
1.94066316748075
210
0.0
220
-1.0
230
0.0
100
AcDbArc
 50
359.9999999999983
 51
180.0
  0
SPLINE
  5
9A
330
1F
100
AcDbEntity
  8
FP$FP-1
100
AcDbSpline
210
0.0
220
0.0
230
1.0
 70
    24
 71
     2
 72
     6
 73
     3
 74
     0
 42
0.0000000001
 43
0.0000000001
 40
-0.0623359800636604
 40
-0.0623359800636604
 40
-0.0623359800636604
 40
0.0
 40
0.0
 40
0.0
 10
269.0000086307524
 20
-0.800023841858686
 30
180.9517750739781
 10
259.5000052690506
 20
-0.800023841858686
 30
180.9517750739781
 10
250.0000019073487
 20
-0.800023841858686
 30
180.9517750739781
  0
SPLINE
  5
9B
330
1F
100
AcDbEntity
  8
FP$FP-1
100
AcDbSpline
210
0.0
220
0.0
230
1.0
 70
    24
 71
     2
 72
     6
 73
     3
 74
     0
 42
0.0000000001
 43
0.0000000001
 40
-0.0026247501373316
 40
-0.0026247501373316
 40
-0.0026247501373316
 40
0.0
 40
0.0
 40
0.0
 10
250.0000019073487
 20
-0.800023841858686
 30
180.9517750739781
 10
250.0000019073487
 20
-0.400011920929343
 30
180.9517750739781
 10
250.0000019073487
 20
0.0
 30
180.9517750739781
  0
SPLINE
  5
9C
330
1F
100
AcDbEntity
  8
FP$FP-1
100
AcDbSpline
210
0.0
220
0.0
230
1.0
 70
    24
 71
     2
 72
     6
 73
     3
 74
     0
 42
0.0000000001
 43
0.0000000001
 40
-0.0623359800636604
 40
-0.0623359800636604
 40
-0.0623359800636604
 40
-0.0000000000000002
 40
-0.0000000000000002
 40
-0.0000000000000002
 10
250.0000019073487
 20
0.0
 30
180.9517750739781
 10
259.5000052690505
 20
0.0
 30
180.9517750739781
 10
269.0000086307523
 20
0.0
 30
180.9517750739781
  0
SPLINE
  5
9D
330
1F
100
AcDbEntity
  8
FP$FP-1
100
AcDbSpline
210
0.0
220
0.0
230
1.0
 70
    24
 71
     2
 72
     6
 73
     3
 74
     0
 42
0.0000000001
 43
0.0000000001
 40
-0.6995540847929098
 40
-0.6995540847929098
 40
-0.6995540847929098
 40
0.0
 40
0.0
 40
0.0
 10
-273.9999904632572
 20
-0.800023841858686
 30
185.9517750739738
 10
-273.9999904632572
 20
-0.800023841858686
 30
292.5638175964133
 10
-273.9999904632572
 20
-0.800023841858686
 30
399.1758601188527
  0
SPLINE
  5
9E
330
1F
100
AcDbEntity
  8
FP$FP-1
100
AcDbSpline
210
0.0
220
0.0
230
1.0
 70
    24
 71
     2
 72
     6
 73
     3
 74
     0
 42
0.0000000001
 43
0.0000000001
 40
-0.6995540847929097
 40
-0.6995540847929097
 40
-0.6995540847929097
 40
0.0
 40
0.0
 40
0.0
 10
-273.9999904632572
 20
0.0
 30
399.1758601188527
 10
-273.9999904632572
 20
0.0
 30
292.5638175964133
 10
-273.9999904632572
 20
0.0
 30
185.9517750739738
  0
SPLINE
  5
9F
330
1F
100
AcDbEntity
  8
FP$FP-1
100
AcDbSpline
210
0.0
220
0.0
230
1.0
 70
    24
 71
     2
 72
     6
 73
     3
 74
     0
 42
0.0000000001
 43
0.0000000001
 40
-1.73228346159452
 40
-1.73228346159452
 40
-1.73228346159452
 40
0.0
 40
0.0
 40
0.0
 10
-263.9999904632572
 20
-0.800023841858686
 30
409.1758601188527
 10
0.0000090837476705
 20
-0.800023841858686
 30
409.1758601188527
 10
264.0000086307525
 20
-0.800023841858686
 30
409.1758601188527
  0
SPLINE
  5
A0
330
1F
100
AcDbEntity
  8
FP$FP-1
100
AcDbSpline
210
0.0
220
0.0
230
1.0
 70
    24
 71
     2
 72
     6
 73
     3
 74
     0
 42
0.0000000001
 43
0.0000000001
 40
-1.73228346159452
 40
-1.73228346159452
 40
-1.73228346159452
 40
0.0
 40
0.0
 40
0.0
 10
264.0000086307525
 20
0.0
 30
409.1758601188527
 10
0.0000090837476705
 20
0.0
 30
409.1758601188527
 10
-263.9999904632572
 20
0.0
 30
409.1758601188527
  0
SPLINE
  5
A1
330
1F
100
AcDbEntity
  8
FP$FP-1
100
AcDbSpline
210
0.0
220
0.0
230
1.0
 70
    24
 71
     2
 72
     6
 73
     3
 74
     0
 42
0.0000000001
 43
0.0000000001
 40
-0.6995540847928958
 40
-0.6995540847928958
 40
-0.6995540847928958
 40
-0.0000000000000002
 40
-0.0000000000000002
 40
-0.0000000000000002
 10
274.0000086307523
 20
0.0
 30
185.9517750739781
 10
274.0000086307524
 20
0.0
 30
292.5638175964154
 10
274.0000086307524
 20
0.0
 30
399.1758601188527
  0
SPLINE
  5
A2
330
1F
100
AcDbEntity
  8
FP$FP-1
100
AcDbSpline
210
0.0
220
0.0
230
1.0
 70
    24
 71
     2
 72
     6
 73
     3
 74
     0
 42
0.0000000001
 43
0.0000000001
 40
-0.5840744802830519
 40
-0.5840744802830519
 40
-0.5840744802830519
 40
0.0
 40
0.0
 40
0.0
 10
250.0000019073487
 20
-0.800023841858686
 30
180.9517750739781
 10
250.0000019073487
 20
-0.800023841858686
 30
91.938824278841
 10
250.0000019073487
 20
-0.800023841858686
 30
2.925873483703906
  0
SPLINE
  5
A3
330
1F
100
AcDbEntity
  8
FP$FP-1
100
AcDbSpline
210
0.0
220
0.0
230
1.0
 70
    24
 71
     2
 72
     6
 73
     3
 74
     0
 42
0.0000000001
 43
0.0000000001
 40
-0.0026247501373316
 40
-0.0026247501373316
 40
-0.0026247501373316
 40
0.0
 40
0.0
 40
0.0
 10
250.0000019073487
 20
-0.800023841858686
 30
2.925873483703906
 10
250.0000019073487
 20
-0.400011920929343
 30
2.925873483703906
 10
250.0000019073487
 20
0.0
 30
2.925873483703906
  0
SPLINE
  5
A4
330
1F
100
AcDbEntity
  8
FP$FP-1
100
AcDbSpline
210
0.0
220
0.0
230
1.0
 70
    24
 71
     2
 72
     6
 73
     3
 74
     0
 42
0.0000000001
 43
0.0000000001
 40
-0.5840744802830519
 40
-0.5840744802830519
 40
-0.5840744802830519
 40
0.0
 40
0.0
 40
0.0
 10
250.0000019073487
 20
0.0
 30
2.925873483703906
 10
250.0000019073487
 20
0.0
 30
91.938824278841
 10
250.0000019073487
 20
0.0
 30
180.9517750739781
  0
SPLINE
  5
A5
330
1F
100
AcDbEntity
  8
FP$FP-1
100
AcDbSpline
210
0.0
220
0.0
230
1.0
 70
    24
 71
     2
 72
     6
 73
     3
 74
     0
 42
0.0000000001
 43
0.0000000001
 40
-1.640419960021973
 40
-1.640419960021973
 40
-1.640419960021973
 40
0.0
 40
0.0
 40
0.0
 10
250.0000019073487
 20
-0.800023841858686
 30
2.925873483703906
 10
-0.0000000000000426
 20
-0.800023841858686
 30
2.925873483703906
 10
-250.0000019073488
 20
-0.800023841858686
 30
2.925873483703906
  0
SPLINE
  5
A6
330
1F
100
AcDbEntity
  8
FP$FP-1
100
AcDbSpline
210
0.0
220
0.0
230
1.0
 70
    24
 71
     2
 72
     6
 73
     3
 74
     0
 42
0.0000000001
 43
0.0000000001
 40
-0.0026247501373316
 40
-0.0026247501373316
 40
-0.0026247501373316
 40
0.0
 40
0.0
 40
0.0
 10
-250.0000019073488
 20
-0.800023841858686
 30
2.925873483703906
 10
-250.0000019073488
 20
-0.400011920929343
 30
2.925873483703906
 10
-250.0000019073488
 20
0.0
 30
2.925873483703906
  0
SPLINE
  5
A7
330
1F
100
AcDbEntity
  8
FP$FP-1
100
AcDbSpline
210
0.0
220
0.0
230
1.0
 70
    24
 71
     2
 72
     6
 73
     3
 74
     0
 42
0.0000000001
 43
0.0000000001
 40
-1.640419960021973
 40
-1.640419960021973
 40
-1.640419960021973
 40
0.0
 40
0.0
 40
0.0
 10
-250.0000019073488
 20
0.0
 30
2.925873483703906
 10
-0.0000000000000426
 20
0.0
 30
2.925873483703906
 10
250.0000019073487
 20
0.0
 30
2.925873483703906
  0
SPLINE
  5
A8
330
1F
100
AcDbEntity
  8
FP$FP-1
100
AcDbSpline
210
0.0
220
0.0
230
1.0
 70
    24
 71
     2
 72
     6
 73
     3
 74
     0
 42
0.0000000001
 43
0.0000000001
 40
-0.5840744802830379
 40
-0.5840744802830379
 40
-0.5840744802830379
 40
0.0
 40
0.0
 40
0.0
 10
-250.0000019073488
 20
-0.800023841858686
 30
2.925873483703906
 10
-250.0000019073488
 20
-0.800023841858686
 30
91.93882427883885
 10
-250.0000019073488
 20
-0.800023841858686
 30
180.9517750739738
  0
SPLINE
  5
A9
330
1F
100
AcDbEntity
  8
FP$FP-1
100
AcDbSpline
210
0.0
220
0.0
230
1.0
 70
    24
 71
     2
 72
     6
 73
     3
 74
     0
 42
0.0000000001
 43
0.0000000001
 40
-0.0026247501373316
 40
-0.0026247501373316
 40
-0.0026247501373316
 40
0.0
 40
0.0
 40
0.0
 10
-250.0000019073488
 20
-0.800023841858686
 30
180.9517750739738
 10
-250.0000019073488
 20
-0.400011920929343
 30
180.9517750739738
 10
-250.0000019073488
 20
0.0
 30
180.9517750739738
  0
SPLINE
  5
AA
330
1F
100
AcDbEntity
  8
FP$FP-1
100
AcDbSpline
210
0.0
220
0.0
230
1.0
 70
    24
 71
     2
 72
     6
 73
     3
 74
     0
 42
0.0000000001
 43
0.0000000001
 40
-0.5840744802830379
 40
-0.5840744802830379
 40
-0.5840744802830379
 40
0.0
 40
0.0
 40
0.0
 10
-250.0000019073488
 20
0.0
 30
180.9517750739738
 10
-250.0000019073488
 20
0.0
 30
91.93882427883885
 10
-250.0000019073488
 20
0.0
 30
2.925873483703906
  0
SPLINE
  5
AB
330
1F
100
AcDbEntity
  8
FP$FP-1
100
AcDbSpline
210
0.0
220
0.0
230
1.0
 70
    24
 71
     2
 72
     6
 73
     3
 74
     0
 42
0.0000000001
 43
0.0000000001
 40
-0.0623359204590173
 40
-0.0623359204590173
 40
-0.0623359204590173
 40
0.0
 40
0.0
 40
0.0
 10
-250.0000019073488
 20
-0.800023841858686
 30
180.9517750739738
 10
-259.499996185303
 20
-0.800023841858686
 30
180.9517750739738
 10
-268.9999904632572
 20
-0.800023841858686
 30
180.9517750739738
  0
SPLINE
  5
AC
330
1F
100
AcDbEntity
  8
FP$FP-1
100
AcDbSpline
210
0.0
220
0.0
230
1.0
 70
    24
 71
     2
 72
     6
 73
     3
 74
     0
 42
0.0000000001
 43
0.0000000001
 40
-0.0623359204590173
 40
-0.0623359204590173
 40
-0.0623359204590173
 40
0.0
 40
0.0
 40
0.0
 10
-268.9999904632572
 20
0.0
 30
180.9517750739738
 10
-259.499996185303
 20
0.0
 30
180.9517750739738
 10
-250.0000019073488
 20
0.0
 30
180.9517750739738
  0
SPLINE
  5
AD
330
1F
100
AcDbEntity
  8
FP$FP-1
100
AcDbSpline
210
0.0
220
0.0
230
1.0
 70
    24
 71
     2
 72
     6
 73
     3
 74
     0
 42
0.0000000001
 43
0.0000000001
 40
0.0
 40
0.0
 40
0.0
 40
0.6995540847928958
 40
0.6995540847928958
 40
0.6995540847928958
 10
274.0000086307523
 20
-0.800023841858686
 30
185.9517750739781
 10
274.0000086307524
 20
-0.800023841858686
 30
292.5638175964154
 10
274.0000086307524
 20
-0.800023841858686
 30
399.1758601188527
  0
ARC
  5
AE
330
1F
100
AcDbEntity
  8
FP$FP-1
100
AcDbCircle
 10
269.0000086307523
 20
185.9517750739781
 30
0.4000119209293431
 40
5.0
210
0.0
220
-1.0
230
0.0
100
AcDbArc
 50
270.0
 51
0.0
  0
ARC
  5
AF
330
1F
100
AcDbEntity
  8
FP$FP-1
100
AcDbCircle
 10
-268.9999904632572
 20
185.9517750739738
 30
0.4000119209293431
 40
5.0
210
0.0
220
-1.0
230
0.0
100
AcDbArc
 50
180.0
 51
270.0
  0
ARC
  5
B0
330
1F
100
AcDbEntity
  8
FP$FP-1
100
AcDbCircle
 10
-180.0000050067903
 20
289.9517533778875
 30
-0.4000119209293431
 40
8.0
210
0.0
220
1.0
230
0.0
100
AcDbArc
 50
180.0
 51
0.0
  0
LINE
  5
B1
330
1F
100
AcDbEntity
  8
FP$FP-1
100
AcDbLine
 10
180.0000050067903
 20
-0.8000238418586861
 30
281.9517533778875
 11
180.0000050067903
 21
0.0
 31
281.9517533778875
  0
ARC
  5
B2
330
1F
100
AcDbEntity
  8
FP$FP-1
100
AcDbCircle
 10
-180.0000050067902
 20
289.9517533778875
 30
-0.4000119209293431
 40
8.0
210
0.0
220
1.0
230
0.0
100
AcDbArc
 50
0.0
 51
180.0
  0
LINE
  5
B3
330
1F
100
AcDbEntity
  8
FP$FP-1
100
AcDbLine
 10
180.0000050067902
 20
-0.8000238418586861
 30
297.9517533778875
 11
180.0000050067902
 21
0.0
 31
297.9517533778875
  0
ARC
  5
B4
330
1F
100
AcDbEntity
  8
FP$FP-1
100
AcDbCircle
 10
-212.9999983549119
 20
289.9517533778875
 30
-0.4000119209293431
 40
8.0
210
0.0
220
1.0
230
0.0
100
AcDbArc
 50
180.0
 51
0.0
  0
LINE
  5
B5
330
1F
100
AcDbEntity
  8
FP$FP-1
100
AcDbLine
 10
212.9999983549119
 20
-0.8000238418586861
 30
281.9517533778875
 11
212.9999983549119
 21
0.0
 31
281.9517533778875
  0
ARC
  5
B6
330
1F
100
AcDbEntity
  8
FP$FP-1
100
AcDbCircle
 10
-212.9999983549119
 20
289.9517533778875
 30
-0.4000119209293431
 40
8.0
210
0.0
220
1.0
230
0.0
100
AcDbArc
 50
0.0
 51
180.0
  0
LINE
  5
B7
330
1F
100
AcDbEntity
  8
FP$FP-1
100
AcDbLine
 10
212.9999983549119
 20
-0.8000238418586861
 30
297.9517533778875
 11
212.9999983549119
 21
0.0
 31
297.9517533778875
  0
ARC
  5
B8
330
1F
100
AcDbEntity
  8
FP$FP-1
100
AcDbCircle
 10
-196.4999971389772
 20
322.9517558097569
 30
-0.4000119209293431
 40
8.0
210
0.0
220
1.0
230
0.0
100
AcDbArc
 50
180.0
 51
0.0
  0
LINE
  5
B9
330
1F
100
AcDbEntity
  8
FP$FP-1
100
AcDbLine
 10
196.4999971389772
 20
-0.8000238418586861
 30
314.9517558097569
 11
196.4999971389772
 21
0.0
 31
314.9517558097569
  0
ARC
  5
BA
330
1F
100
AcDbEntity
  8
FP$FP-1
100
AcDbCircle
 10
-196.4999971389771
 20
322.9517558097569
 30
-0.4000119209293431
 40
8.0
210
0.0
220
1.0
230
0.0
100
AcDbArc
 50
0.0
 51
180.0
  0
LINE
  5
BB
330
1F
100
AcDbEntity
  8
FP$FP-1
100
AcDbLine
 10
196.4999971389771
 20
-0.8000238418586861
 30
330.9517558097569
 11
196.4999971389771
 21
0.0
 31
330.9517558097569
  0
ARC
  5
BC
330
1F
100
AcDbEntity
  8
FP$FP-1
100
AcDbCircle
 10
-263.9999904632572
 20
399.1758601188527
 30
0.4000119209293431
 40
10.0
210
0.0
220
-1.0
230
0.0
100
AcDbArc
 50
90.0
 51
180.0
  0
ARC
  5
BD
330
1F
100
AcDbEntity
  8
FP$FP-1
100
AcDbCircle
 10
264.0000086307525
 20
399.1758601188528
 30
0.4000119209293431
 40
10.0
210
0.0
220
-1.0
230
0.0
100
AcDbArc
 50
0.0
 51
90.0
  0
ARC
  5
BE
330
1F
100
AcDbEntity
  8
FP$FP-1
100
AcDbCircle
 10
262.500002002716
 20
272.951755428283
 30
-0.4000119209293431
 40
2.000005102157559
210
0.0
220
1.0
230
0.0
100
AcDbArc
 50
180.0
 51
0.0
  0
LINE
  5
BF
330
1F
100
AcDbEntity
  8
FP$FP-1
100
AcDbLine
 10
-262.500002002716
 20
-0.8000238418586861
 30
270.9517503261254
 11
-262.500002002716
 21
0.0
 31
270.9517503261254
  0
ARC
  5
C0
330
1F
100
AcDbEntity
  8
FP$FP-1
100
AcDbCircle
 10
262.500002002716
 20
272.951755428283
 30
-0.4000119209293431
 40
2.000005102157559
210
0.0
220
1.0
230
0.0
100
AcDbArc
 50
0.0
 51
180.0
  0
LINE
  5
C1
330
1F
100
AcDbEntity
  8
FP$FP-1
100
AcDbLine
 10
-262.500002002716
 20
-0.8000238418586861
 30
274.9517605304405
 11
-262.500002002716
 21
0.0
 31
274.9517605304405
  0
ARC
  5
C2
330
1F
100
AcDbEntity
  8
FP$FP-1
100
AcDbCircle
 10
262.500002002716
 20
368.4518128395018
 30
-0.4000119209293431
 40
1.94066316748075
210
0.0
220
1.0
230
0.0
100
AcDbArc
 50
180.0
 51
0.0
  0
LINE
  5
C3
330
1F
100
AcDbEntity
  8
FP$FP-1
100
AcDbLine
 10
-262.500002002716
 20
-0.8000238418586861
 30
366.511149672021
 11
-262.500002002716
 21
0.0
 31
366.511149672021
  0
ARC
  5
C4
330
1F
100
AcDbEntity
  8
FP$FP-1
100
AcDbCircle
 10
262.5000020027161
 20
368.4518128395017
 30
-0.4000119209293431
 40
1.94066316748075
210
0.0
220
1.0
230
0.0
100
AcDbArc
 50
0.0
 51
180.0
  0
LINE
  5
C5
330
1F
100
AcDbEntity
  8
FP$FP-1
100
AcDbLine
 10
-262.5000020027161
 20
-0.8000238418586861
 30
370.3924760069825
 11
-262.5000020027161
 21
0.0
 31
370.3924760069825
  0
ARC
  5
C6
330
1F
100
AcDbEntity
  8
FP$FP-1
100
AcDbCircle
 10
-262.5000020027162
 20
272.9517554282872
 30
-0.4000119209293431
 40
2.000005102157559
210
0.0
220
1.0
230
0.0
100
AcDbArc
 50
180.0
 51
0.0
  0
LINE
  5
C7
330
1F
100
AcDbEntity
  8
FP$FP-1
100
AcDbLine
 10
262.5000020027162
 20
-0.8000238418586861
 30
270.9517503261297
 11
262.5000020027162
 21
0.0
 31
270.9517503261297
  0
ARC
  5
C8
330
1F
100
AcDbEntity
  8
FP$FP-1
100
AcDbCircle
 10
-262.5000020027161
 20
272.9517554282873
 30
-0.4000119209293431
 40
2.000005102157559
210
0.0
220
1.0
230
0.0
100
AcDbArc
 50
0.0
 51
180.0
  0
LINE
  5
C9
330
1F
100
AcDbEntity
  8
FP$FP-1
100
AcDbLine
 10
262.5000020027161
 20
-0.8000238418586861
 30
274.9517605304449
 11
262.5000020027161
 21
0.0
 31
274.9517605304449
  0
ARC
  5
CA
330
1F
100
AcDbEntity
  8
FP$FP-1
100
AcDbCircle
 10
-262.5000020027162
 20
368.4518128395018
 30
-0.4000119209293431
 40
1.94066316748075
210
0.0
220
1.0
230
0.0
100
AcDbArc
 50
180.0
 51
0.0
  0
LINE
  5
CB
330
1F
100
AcDbEntity
  8
FP$FP-1
100
AcDbLine
 10
262.5000020027162
 20
-0.8000238418586861
 30
366.5111496720211
 11
262.5000020027162
 21
0.0
 31
366.5111496720211
  0
ARC
  5
CC
330
1F
100
AcDbEntity
  8
FP$FP-1
100
AcDbCircle
 10
-262.5000020027161
 20
368.4518128395019
 30
-0.4000119209293431
 40
1.94066316748075
210
0.0
220
1.0
230
0.0
100
AcDbArc
 50
0.0
 51
180.0
  0
LINE
  5
CD
330
1F
100
AcDbEntity
  8
FP$FP-1
100
AcDbLine
 10
262.5000020027161
 20
-0.8000238418586861
 30
370.3924760069826
 11
262.5000020027161
 21
0.0
 31
370.3924760069826
  0
LINE
  5
CE
330
1F
100
AcDbEntity
  8
FP$FP-1
100
AcDbLine
 10
259.5000052690506
 20
-0.8000238418586861
 30
180.9517750739781
 11
259.5000052690506
 21
0.0
 31
180.9517750739781
  0
LINE
  5
CF
330
1F
100
AcDbEntity
  8
FP$FP-1
100
AcDbLine
 10
250.0000019073487
 20
-0.4000119209293431
 30
180.9517750739781
 11
269.0000086307524
 21
-0.4000119209293431
 31
180.9517750739781
  0
LINE
  5
D0
330
1F
100
AcDbEntity
  8
FP$FP-1
100
AcDbLine
 10
-273.9999904632572
 20
-0.8000238418586861
 30
292.5638175964133
 11
-273.9999904632572
 21
0.0
 31
292.5638175964133
  0
LINE
  5
D1
330
1F
100
AcDbEntity
  8
FP$FP-1
100
AcDbLine
 10
-273.9999904632572
 20
-0.4000119209293431
 30
399.1758601188528
 11
-273.9999904632573
 21
-0.4000119209293431
 31
185.9517750739738
  0
LINE
  5
D2
330
1F
100
AcDbEntity
  8
FP$FP-1
100
AcDbLine
 10
0.0000090837476137
 20
-0.8000238418586861
 30
409.1758601188527
 11
0.0000090837476137
 21
0.0
 31
409.1758601188527
  0
LINE
  5
D3
330
1F
100
AcDbEntity
  8
FP$FP-1
100
AcDbLine
 10
264.0000086307525
 20
-0.4000119209293431
 30
409.1758601188528
 11
-263.9999904632573
 21
-0.4000119209293431
 31
409.1758601188527
  0
LINE
  5
D4
330
1F
100
AcDbEntity
  8
FP$FP-1
100
AcDbLine
 10
274.0000086307524
 20
-0.8000238418586861
 30
292.5638175964154
 11
274.0000086307524
 21
0.0
 31
292.5638175964154
  0
LINE
  5
D5
330
1F
100
AcDbEntity
  8
FP$FP-1
100
AcDbLine
 10
274.0000086307523
 20
-0.4000119209293431
 30
185.9517750739781
 11
274.0000086307524
 21
-0.4000119209293431
 31
399.1758601188528
  0
LINE
  5
D6
330
1F
100
AcDbEntity
  8
FP$FP-1
100
AcDbLine
 10
250.0000019073487
 20
-0.8000238418586861
 30
91.93882427884101
 11
250.0000019073487
 21
0.0
 31
91.93882427884101
  0
LINE
  5
D7
330
1F
100
AcDbEntity
  8
FP$FP-1
100
AcDbLine
 10
250.0000019073487
 20
-0.4000119209293431
 30
2.925873483703906
 11
250.0000019073487
 21
-0.4000119209293431
 31
180.9517750739781
  0
LINE
  5
D8
330
1F
100
AcDbEntity
  8
FP$FP-1
100
AcDbLine
 10
-0.0000000000000284
 20
-0.8000238418586861
 30
2.925873483703906
 11
-0.0000000000000284
 21
0.0
 31
2.925873483703906
  0
LINE
  5
D9
330
1F
100
AcDbEntity
  8
FP$FP-1
100
AcDbLine
 10
-250.0000019073488
 20
-0.4000119209293431
 30
2.925873483703906
 11
250.0000019073487
 21
-0.4000119209293431
 31
2.925873483703906
  0
LINE
  5
DA
330
1F
100
AcDbEntity
  8
FP$FP-1
100
AcDbLine
 10
-250.0000019073488
 20
-0.8000238418586861
 30
91.93882427883887
 11
-250.0000019073488
 21
0.0
 31
91.93882427883887
  0
LINE
  5
DB
330
1F
100
AcDbEntity
  8
FP$FP-1
100
AcDbLine
 10
-250.0000019073488
 20
-0.4000119209293431
 30
180.9517750739738
 11
-250.0000019073488
 21
-0.4000119209293431
 31
2.925873483703887
  0
LINE
  5
DC
330
1F
100
AcDbEntity
  8
FP$FP-1
100
AcDbLine
 10
-259.499996185303
 20
-0.8000238418586861
 30
180.9517750739738
 11
-259.499996185303
 21
0.0
 31
180.9517750739738
  0
LINE
  5
DD
330
1F
100
AcDbEntity
  8
FP$FP-1
100
AcDbLine
 10
-268.9999904632572
 20
-0.4000119209293431
 30
180.9517750739738
 11
-250.0000019073488
 21
-0.4000119209293431
 31
180.9517750739738
  0
LINE
  5
DE
330
1F
100
AcDbEntity
  8
FP$FP-1
100
AcDbLine
 10
0.0000090837476705
 20
0.0
 30
409.1758601188528
 11
0.0000090837476705
 21
0.0
 31
2.92587348370389
  0
LINE
  5
DF
330
1F
100
AcDbEntity
  8
FP$FP-1
100
AcDbLine
 10
274.0000086307523
 20
0.0
 30
206.0508668012783
 11
-273.9999904632572
 21
0.0
 31
206.0508668012783
  0
LINE
  5
E0
330
1F
100
AcDbEntity
  8
FP$FP-1
100
AcDbLine
 10
0.0000090837475568
 20
-0.8000238418586861
 30
2.925873483703896
 11
0.0000090837475568
 21
-0.8000238418586861
 31
409.1758601188528
  0
LINE
  5
E1
330
1F
100
AcDbEntity
  8
FP$FP-1
100
AcDbLine
 10
274.0000086307523
 20
-0.8000238418586861
 30
206.0508668012783
 11
-273.9999904632572
 21
-0.8000238418586861
 31
206.0508668012783
  0
SPLINE
  5
E3
330
1F
100
AcDbEntity
  8
FP$FP-2
100
AcDbSpline
210
0.0
220
0.0
230
1.0
 70
    24
 71
     2
 72
     6
 73
     3
 74
     0
 42
0.0000000001
 43
0.0000000001
 40
-1.481433504209763
 40
-1.481433504209763
 40
-1.481433504209763
 40
0.0
 40
0.0
 40
0.0
 10
-297.4999913692474
 20
0.0
 30
0.9999999999957119
 10
-297.4999913692474
 20
0.0
 30
226.7704660415636
 10
-297.4999913692474
 20
0.0
 30
452.5409320831315
  0
SPLINE
  5
E4
330
1F
100
AcDbEntity
  8
FP$FP-2
100
AcDbSpline
210
0.0
220
0.0
230
1.0
 70
    24
 71
     2
 72
     6
 73
     3
 74
     0
 42
0.0000000001
 43
0.0000000001
 40
-0.041010499000548
 40
-0.041010499000548
 40
-0.041010499000548
 40
0.0
 40
0.0
 40
0.0
 10
-297.4999913692474
 20
0.0
 30
452.5409320831315
 10
-297.4999913692474
 20
6.250000047683514
 30
452.5409320831315
 10
-297.4999913692474
 20
12.50000009536703
 30
452.5409320831315
  0
SPLINE
  5
E5
330
1F
100
AcDbEntity
  8
FP$FP-2
100
AcDbSpline
210
0.0
220
0.0
230
1.0
 70
    24
 71
     2
 72
     6
 73
     3
 74
     0
 42
0.0000000001
 43
0.0000000001
 40
-1.481433504209763
 40
-1.481433504209763
 40
-1.481433504209763
 40
0.0
 40
0.0
 40
0.0
 10
-297.4999913692474
 20
12.50000009536703
 30
452.5409320831315
 10
-297.4999913692474
 20
12.50000009536703
 30
226.7704660415636
 10
-297.4999913692474
 20
12.50000009536703
 30
0.9999999999957119
  0
SPLINE
  5
E6
330
1F
100
AcDbEntity
  8
FP$FP-2
100
AcDbSpline
210
0.0
220
0.0
230
1.0
 70
    24
 71
     2
 72
     6
 73
     3
 74
     0
 42
0.0000000001
 43
0.0000000001
 40
-0.041010499000548
 40
-0.041010499000548
 40
-0.041010499000548
 40
0.0
 40
0.0
 40
0.0
 10
-297.4999913692474
 20
12.50000009536703
 30
0.9999999999957119
 10
-297.4999913692474
 20
6.250000047683514
 30
0.9999999999957119
 10
-297.4999913692474
 20
0.0
 30
0.9999999999957119
  0
SPLINE
  5
E7
330
1F
100
AcDbEntity
  8
FP$FP-2
100
AcDbSpline
210
0.0
220
0.0
230
1.0
 70
    24
 71
     2
 72
     6
 73
     3
 74
     0
 42
0.0000000001
 43
0.0000000001
 40
-1.952099680900573
 40
-1.952099680900573
 40
-1.952099680900573
 40
0.0
 40
0.0
 40
0.0
 10
-297.4999913692474
 20
0.0
 30
452.5409320831315
 10
-0.0000000000000284
 20
0.0
 30
452.5409320831315
 10
297.4999913692473
 20
0.0
 30
452.5409320831315
  0
SPLINE
  5
E8
330
1F
100
AcDbEntity
  8
FP$FP-2
100
AcDbSpline
210
0.0
220
0.0
230
1.0
 70
    24
 71
     2
 72
     6
 73
     3
 74
     0
 42
0.0000000001
 43
0.0000000001
 40
-0.041010499000548
 40
-0.041010499000548
 40
-0.041010499000548
 40
0.0
 40
0.0
 40
0.0
 10
297.4999913692473
 20
0.0
 30
452.5409320831315
 10
297.4999913692473
 20
6.250000047683514
 30
452.5409320831315
 10
297.4999913692473
 20
12.50000009536703
 30
452.5409320831315
  0
SPLINE
  5
E9
330
1F
100
AcDbEntity
  8
FP$FP-2
100
AcDbSpline
210
0.0
220
0.0
230
1.0
 70
    24
 71
     2
 72
     6
 73
     3
 74
     0
 42
0.0000000001
 43
0.0000000001
 40
-1.952099680900573
 40
-1.952099680900573
 40
-1.952099680900573
 40
0.0
 40
0.0
 40
0.0
 10
297.4999913692473
 20
12.50000009536703
 30
452.5409320831315
 10
-0.0000000000000284
 20
12.50000009536703
 30
452.5409320831315
 10
-297.4999913692474
 20
12.50000009536703
 30
452.5409320831315
  0
SPLINE
  5
EA
330
1F
100
AcDbEntity
  8
FP$FP-2
100
AcDbSpline
210
0.0
220
0.0
230
1.0
 70
    24
 71
     2
 72
     6
 73
     3
 74
     0
 42
0.0000000001
 43
0.0000000001
 40
-1.481433504209763
 40
-1.481433504209763
 40
-1.481433504209763
 40
0.0
 40
0.0
 40
0.0
 10
297.4999913692473
 20
0.0
 30
452.5409320831315
 10
297.4999913692473
 20
0.0
 30
226.7704660415636
 10
297.4999913692473
 20
0.0
 30
0.9999999999957119
  0
SPLINE
  5
EB
330
1F
100
AcDbEntity
  8
FP$FP-2
100
AcDbSpline
210
0.0
220
0.0
230
1.0
 70
    24
 71
     2
 72
     6
 73
     3
 74
     0
 42
0.0000000001
 43
0.0000000001
 40
-0.041010499000548
 40
-0.041010499000548
 40
-0.041010499000548
 40
0.0
 40
0.0
 40
0.0
 10
297.4999913692473
 20
0.0
 30
0.9999999999957119
 10
297.4999913692473
 20
6.250000047683514
 30
0.9999999999957119
 10
297.4999913692473
 20
12.50000009536703
 30
0.9999999999957119
  0
SPLINE
  5
EC
330
1F
100
AcDbEntity
  8
FP$FP-2
100
AcDbSpline
210
0.0
220
0.0
230
1.0
 70
    24
 71
     2
 72
     6
 73
     3
 74
     0
 42
0.0000000001
 43
0.0000000001
 40
-1.481433504209763
 40
-1.481433504209763
 40
-1.481433504209763
 40
0.0
 40
0.0
 40
0.0
 10
297.4999913692473
 20
12.50000009536703
 30
0.9999999999957119
 10
297.4999913692473
 20
12.50000009536703
 30
226.7704660415636
 10
297.4999913692473
 20
12.50000009536703
 30
452.5409320831315
  0
SPLINE
  5
ED
330
1F
100
AcDbEntity
  8
FP$FP-2
100
AcDbSpline
210
0.0
220
0.0
230
1.0
 70
    24
 71
     2
 72
     6
 73
     3
 74
     0
 42
0.0000000001
 43
0.0000000001
 40
-0.0442913174629208
 40
-0.0442913174629208
 40
-0.0442913174629208
 40
0.0
 40
0.0
 40
0.0
 10
297.4999913692473
 20
0.0
 30
0.9999999999957119
 10
290.7499945878982
 20
0.0
 30
0.9999999999957119
 10
283.999997806549
 20
0.0
 30
0.9999999999957119
  0
SPLINE
  5
EE
330
1F
100
AcDbEntity
  8
FP$FP-2
100
AcDbSpline
210
0.0
220
0.0
230
1.0
 70
    24
 71
     2
 72
     6
 73
     3
 74
     0
 42
0.0000000001
 43
0.0000000001
 40
-0.041010499000548
 40
-0.041010499000548
 40
-0.041010499000548
 40
0.0
 40
0.0
 40
0.0
 10
283.999997806549
 20
0.0
 30
0.9999999999957119
 10
283.999997806549
 20
6.250000047683514
 30
0.9999999999957119
 10
283.999997806549
 20
12.50000009536703
 30
0.9999999999957119
  0
SPLINE
  5
EF
330
1F
100
AcDbEntity
  8
FP$FP-2
100
AcDbSpline
210
0.0
220
0.0
230
1.0
 70
    24
 71
     2
 72
     6
 73
     3
 74
     0
 42
0.0000000001
 43
0.0000000001
 40
-0.0442913174629208
 40
-0.0442913174629208
 40
-0.0442913174629208
 40
0.0
 40
0.0
 40
0.0
 10
283.999997806549
 20
12.50000009536703
 30
0.9999999999957119
 10
290.7499945878982
 20
12.50000009536703
 30
0.9999999999957119
 10
297.4999913692473
 20
12.50000009536703
 30
0.9999999999957119
  0
SPLINE
  5
F0
330
1F
100
AcDbEntity
  8
FP$FP-2
100
AcDbSpline
210
0.0
220
0.0
230
1.0
 70
    24
 71
     2
 72
     6
 73
     3
 74
     0
 42
0.0000000001
 43
0.0000000001
 40
-1.453412191135635
 40
-1.453412191135635
 40
-1.453412191135635
 40
0.0
 40
0.0
 40
0.0
 10
283.999997806549
 20
0.0
 30
0.9999999999957119
 10
283.999997806549
 20
0.0
 30
222.5000179290666
 10
283.999997806549
 20
0.0
 30
444.0000358581374
  0
SPLINE
  5
F1
330
1F
100
AcDbEntity
  8
FP$FP-2
100
AcDbSpline
210
0.0
220
0.0
230
1.0
 70
    24
 71
     2
 72
     6
 73
     3
 74
     0
 42
0.0000000001
 43
0.0000000001
 40
-0.041010499000548
 40
-0.041010499000548
 40
-0.041010499000548
 40
0.0
 40
0.0
 40
0.0
 10
283.999997806549
 20
0.0
 30
444.0000358581374
 10
283.999997806549
 20
6.250000047683514
 30
444.0000358581374
 10
283.999997806549
 20
12.50000009536703
 30
444.0000358581374
  0
SPLINE
  5
F2
330
1F
100
AcDbEntity
  8
FP$FP-2
100
AcDbSpline
210
0.0
220
0.0
230
1.0
 70
    24
 71
     2
 72
     6
 73
     3
 74
     0
 42
0.0000000001
 43
0.0000000001
 40
-1.453412191135635
 40
-1.453412191135635
 40
-1.453412191135635
 40
0.0
 40
0.0
 40
0.0
 10
283.999997806549
 20
12.50000009536703
 30
444.0000358581374
 10
283.999997806549
 20
12.50000009536703
 30
222.5000179290666
 10
283.999997806549
 20
12.50000009536703
 30
0.9999999999957119
  0
SPLINE
  5
F3
330
1F
100
AcDbEntity
  8
FP$FP-2
100
AcDbSpline
210
0.0
220
0.0
230
1.0
 70
    24
 71
     2
 72
     6
 73
     3
 74
     0
 42
0.0000000001
 43
0.0000000001
 40
-1.863514602184296
 40
-1.863514602184296
 40
-1.863514602184296
 40
0.0
 40
0.0
 40
0.0
 10
283.999997806549
 20
0.0
 30
444.0000358581374
 10
0.0003724336623918
 20
0.0
 30
444.0000358581374
 10
-283.9992529392242
 20
0.0
 30
444.0000358581374
  0
SPLINE
  5
F4
330
1F
100
AcDbEntity
  8
FP$FP-2
100
AcDbSpline
210
0.0
220
0.0
230
1.0
 70
    24
 71
     2
 72
     6
 73
     3
 74
     0
 42
0.0000000001
 43
0.0000000001
 40
-0.041010499000548
 40
-0.041010499000548
 40
-0.041010499000548
 40
0.0
 40
0.0
 40
0.0
 10
-283.9992529392242
 20
0.0
 30
444.0000358581374
 10
-283.9992529392242
 20
6.250000047683514
 30
444.0000358581374
 10
-283.9992529392242
 20
12.50000009536703
 30
444.0000358581374
  0
SPLINE
  5
F5
330
1F
100
AcDbEntity
  8
FP$FP-2
100
AcDbSpline
210
0.0
220
0.0
230
1.0
 70
    24
 71
     2
 72
     6
 73
     3
 74
     0
 42
0.0000000001
 43
0.0000000001
 40
-1.863514602184296
 40
-1.863514602184296
 40
-1.863514602184296
 40
0.0
 40
0.0
 40
0.0
 10
-283.9992529392242
 20
12.50000009536703
 30
444.0000358581374
 10
0.0003724336623918
 20
12.50000009536703
 30
444.0000358581374
 10
283.999997806549
 20
12.50000009536703
 30
444.0000358581374
  0
SPLINE
  5
F6
330
1F
100
AcDbEntity
  8
FP$FP-2
100
AcDbSpline
210
0.0
220
0.0
230
1.0
 70
    24
 71
     2
 72
     6
 73
     3
 74
     0
 42
0.0000000001
 43
0.0000000001
 40
-1.453412191135635
 40
-1.453412191135635
 40
-1.453412191135635
 40
0.0
 40
0.0
 40
0.0
 10
-283.9992529392242
 20
0.0
 30
444.0000358581374
 10
-283.9992529392242
 20
0.0
 30
222.5000179290666
 10
-283.9992529392242
 20
0.0
 30
0.9999999999957119
  0
SPLINE
  5
F7
330
1F
100
AcDbEntity
  8
FP$FP-2
100
AcDbSpline
210
0.0
220
0.0
230
1.0
 70
    24
 71
     2
 72
     6
 73
     3
 74
     0
 42
0.0000000001
 43
0.0000000001
 40
-0.041010499000548
 40
-0.041010499000548
 40
-0.041010499000548
 40
0.0
 40
0.0
 40
0.0
 10
-283.9992529392242
 20
0.0
 30
0.9999999999957119
 10
-283.9992529392242
 20
6.250000047683514
 30
0.9999999999957119
 10
-283.9992529392242
 20
12.50000009536703
 30
0.9999999999957119
  0
SPLINE
  5
F8
330
1F
100
AcDbEntity
  8
FP$FP-2
100
AcDbSpline
210
0.0
220
0.0
230
1.0
 70
    24
 71
     2
 72
     6
 73
     3
 74
     0
 42
0.0000000001
 43
0.0000000001
 40
-1.453412191135635
 40
-1.453412191135635
 40
-1.453412191135635
 40
0.0
 40
0.0
 40
0.0
 10
-283.9992529392242
 20
12.50000009536703
 30
0.9999999999957119
 10
-283.9992529392242
 20
12.50000009536703
 30
222.5000179290666
 10
-283.9992529392242
 20
12.50000009536703
 30
444.0000358581374
  0
SPLINE
  5
F9
330
1F
100
AcDbEntity
  8
FP$FP-2
100
AcDbSpline
210
0.0
220
0.0
230
1.0
 70
    24
 71
     2
 72
     6
 73
     3
 74
     0
 42
0.0000000001
 43
0.0000000001
 40
-0.0442937612533568
 40
-0.0442937612533568
 40
-0.0442937612533568
 40
0.0
 40
0.0
 40
0.0
 10
-283.9992529392242
 20
0.0
 30
0.9999999999957119
 10
-290.7496221542358
 20
0.0
 30
0.9999999999957119
 10
-297.4999913692474
 20
0.0
 30
0.9999999999957119
  0
SPLINE
  5
FA
330
1F
100
AcDbEntity
  8
FP$FP-2
100
AcDbSpline
210
0.0
220
0.0
230
1.0
 70
    24
 71
     2
 72
     6
 73
     3
 74
     0
 42
0.0000000001
 43
0.0000000001
 40
-0.0442937612533568
 40
-0.0442937612533568
 40
-0.0442937612533568
 40
0.0
 40
0.0
 40
0.0
 10
-297.4999913692474
 20
12.50000009536703
 30
0.9999999999957119
 10
-290.7496221542358
 20
12.50000009536703
 30
0.9999999999957119
 10
-283.9992529392242
 20
12.50000009536703
 30
0.9999999999957119
  0
LINE
  5
FB
330
1F
100
AcDbEntity
  8
FP$FP-2
100
AcDbLine
 10
-297.4999913692474
 20
0.0
 30
226.7704660415636
 11
-297.4999913692474
 21
12.50000009536703
 31
226.7704660415636
  0
LINE
  5
FC
330
1F
100
AcDbEntity
  8
FP$FP-2
100
AcDbLine
 10
-297.4999913692474
 20
6.250000047683514
 30
452.5409320831315
 11
-297.4999913692474
 21
6.250000047683514
 31
0.9999999999957437
  0
LINE
  5
FD
330
1F
100
AcDbEntity
  8
FP$FP-2
100
AcDbLine
 10
-0.0000000000000568
 20
0.0
 30
452.5409320831315
 11
-0.0000000000000568
 21
12.50000009536703
 31
452.5409320831315
  0
LINE
  5
FE
330
1F
100
AcDbEntity
  8
FP$FP-2
100
AcDbLine
 10
297.4999913692473
 20
6.250000047683514
 30
452.5409320831315
 11
-297.4999913692474
 21
6.250000047683514
 31
452.5409320831315
  0
LINE
  5
FF
330
1F
100
AcDbEntity
  8
FP$FP-2
100
AcDbLine
 10
297.4999913692473
 20
0.0
 30
226.7704660415636
 11
297.4999913692473
 21
12.50000009536703
 31
226.7704660415636
  0
LINE
  5
100
330
1F
100
AcDbEntity
  8
FP$FP-2
100
AcDbLine
 10
297.4999913692473
 20
6.250000047683514
 30
0.9999999999957119
 11
297.4999913692473
 21
6.250000047683514
 31
452.5409320831315
  0
LINE
  5
101
330
1F
100
AcDbEntity
  8
FP$FP-2
100
AcDbLine
 10
290.7499945878982
 20
0.0
 30
0.9999999999957119
 11
290.7499945878982
 21
12.50000009536703
 31
0.9999999999957119
  0
LINE
  5
102
330
1F
100
AcDbEntity
  8
FP$FP-2
100
AcDbLine
 10
283.9999978065491
 20
6.250000047683514
 30
0.9999999999957119
 11
297.4999913692473
 21
6.250000047683514
 31
0.9999999999957119
  0
LINE
  5
103
330
1F
100
AcDbEntity
  8
FP$FP-2
100
AcDbLine
 10
283.9999978065491
 20
0.0
 30
222.5000179290666
 11
283.9999978065491
 21
12.50000009536703
 31
222.5000179290666
  0
LINE
  5
104
330
1F
100
AcDbEntity
  8
FP$FP-2
100
AcDbLine
 10
283.9999978065491
 20
6.250000047683514
 30
444.0000358581374
 11
283.9999978065491
 21
6.250000047683514
 31
0.9999999999957411
  0
LINE
  5
105
330
1F
100
AcDbEntity
  8
FP$FP-2
100
AcDbLine
 10
0.0003724336623918
 20
0.0
 30
444.0000358581374
 11
0.0003724336623918
 21
12.50000009536703
 31
444.0000358581374
  0
LINE
  5
106
330
1F
100
AcDbEntity
  8
FP$FP-2
100
AcDbLine
 10
-283.9992529392243
 20
6.250000047683514
 30
444.0000358581374
 11
283.9999978065491
 21
6.250000047683514
 31
444.0000358581374
  0
LINE
  5
107
330
1F
100
AcDbEntity
  8
FP$FP-2
100
AcDbLine
 10
-283.9992529392243
 20
0.0
 30
222.5000179290666
 11
-283.9992529392243
 21
12.50000009536703
 31
222.5000179290666
  0
LINE
  5
108
330
1F
100
AcDbEntity
  8
FP$FP-2
100
AcDbLine
 10
-283.9992529392243
 20
6.250000047683514
 30
0.9999999999957119
 11
-283.9992529392243
 21
6.250000047683514
 31
444.0000358581374
  0
LINE
  5
109
330
1F
100
AcDbEntity
  8
FP$FP-2
100
AcDbLine
 10
-290.7496221542359
 20
0.0
 30
0.9999999999957119
 11
-290.7496221542359
 21
12.50000009536703
 31
0.9999999999957119
  0
LINE
  5
10A
330
1F
100
AcDbEntity
  8
FP$FP-2
100
AcDbLine
 10
-297.4999913692474
 20
6.250000047683514
 30
0.9999999999957119
 11
-283.9992529392243
 21
6.250000047683514
 31
0.9999999999957119
  0
LINE
  5
10B
330
1F
100
AcDbEntity
  8
FP$FP-2
100
AcDbLine
 10
297.4999913692473
 20
12.50000009536703
 30
226.7704660415636
 11
283.9999978065491
 21
12.50000009536703
 31
226.7704660415636
  0
LINE
  5
10C
330
1F
100
AcDbEntity
  8
FP$FP-2
100
AcDbLine
 10
-283.9992529392243
 20
12.50000009536703
 30
226.7704660415636
 11
-297.4999913692475
 21
12.50000009536703
 31
226.7704660415636
  0
LINE
  5
10D
330
1F
100
AcDbEntity
  8
FP$FP-2
100
AcDbLine
 10
-0.0000000000000568
 20
12.50000009536703
 30
444.0000358581374
 11
-0.0000000000000568
 21
12.50000009536703
 31
452.5409320831315
  0
LINE
  5
10E
330
1F
100
AcDbEntity
  8
FP$FP-2
100
AcDbLine
 10
-297.4999913692474
 20
0.0
 30
226.7704660415636
 11
-283.9992529392243
 21
0.0
 31
226.7704660415636
  0
LINE
  5
10F
330
1F
100
AcDbEntity
  8
FP$FP-2
100
AcDbLine
 10
283.9999978065491
 20
0.0
 30
226.7704660415636
 11
297.4999913692473
 21
0.0
 31
226.7704660415636
  0
LINE
  5
110
330
1F
100
AcDbEntity
  8
FP$FP-2
100
AcDbLine
 10
-0.0000000000000568
 20
0.0
 30
444.0000358581374
 11
-0.0000000000000568
 21
0.0
 31
452.5409320831315
  0
ARC
  5
111
330
1F
100
AcDbEntity
  8
FP$FP-1
100
AcDbCircle
 10
-537.9380587577888
 20
11.13158761260354
 30
154.5000035405247
 40
9.0
210
-1.0
220
0.0
230
0.0
100
AcDbArc
 50
180.0000000000052
 51
0.0
  0
LINE
  5
112
330
1F
100
AcDbEntity
  8
FP$FP-1
100
AcDbLine
 10
-154.5000035405247
 20
528.9380587577888
 30
11.1315876126027
 11
-349.4999989986497
 21
528.9380587577887
 31
11.13158761260355
  0
ARC
  5
113
330
1F
100
AcDbEntity
  8
FP$FP-1
100
AcDbCircle
 10
537.9380587577887
 20
11.13158761260354
 30
-349.4999989986497
 40
9.000000000000114
210
1.0
220
0.0
230
0.0
100
AcDbArc
 50
179.9999999999999
 51
0.0000000000000113
  0
LINE
  5
114
330
1F
100
AcDbEntity
  8
FP$FP-1
100
AcDbLine
 10
-349.4999989986497
 20
546.9380587577887
 30
11.13158761260354
 11
-154.5000035405247
 21
546.9380587577888
 31
11.13158761260271
  0
ARC
  5
115
330
1F
100
AcDbEntity
  8
FP$FP-1
100
AcDbCircle
 10
537.9380587577887
 20
11.13158761260354
 30
-349.4999989986497
 40
8.999999999999886
210
1.0
220
0.0
230
0.0
100
AcDbArc
 50
0.0000000000000339
 51
180.0
  0
SPLINE
  5
116
330
1F
100
AcDbEntity
  8
FP$FP-1
100
AcDbSpline
 70
     0
 71
     3
 72
    22
 73
    18
 74
     0
 42
0.0000000001
 43
0.0000000001
 40
-1.0
 40
-1.0
 40
-1.0
 40
-1.0
 40
-0.8749656106150053
 40
-0.8749656106150053
 40
-0.7499682433291802
 40
-0.7499682433291802
 40
-0.6249857638775846
 40
-0.6249857638775846
 40
-0.5000000000000011
 40
-0.5000000000000011
 40
-0.3750142744437236
 40
-0.3750142744437236
 40
-0.2500327583113611
 40
-0.2500327583113611
 40
-0.1250402046173339
 40
-0.1250402046173339
 40
0.0
 40
0.0
 40
0.0
 40
0.0
 10
-154.5000035405247
 20
546.9380587577888
 30
11.13158761260271
 10
-153.1922982819847
 20
546.9380587577888
 30
11.25429786348205
 10
-151.9074446537046
 20
546.9361996440691
 30
11.44342928722667
 10
-149.3739623939283
 20
546.9352008049129
 30
11.99155598620497
 10
-148.1264737220859
 20
546.9356789774546
 30
12.3506594384203
 10
-145.7035104264504
 20
546.9369736734386
 30
13.2827162881326
 10
-144.5280759939799
 20
546.9376157742579
 30
13.85678998138788
 10
-142.3172297492606
 20
546.9381001086
 30
15.24670827396417
 10
-141.2837942913335
 20
546.9380587577888
 30
16.06352517486588
 10
-139.4319403257184
 20
546.9380587577889
 30
17.91537914048101
 10
-138.6151236404195
 20
546.9381001085701
 30
18.94881424806325
 10
-137.2252107706772
 20
546.9376157765257
 30
21.15965154651134
 10
-136.6511404771962
 20
546.9369736857136
 30
22.33507636483674
 10
-135.719101746881
 20
546.9356790162471
 30
24.75798247924582
 10
-135.360006493749
 20
546.9352008315934
 30
26.00542132915098
 10
-134.8118617007726
 20
546.9361995204447
 30
28.53891014019783
 10
-134.6227184375786
 20
546.9380587577888
 30
29.82382259487945
 10
-134.5000024795616
 20
546.9380587577888
 30
31.13158867356623
  0
ARC
  5
117
330
1F
100
AcDbEntity
  8
FP$FP-1
100
AcDbCircle
 10
134.5000024795604
 20
537.9380587577887
 30
-31.13158867356624
 40
9.0
210
0.0
220
0.0
230
-1.0
100
AcDbArc
 50
89.99999999999204
 51
270.0000000000003
  0
ARC
  5
118
330
1F
100
AcDbEntity
  8
FP$FP-1
100
AcDbCircle
 10
537.9380587577888
 20
11.13158761260188
 30
-154.5000035405248
 40
8.999999999999993
210
1.0
220
0.0
230
0.0
100
AcDbArc
 50
90.0
 51
180.0
  0
SPLINE
  5
119
330
1F
100
AcDbEntity
  8
FP$FP-1
100
AcDbSpline
 70
     0
 71
     3
 72
    22
 73
    18
 74
     0
 42
0.0000000001
 43
0.0000000001
 40
-1.0
 40
-1.0
 40
-1.0
 40
-1.0
 40
-0.8749597953826672
 40
-0.8749597953826672
 40
-0.7499672416886414
 40
-0.7499672416886414
 40
-0.624985725556279
 40
-0.624985725556279
 40
-0.500000000000003
 40
-0.500000000000003
 40
-0.3750142361224172
 40
-0.3750142361224172
 40
-0.2500317566708214
 40
-0.2500317566708214
 40
-0.1250343893849959
 40
-0.1250343893849959
 40
0.0
 40
0.0
 40
0.0
 40
0.0
 10
-134.5000024795613
 20
528.9380587577888
 30
31.13158867356623
 10
-134.6227184375794
 20
528.9380587577888
 30
29.82382259487946
 10
-134.8118617007725
 20
528.9399179951329
 30
28.53891014019772
 10
-135.3600064937487
 20
528.9409166839841
 30
26.00542132915077
 10
-135.7191017468811
 20
528.9404384993305
 30
24.75798247924569
 10
-136.6511404771965
 20
528.9391438298641
 30
22.3350763648367
 10
-137.2252107706775
 20
528.938501739052
 30
21.15965154651141
 10
-138.6151236404198
 20
528.9380174070076
 30
18.94881424806336
 10
-139.4319403257187
 20
528.9380587577888
 30
17.91537914048112
 10
-141.2837942913338
 20
528.9380587577888
 30
16.06352517486597
 10
-142.3172297492609
 20
528.9380174069775
 30
15.24670827396426
 10
-144.5280759939801
 20
528.9385017413198
 30
13.85678998138794
 10
-145.7035104264506
 20
528.939143842139
 30
13.28271628813265
 10
-148.126473722086
 20
528.940438538123
 30
12.35065943842036
 10
-149.3739623939284
 20
528.9409167106646
 30
11.99155598620504
 10
-151.9074446537047
 20
528.9399178715084
 30
11.44342928722671
 10
-153.1922982819847
 20
528.9380587577888
 30
11.25429786348205
 10
-154.5000035405247
 20
528.9380587577888
 30
11.1315876126027
  0
ARC
  5
11A
330
1F
100
AcDbEntity
  8
FP$FP-1
100
AcDbCircle
 10
134.5000024795604
 20
537.9380587577888
 30
-31.13158867356623
 40
9.0
210
0.0
220
0.0
230
-1.0
100
AcDbArc
 50
270.0000000000056
 51
0.0
  0
ARC
  5
11B
330
1F
100
AcDbEntity
  8
FP$FP-1
100
AcDbCircle
 10
134.5000024795604
 20
537.9380587577888
 30
-31.13158867356624
 40
9.0
210
0.0
220
0.0
230
-1.0
100
AcDbArc
 50
0.0
 51
89.99999999999476
  0
ARC
  5
11C
330
1F
100
AcDbEntity
  8
FP$FP-1
100
AcDbCircle
 10
154.5000035405248
 20
31.13158867356625
 30
537.9380587577888
 40
11.00000106096437
210
0.0
220
1.0
230
0.0
100
AcDbArc
 50
180.0
 51
270.0
  0
ARC
  5
11D
330
1F
100
AcDbEntity
  8
FP$FP-1
100
AcDbCircle
 10
537.9380587577888
 20
11.1315876126019
 30
-154.5000035405247
 40
8.99999999999998
210
1.0
220
0.0
230
0.0
100
AcDbArc
 50
0.0000000000052246
 51
90.0
  0
ARC
  5
11E
330
1F
100
AcDbEntity
  8
FP$FP-1
100
AcDbCircle
 10
134.5000024795621
 20
537.9380587577888
 30
-44.29835864446369
 40
9.0
210
0.0
220
0.0
230
-1.0
100
AcDbArc
 50
90.00000000000072
 51
270.0
  0
LINE
  5
11F
330
1F
100
AcDbEntity
  8
FP$FP-1
100
AcDbLine
 10
-134.5000024795621
 20
528.9380587577888
 30
44.29835864446369
 11
-134.5000024795613
 21
528.9380587577888
 31
31.13158867356623
  0
LINE
  5
120
330
1F
100
AcDbEntity
  8
FP$FP-1
100
AcDbLine
 10
-134.5000024795616
 20
546.9380587577888
 30
31.13158867356623
 11
-134.500002479562
 21
546.9380587577888
 31
44.29835864446369
  0
ARC
  5
121
330
1F
100
AcDbEntity
  8
FP$FP-1
100
AcDbCircle
 10
-134.5000024795619
 20
537.9380587577889
 30
44.29835864446369
 40
9.0
100
AcDbArc
 50
90.00000000000072
 51
269.9999999999984
  0
ARC
  5
122
330
1F
100
AcDbEntity
  8
FP$FP-1
100
AcDbCircle
 10
537.9380587577888
 20
11.13158761260354
 30
-252.0000012695873
 40
9.0
210
1.0
220
0.0
230
0.0
100
AcDbArc
 50
180.0
 51
0.0
  0
LINE
  5
123
330
1F
100
AcDbEntity
  8
FP$FP-1
100
AcDbLine
 10
-349.4999989986496
 20
537.9380587577888
 30
2.131587612603539
 11
-154.5000035405247
 21
537.9380587577888
 31
2.131587612603539
  0
ARC
  5
124
330
1F
100
AcDbEntity
  8
FP$FP-1
100
AcDbCircle
 10
537.9380587577888
 20
11.13158761260354
 30
-252.0000012695873
 40
9.0
210
1.0
220
0.0
230
0.0
100
AcDbArc
 50
0.0
 51
180.0
  0
LINE
  5
125
330
1F
100
AcDbEntity
  8
FP$FP-1
100
AcDbLine
 10
-349.4999989986496
 20
537.9380587577888
 30
20.13158761260354
 11
-154.5000035405247
 21
537.9380587577888
 31
20.13158761260354
  0
LINE
  5
126
330
1F
100
AcDbEntity
  8
FP$FP-1
100
AcDbLine
 10
-349.4999989986496
 20
546.9380587577888
 30
11.13158761260356
 11
-349.4999989986496
 21
528.9380587577888
 31
11.13158761260356
  0
LINE
  5
127
330
1F
100
AcDbEntity
  8
FP$FP-1
100
AcDbLine
 10
-349.4999989986496
 20
537.9380587577888
 30
2.131587612603566
 11
-349.4999989986496
 21
537.9380587577888
 31
20.13158761260356
  0
ARC
  5
128
330
1F
100
AcDbEntity
  8
FP$FP-1
100
AcDbCircle
 10
154.5000035405248
 20
31.13158867356617
 30
528.9380587577889
 40
20.00000106096434
210
0.0
220
1.0
230
0.0
100
AcDbArc
 50
179.9999999999999
 51
269.9999999999999
  0
ARC
  5
129
330
1F
100
AcDbEntity
  8
FP$FP-1
100
AcDbCircle
 10
154.5000035405248
 20
31.13158867356625
 30
537.9380587577888
 40
29.00000106096438
210
0.0
220
1.0
230
0.0
100
AcDbArc
 50
180.0
 51
270.0
  0
ARC
  5
12A
330
1F
100
AcDbEntity
  8
FP$FP-1
100
AcDbCircle
 10
154.5000035405248
 20
31.13158867356626
 30
546.9380587577889
 40
20.00000106096437
210
0.0
220
1.0
230
0.0
100
AcDbArc
 50
180.0000000000001
 51
224.9999915584637
  0
ARC
  5
12B
330
1F
100
AcDbEntity
  8
FP$FP-1
100
AcDbCircle
 10
154.5000035405248
 20
31.13158867356626
 30
546.9380587577889
 40
20.00000106096437
210
0.0
220
1.0
230
0.0
100
AcDbArc
 50
225.0000072591741
 51
270.0000000000001
  0
ARC
  5
12C
330
1F
100
AcDbEntity
  8
FP$FP-1
100
AcDbCircle
 10
154.5000035405248
 20
31.13158867356625
 30
546.9380587577889
 40
20.00000106096436
210
0.0
220
1.0
230
0.0
100
AcDbArc
 50
224.9999902061592
 51
225.0000094173354
  0
ARC
  5
12D
330
1F
100
AcDbEntity
  8
FP$FP-1
100
AcDbCircle
 10
-134.5000024795621
 20
537.9380587577888
 30
37.71497365901496
 40
9.0
100
AcDbArc
 50
270.0
 51
90.0
  0
LINE
  5
12E
330
1F
100
AcDbEntity
  8
FP$FP-1
100
AcDbLine
 10
-125.5000024795621
 20
537.9380587577888
 30
31.13158867356625
 11
-125.5000024795621
 21
537.9380587577888
 31
44.29835864446369
  0
ARC
  5
12F
330
1F
100
AcDbEntity
  8
FP$FP-1
100
AcDbCircle
 10
-134.5000024795621
 20
537.9380587577889
 30
37.71497365901496
 40
9.0
100
AcDbArc
 50
89.99999999999928
 51
269.9999999999993
  0
LINE
  5
130
330
1F
100
AcDbEntity
  8
FP$FP-1
100
AcDbLine
 10
-143.5000024795621
 20
537.938058757789
 30
31.13158867356625
 11
-143.5000024795621
 21
537.938058757789
 31
44.29835864446369
  0
LINE
  5
131
330
1F
100
AcDbEntity
  8
FP$FP-1
100
AcDbLine
 10
-134.5000024795621
 20
546.9380587577887
 30
44.29835864446369
 11
-134.5000024795621
 21
528.9380587577888
 31
44.29835864446369
  0
LINE
  5
132
330
1F
100
AcDbEntity
  8
FP$FP-1
100
AcDbLine
 10
-125.5000024795622
 20
537.9380587577889
 30
44.29835864446369
 11
-143.500002479562
 21
537.9380587577889
 31
44.29835864446369
  0
ARC
  5
133
330
1F
100
AcDbEntity
  8
FP$FP-1
100
AcDbCircle
 10
-198.1862829868022
 20
524.1045435240422
 30
28.85133661924709
 40
4.999999999999204
100
AcDbArc
 50
0.0
 51
180.0
  0
LINE
  5
134
330
1F
100
AcDbEntity
  8
FP$FP-1
100
AcDbLine
 10
-203.1862829868031
 20
524.1045435240422
 30
28.8513366192471
 11
-203.1862829868014
 21
524.1045435240422
 31
44.29835864445903
  0
ARC
  5
135
330
1F
100
AcDbEntity
  8
FP$FP-1
100
AcDbCircle
 10
198.1862829868013
 20
524.1045435240422
 30
-44.29835864445903
 40
5.000000000000085
210
0.0
220
0.0
230
-1.0
100
AcDbArc
 50
0.0
 51
180.0
  0
LINE
  5
136
330
1F
100
AcDbEntity
  8
FP$FP-1
100
AcDbLine
 10
-193.1862829868012
 20
524.1045435240422
 30
44.29835864445903
 11
-193.186282986803
 21
524.1045435240422
 31
28.85133661924707
  0
ARC
  5
137
330
1F
100
AcDbEntity
  8
FP$FP-1
100
AcDbCircle
 10
-198.1862829868022
 20
524.1045435240422
 30
28.85133661924711
 40
5.000000000000966
100
AcDbArc
 50
180.0
 51
0.0
  0
ARC
  5
138
330
1F
100
AcDbEntity
  8
FP$FP-1
100
AcDbCircle
 10
198.1862829868013
 20
524.1045435240422
 30
-44.29835864445903
 40
5.000000000000114
210
0.0
220
0.0
230
-1.0
100
AcDbArc
 50
180.0
 51
0.0
  0
ARC
  5
139
330
1F
100
AcDbEntity
  8
FP$FP-1
100
AcDbCircle
 10
218.1862829868039
 20
28.85133661924887
 30
524.1045435240422
 40
25.0000000000009
210
0.0
220
1.0
230
0.0
100
AcDbArc
 50
180.0000000000041
 51
270.0000000000002
  0
ARC
  5
13A
330
1F
100
AcDbEntity
  8
FP$FP-1
100
AcDbCircle
 10
524.1045435240422
 20
8.851336619247103
 30
-218.186282986804
 40
5.000000000000856
210
1.0
220
0.0
230
0.0
100
AcDbArc
 50
270.0
 51
90.0
  0
ARC
  5
13B
330
1F
100
AcDbEntity
  8
FP$FP-1
100
AcDbCircle
 10
-218.1862829868056
 20
28.85133661924708
 30
-524.1045435240422
 40
15.00000000000082
210
0.0
220
-1.0
230
0.0
100
AcDbArc
 50
270.000000000006
 51
0.0000000000000136
  0
ARC
  5
13C
330
1F
100
AcDbEntity
  8
FP$FP-1
100
AcDbCircle
 10
524.1045435240422
 20
8.851336619247103
 30
-218.186282986804
 40
4.999999999999144
210
1.0
220
0.0
230
0.0
100
AcDbArc
 50
90.0
 51
270.0
  0
ARC
  5
13D
330
1F
100
AcDbEntity
  8
FP$FP-1
100
AcDbCircle
 10
524.1045435240422
 20
8.851336619244531
 30
-349.1862829868045
 40
5.000000000000004
210
1.0
220
0.0
230
0.0
100
AcDbArc
 50
270.0
 51
90.0
  0
LINE
  5
13E
330
1F
100
AcDbEntity
  8
FP$FP-1
100
AcDbLine
 10
-349.1862829868044
 20
524.1045435240422
 30
13.85133661924453
 11
-218.186282986804
 21
524.1045435240422
 31
13.85133661924625
  0
LINE
  5
13F
330
1F
100
AcDbEntity
  8
FP$FP-1
100
AcDbLine
 10
-218.186282986804
 20
524.1045435240422
 30
3.851336619246247
 11
-349.1862829868044
 21
524.1045435240422
 31
3.851336619244528
  0
ARC
  5
140
330
1F
100
AcDbEntity
  8
FP$FP-1
100
AcDbCircle
 10
524.1045435240422
 20
8.851336619244531
 30
-349.1862829868045
 40
4.999999999999996
210
1.0
220
0.0
230
0.0
100
AcDbArc
 50
90.0
 51
270.0
  0
ARC
  5
141
330
1F
100
AcDbEntity
  8
FP$FP-1
100
AcDbCircle
 10
198.1862829868013
 20
524.1045435240422
 30
-36.57484763185306
 40
5.000000000000114
210
0.0
220
0.0
230
-1.0
100
AcDbArc
 50
0.0
 51
180.0
  0
LINE
  5
142
330
1F
100
AcDbEntity
  8
FP$FP-1
100
AcDbLine
 10
-198.1862829868013
 20
529.1045435240424
 30
44.29835864445902
 11
-198.1862829868013
 21
529.1045435240424
 31
28.85133661924711
  0
ARC
  5
143
330
1F
100
AcDbEntity
  8
FP$FP-1
100
AcDbCircle
 10
198.1862829868013
 20
524.1045435240422
 30
-36.57484763185306
 40
5.000000000000114
210
0.0
220
0.0
230
-1.0
100
AcDbArc
 50
180.0
 51
0.0
  0
LINE
  5
144
330
1F
100
AcDbEntity
  8
FP$FP-1
100
AcDbLine
 10
-198.1862829868013
 20
519.1045435240421
 30
44.29835864445902
 11
-198.1862829868013
 21
519.1045435240421
 31
28.85133661924711
  0
LINE
  5
145
330
1F
100
AcDbEntity
  8
FP$FP-1
100
AcDbLine
 10
-198.1862829868013
 20
529.1045435240422
 30
44.29835864445902
 11
-198.1862829868013
 21
519.1045435240422
 31
44.29835864445902
  0
LINE
  5
146
330
1F
100
AcDbEntity
  8
FP$FP-1
100
AcDbLine
 10
-203.1862829868013
 20
524.1045435240424
 30
44.29835864445902
 11
-193.1862829868013
 21
524.1045435240424
 31
44.29835864445902
  0
ARC
  5
147
330
1F
100
AcDbEntity
  8
FP$FP-1
100
AcDbCircle
 10
-218.1862829868039
 20
28.85133661924711
 30
-529.1045435240426
 40
19.99999999999915
210
0.0
220
-1.0
230
0.0
100
AcDbArc
 50
269.9999999999998
 51
359.9999999999998
  0
ARC
  5
148
330
1F
100
AcDbEntity
  8
FP$FP-1
100
AcDbCircle
 10
-218.1862829868039
 20
28.85133661924711
 30
-519.1045435240421
 40
19.99999999999915
210
0.0
220
-1.0
230
0.0
100
AcDbArc
 50
269.9999999999998
 51
359.9999999999998
  0
ARC
  5
149
330
1F
100
AcDbEntity
  8
FP$FP-1
100
AcDbCircle
 10
-524.1045435240422
 20
8.851336619244535
 30
283.6862829868041
 40
5.0
210
-1.0
220
0.0
230
0.0
100
AcDbArc
 50
90.0
 51
270.0
  0
LINE
  5
14A
330
1F
100
AcDbEntity
  8
FP$FP-1
100
AcDbLine
 10
-218.186282986804
 20
529.1045435240422
 30
8.851336619244535
 11
-349.1862829868045
 21
529.1045435240422
 31
8.851336619244535
  0
ARC
  5
14B
330
1F
100
AcDbEntity
  8
FP$FP-1
100
AcDbCircle
 10
-524.1045435240422
 20
8.851336619244535
 30
283.6862829868041
 40
5.0
210
-1.0
220
0.0
230
0.0
100
AcDbArc
 50
270.0
 51
90.0
  0
LINE
  5
14C
330
1F
100
AcDbEntity
  8
FP$FP-1
100
AcDbLine
 10
-218.186282986804
 20
519.1045435240422
 30
8.851336619244535
 11
-349.1862829868045
 21
519.1045435240422
 31
8.851336619244535
  0
LINE
  5
14D
330
1F
100
AcDbEntity
  8
FP$FP-1
100
AcDbLine
 10
-349.1862829868044
 20
529.104543524042
 30
8.851336619244519
 11
-349.1862829868044
 21
519.104543524042
 31
8.851336619244519
  0
LINE
  5
14E
330
1F
100
AcDbEntity
  8
FP$FP-1
100
AcDbLine
 10
-349.1862829868044
 20
524.1045435240424
 30
13.85133661924452
 11
-349.1862829868044
 21
524.1045435240424
 31
3.85133661924452
  0
SPLINE
  5
14F
330
1F
100
AcDbEntity
  8
FP$FP-1
100
AcDbSpline
210
0.0
220
0.0
230
1.0
 70
    24
 71
     2
 72
     6
 73
     3
 74
     0
 42
0.0000000001
 43
0.0000000001
 40
-1.453412191135635
 40
-1.453412191135635
 40
-1.453412191135635
 40
0.0
 40
0.0
 40
0.0
 10
283.999997806549
 20
0.0
 30
444.0000358581374
 10
283.999997806549
 20
0.0
 30
222.5000179290666
 10
283.999997806549
 20
0.0
 30
0.9999999999957119
  0
SPLINE
  5
150
330
1F
100
AcDbEntity
  8
FP$FP-1
100
AcDbSpline
210
0.0
220
0.0
230
1.0
 70
    24
 71
     2
 72
     6
 73
     3
 74
     0
 42
0.0000000001
 43
0.0000000001
 40
-0.041010499000548
 40
-0.041010499000548
 40
-0.041010499000548
 40
0.0
 40
0.0
 40
0.0
 10
283.999997806549
 20
0.0
 30
0.9999999999957119
 10
283.999997806549
 20
6.250000047683514
 30
0.9999999999957119
 10
283.999997806549
 20
12.50000009536703
 30
0.9999999999957119
  0
SPLINE
  5
151
330
1F
100
AcDbEntity
  8
FP$FP-1
100
AcDbSpline
210
0.0
220
0.0
230
1.0
 70
    24
 71
     2
 72
     6
 73
     3
 74
     0
 42
0.0000000001
 43
0.0000000001
 40
-1.453412191135635
 40
-1.453412191135635
 40
-1.453412191135635
 40
0.0
 40
0.0
 40
0.0
 10
283.999997806549
 20
12.50000009536703
 30
0.9999999999957119
 10
283.999997806549
 20
12.50000009536703
 30
222.5000179290666
 10
283.999997806549
 20
12.50000009536703
 30
444.0000358581374
  0
SPLINE
  5
152
330
1F
100
AcDbEntity
  8
FP$FP-1
100
AcDbSpline
210
0.0
220
0.0
230
1.0
 70
    24
 71
     2
 72
     6
 73
     3
 74
     0
 42
0.0000000001
 43
0.0000000001
 40
-0.041010499000548
 40
-0.041010499000548
 40
-0.041010499000548
 40
0.0
 40
0.0
 40
0.0
 10
283.999997806549
 20
12.50000009536703
 30
444.0000358581374
 10
283.999997806549
 20
6.250000047683514
 30
444.0000358581374
 10
283.999997806549
 20
0.0
 30
444.0000358581374
  0
SPLINE
  5
153
330
1F
100
AcDbEntity
  8
FP$FP-1
100
AcDbSpline
210
0.0
220
0.0
230
1.0
 70
    24
 71
     2
 72
     6
 73
     3
 74
     0
 42
0.0000000001
 43
0.0000000001
 40
-1.863514602184296
 40
-1.863514602184296
 40
-1.863514602184296
 40
0.0
 40
0.0
 40
0.0
 10
283.999997806549
 20
0.0
 30
0.9999999999957119
 10
0.0003724336623918
 20
0.0
 30
0.9999999999957119
 10
-283.9992529392242
 20
0.0
 30
0.9999999999957119
  0
SPLINE
  5
154
330
1F
100
AcDbEntity
  8
FP$FP-1
100
AcDbSpline
210
0.0
220
0.0
230
1.0
 70
    24
 71
     2
 72
     6
 73
     3
 74
     0
 42
0.0000000001
 43
0.0000000001
 40
-0.041010499000548
 40
-0.041010499000548
 40
-0.041010499000548
 40
0.0
 40
0.0
 40
0.0
 10
-283.9992529392242
 20
0.0
 30
0.9999999999957119
 10
-283.9992529392242
 20
6.250000047683514
 30
0.9999999999957119
 10
-283.9992529392242
 20
12.50000009536703
 30
0.9999999999957119
  0
SPLINE
  5
155
330
1F
100
AcDbEntity
  8
FP$FP-1
100
AcDbSpline
210
0.0
220
0.0
230
1.0
 70
    24
 71
     2
 72
     6
 73
     3
 74
     0
 42
0.0000000001
 43
0.0000000001
 40
-1.863514602184296
 40
-1.863514602184296
 40
-1.863514602184296
 40
0.0
 40
0.0
 40
0.0
 10
-283.9992529392242
 20
12.50000009536703
 30
0.9999999999957119
 10
0.0003724336623918
 20
12.50000009536703
 30
0.9999999999957119
 10
283.999997806549
 20
12.50000009536703
 30
0.9999999999957119
  0
SPLINE
  5
156
330
1F
100
AcDbEntity
  8
FP$FP-1
100
AcDbSpline
210
0.0
220
0.0
230
1.0
 70
    24
 71
     2
 72
     6
 73
     3
 74
     0
 42
0.0000000001
 43
0.0000000001
 40
-1.453412191135635
 40
-1.453412191135635
 40
-1.453412191135635
 40
0.0
 40
0.0
 40
0.0
 10
-283.9992529392242
 20
0.0
 30
0.9999999999957119
 10
-283.9992529392242
 20
0.0
 30
222.5000179290666
 10
-283.9992529392242
 20
0.0
 30
444.0000358581374
  0
SPLINE
  5
157
330
1F
100
AcDbEntity
  8
FP$FP-1
100
AcDbSpline
210
0.0
220
0.0
230
1.0
 70
    24
 71
     2
 72
     6
 73
     3
 74
     0
 42
0.0000000001
 43
0.0000000001
 40
-0.041010499000548
 40
-0.041010499000548
 40
-0.041010499000548
 40
0.0
 40
0.0
 40
0.0
 10
-283.9992529392242
 20
0.0
 30
444.0000358581374
 10
-283.9992529392242
 20
6.250000047683514
 30
444.0000358581374
 10
-283.9992529392242
 20
12.50000009536703
 30
444.0000358581374
  0
SPLINE
  5
158
330
1F
100
AcDbEntity
  8
FP$FP-1
100
AcDbSpline
210
0.0
220
0.0
230
1.0
 70
    24
 71
     2
 72
     6
 73
     3
 74
     0
 42
0.0000000001
 43
0.0000000001
 40
-1.453412191135635
 40
-1.453412191135635
 40
-1.453412191135635
 40
0.0
 40
0.0
 40
0.0
 10
-283.9992529392242
 20
12.50000009536703
 30
444.0000358581374
 10
-283.9992529392242
 20
12.50000009536703
 30
222.5000179290666
 10
-283.9992529392242
 20
12.50000009536703
 30
0.9999999999957119
  0
SPLINE
  5
159
330
1F
100
AcDbEntity
  8
FP$FP-1
100
AcDbSpline
210
0.0
220
0.0
230
1.0
 70
    24
 71
     2
 72
     6
 73
     3
 74
     0
 42
0.0000000001
 43
0.0000000001
 40
-1.863514602184296
 40
-1.863514602184296
 40
-1.863514602184296
 40
0.0
 40
0.0
 40
0.0
 10
-283.9992529392242
 20
0.0
 30
444.0000358581374
 10
0.0003724336623918
 20
0.0
 30
444.0000358581374
 10
283.999997806549
 20
0.0
 30
444.0000358581374
  0
SPLINE
  5
15A
330
1F
100
AcDbEntity
  8
FP$FP-1
100
AcDbSpline
210
0.0
220
0.0
230
1.0
 70
    24
 71
     2
 72
     6
 73
     3
 74
     0
 42
0.0000000001
 43
0.0000000001
 40
-1.863514602184296
 40
-1.863514602184296
 40
-1.863514602184296
 40
0.0
 40
0.0
 40
0.0
 10
283.999997806549
 20
12.50000009536703
 30
444.0000358581374
 10
0.0003724336623918
 20
12.50000009536703
 30
444.0000358581374
 10
-283.9992529392242
 20
12.50000009536703
 30
444.0000358581374
  0
LINE
  5
15B
330
1F
100
AcDbEntity
  8
FP$FP-1
100
AcDbLine
 10
283.9999978065491
 20
0.0
 30
222.5000179290666
 11
283.9999978065491
 21
12.50000009536703
 31
222.5000179290666
  0
LINE
  5
15C
330
1F
100
AcDbEntity
  8
FP$FP-1
100
AcDbLine
 10
283.9999978065491
 20
6.250000047683514
 30
0.9999999999957119
 11
283.9999978065491
 21
6.250000047683514
 31
444.0000358581374
  0
LINE
  5
15D
330
1F
100
AcDbEntity
  8
FP$FP-1
100
AcDbLine
 10
0.0003724336623918
 20
0.0
 30
0.9999999999957119
 11
0.0003724336623918
 21
12.50000009536703
 31
0.9999999999957119
  0
LINE
  5
15E
330
1F
100
AcDbEntity
  8
FP$FP-1
100
AcDbLine
 10
-283.9992529392243
 20
6.250000047683514
 30
0.9999999999957119
 11
283.9999978065491
 21
6.250000047683514
 31
0.9999999999957119
  0
LINE
  5
15F
330
1F
100
AcDbEntity
  8
FP$FP-1
100
AcDbLine
 10
-283.9992529392243
 20
0.0
 30
222.5000179290666
 11
-283.9992529392243
 21
12.50000009536703
 31
222.5000179290666
  0
LINE
  5
160
330
1F
100
AcDbEntity
  8
FP$FP-1
100
AcDbLine
 10
-283.9992529392243
 20
6.250000047683514
 30
444.0000358581374
 11
-283.9992529392243
 21
6.250000047683514
 31
0.9999999999957411
  0
LINE
  5
161
330
1F
100
AcDbEntity
  8
FP$FP-1
100
AcDbLine
 10
0.0003724336623918
 20
0.0
 30
444.0000358581374
 11
0.0003724336623918
 21
12.50000009536703
 31
444.0000358581374
  0
LINE
  5
162
330
1F
100
AcDbEntity
  8
FP$FP-1
100
AcDbLine
 10
283.9999978065491
 20
6.250000047683514
 30
444.0000358581374
 11
-283.9992529392243
 21
6.250000047683514
 31
444.0000358581374
  0
LINE
  5
163
330
1F
100
AcDbEntity
  8
FP$FP-1
100
AcDbLine
 10
-283.9992529392243
 20
12.50000009536703
 30
222.5000179290666
 11
283.9999978065491
 21
12.50000009536703
 31
222.5000179290666
  0
LINE
  5
164
330
1F
100
AcDbEntity
  8
FP$FP-1
100
AcDbLine
 10
0.0003724336623918
 20
12.50000009536703
 30
444.0000358581374
 11
0.0003724336623918
 21
12.50000009536703
 31
0.9999999999957411
  0
LINE
  5
165
330
1F
100
AcDbEntity
  8
FP$FP-1
100
AcDbLine
 10
283.9999978065491
 20
0.0
 30
222.5000179290666
 11
-283.9992529392243
 21
0.0
 31
222.5000179290666
  0
LINE
  5
166
330
1F
100
AcDbEntity
  8
FP$FP-1
100
AcDbLine
 10
0.0003724336623918
 20
0.0
 30
444.0000358581374
 11
0.0003724336623918
 21
0.0
 31
0.9999999999957411
  0
SPLINE
  5
167
330
1F
100
AcDbEntity
  8
FP$FP-1
100
AcDbSpline
210
0.0
220
0.0
230
1.0
 70
    24
 71
     2
 72
     6
 73
     3
 74
     0
 42
0.0000000001
 43
0.0000000001
 40
-0.133146300679073
 40
-0.133146300679073
 40
-0.133146300679073
 40
0.0
 40
0.0
 40
0.0
 10
-91.6073256174404
 20
510.3499897956868
 30
44.29835864446111
 10
-91.6073256174404
 20
530.6414860191775
 30
44.29835864446111
 10
-91.6073256174404
 20
550.9329822426682
 30
44.29835864446111
  0
SPLINE
  5
168
330
1F
100
AcDbEntity
  8
FP$FP-1
100
AcDbSpline
210
0.0
220
0.0
230
1.0
 70
    24
 71
     2
 72
     6
 73
     3
 74
     0
 42
0.0000000001
 43
0.0000000001
 40
-0.453388037435548
 40
-0.453388037435548
 40
-0.453388037435548
 40
0.0
 40
0.0
 40
0.0
 10
-91.6073256174404
 20
550.9329822426682
 30
44.29835864446111
 10
-160.7036625226179
 20
550.9329822426682
 30
44.29835864446111
 10
-229.7999994277954
 20
550.9329822426682
 30
44.29835864446111
  0
SPLINE
  5
169
330
1F
100
AcDbEntity
  8
FP$FP-1
100
AcDbSpline
210
0.0
220
0.0
230
1.0
 70
    24
 71
     2
 72
     6
 73
     3
 74
     0
 42
0.0000000001
 43
0.0000000001
 40
-0.133146300679073
 40
-0.133146300679073
 40
-0.133146300679073
 40
0.0
 40
0.0
 40
0.0
 10
-229.7999994277954
 20
550.9329822426682
 30
44.29835864446111
 10
-229.7999994277954
 20
530.6414860191775
 30
44.29835864446111
 10
-229.7999994277954
 20
510.3499897956868
 30
44.29835864446111
  0
SPLINE
  5
16A
330
1F
100
AcDbEntity
  8
FP$FP-1
100
AcDbSpline
210
0.0
220
0.0
230
1.0
 70
    24
 71
     2
 72
     6
 73
     3
 74
     0
 42
0.0000000001
 43
0.0000000001
 40
-0.453388037435548
 40
-0.453388037435548
 40
-0.453388037435548
 40
0.0
 40
0.0
 40
0.0
 10
-229.7999994277954
 20
510.3499897956868
 30
44.29835864446111
 10
-160.7036625226179
 20
510.3499897956868
 30
44.29835864446111
 10
-91.6073256174404
 20
510.3499897956868
 30
44.29835864446111
  0
SPLINE
  5
16B
330
1F
100
AcDbEntity
  8
FP$FP-1
100
AcDbSpline
210
0.0
220
0.0
230
1.0
 70
    24
 71
     2
 72
     6
 73
     3
 74
     0
 42
0.0000000001
 43
0.0000000001
 40
-0.0141942044302557
 40
-0.0141942044302557
 40
-0.0141942044302557
 40
-0.0000000000000028
 40
-0.0000000000000028
 40
-0.0000000000000028
 10
-91.6073256174404
 20
550.9329822426682
 30
44.29835864446111
 10
-91.6073256174407
 20
550.9329822426682
 30
42.13516188929055
 10
-91.607325617441
 20
550.9329822426682
 30
39.97196513411999
  0
SPLINE
  5
16C
330
1F
100
AcDbEntity
  8
FP$FP-1
100
AcDbSpline
210
0.0
220
0.0
230
1.0
 70
    24
 71
     2
 72
     6
 73
     3
 74
     0
 42
0.0000000001
 43
0.0000000001
 40
-0.453388037435548
 40
-0.453388037435548
 40
-0.453388037435548
 40
0.0
 40
0.0
 40
0.0
 10
-91.607325617441
 20
550.9329822426682
 30
39.97196513411999
 10
-160.7036625226182
 20
550.9329822426682
 30
39.97196513411963
 10
-229.7999994277954
 20
550.9329822426682
 30
39.97196513411927
  0
SPLINE
  5
16D
330
1F
100
AcDbEntity
  8
FP$FP-1
100
AcDbSpline
210
0.0
220
0.0
230
1.0
 70
    24
 71
     2
 72
     6
 73
     3
 74
     0
 42
0.0000000001
 43
0.0000000001
 40
-0.0141942044302557
 40
-0.0141942044302557
 40
-0.0141942044302557
 40
0.0
 40
0.0
 40
0.0
 10
-229.7999994277954
 20
550.9329822426682
 30
39.97196513411927
 10
-229.7999994277954
 20
550.9329822426682
 30
42.13516188929019
 10
-229.7999994277954
 20
550.9329822426682
 30
44.29835864446111
  0
SPLINE
  5
16E
330
1F
100
AcDbEntity
  8
FP$FP-1
100
AcDbSpline
210
0.0
220
0.0
230
1.0
 70
    24
 71
     2
 72
     6
 73
     3
 74
     0
 42
0.0000000001
 43
0.0000000001
 40
-0.0882182730281848
 40
-0.0882182730281848
 40
-0.0882182730281848
 40
0.0
 40
0.0
 40
0.0
 10
-91.6073256174404
 20
530.1835697215012
 30
34.84459261893323
 10
-91.6073256174404
 20
520.266779758594
 30
25.76654707788518
 10
-91.6073256174404
 20
510.3499897956868
 30
16.68850153683713
  0
SPLINE
  5
16F
330
1F
100
AcDbEntity
  8
FP$FP-1
100
AcDbSpline
210
0.0
220
0.0
230
1.0
 70
    24
 71
     2
 72
     6
 73
     3
 74
     0
 42
0.0000000001
 43
0.0000000001
 40
-0.453388037435548
 40
-0.453388037435548
 40
-0.453388037435548
 40
0.0
 40
0.0
 40
0.0
 10
-91.6073256174404
 20
510.3499897956868
 30
16.68850153683713
 10
-160.7036625226179
 20
510.3499897956868
 30
16.68850153683713
 10
-229.7999994277954
 20
510.3499897956868
 30
16.68850153683713
  0
SPLINE
  5
170
330
1F
100
AcDbEntity
  8
FP$FP-1
100
AcDbSpline
210
0.0
220
0.0
230
1.0
 70
    24
 71
     2
 72
     6
 73
     3
 74
     0
 42
0.0000000001
 43
0.0000000001
 40
-0.0882182730281848
 40
-0.0882182730281848
 40
-0.0882182730281848
 40
0.0
 40
0.0
 40
0.0
 10
-229.7999994277954
 20
510.3499897956868
 30
16.68850153683713
 10
-229.7999994277954
 20
520.266779758594
 30
25.76654707788518
 10
-229.7999994277954
 20
530.1835697215012
 30
34.84459261893323
  0
SPLINE
  5
171
330
1F
100
AcDbEntity
  8
FP$FP-1
100
AcDbSpline
210
0.0
220
0.0
230
1.0
 70
    24
 71
     2
 72
     6
 73
     3
 74
     0
 42
0.0000000001
 43
0.0000000001
 40
-0.453388037435548
 40
-0.453388037435548
 40
-0.453388037435548
 40
0.0
 40
0.0
 40
0.0
 10
-229.7999994277954
 20
530.1835697215012
 30
34.84459261893323
 10
-160.7036625226179
 20
530.1835697215012
 30
34.84459261893323
 10
-91.6073256174404
 20
530.1835697215012
 30
34.84459261893323
  0
SPLINE
  5
172
330
1F
100
AcDbEntity
  8
FP$FP-1
100
AcDbSpline
210
0.0
220
0.0
230
1.0
 70
    24
 71
     2
 72
     6
 73
     3
 74
     0
 42
0.0000000001
 43
0.0000000001
 40
-0.0905835206943044
 40
-0.0905835206943044
 40
-0.0905835206943044
 40
0.0
 40
0.0
 40
0.0
 10
-91.6073256174404
 20
510.3499897956868
 30
16.68850153683713
 10
-91.6073256174404
 20
510.3499897956868
 30
30.49343009064912
 10
-91.6073256174404
 20
510.3499897956868
 30
44.29835864446111
  0
SPLINE
  5
173
330
1F
100
AcDbEntity
  8
FP$FP-1
100
AcDbSpline
210
0.0
220
0.0
230
1.0
 70
    24
 71
     2
 72
     6
 73
     3
 74
     0
 42
0.0000000001
 43
0.0000000001
 40
-0.0905835206943044
 40
-0.0905835206943044
 40
-0.0905835206943044
 40
0.0
 40
0.0
 40
0.0
 10
-229.7999994277954
 20
510.3499897956868
 30
44.29835864446111
 10
-229.7999994277954
 20
510.3499897956868
 30
30.49343009064912
 10
-229.7999994277954
 20
510.3499897956868
 30
16.68850153683713
  0
ARC
  5
174
330
1F
100
AcDbEntity
  8
FP$FP-1
100
AcDbCircle
 10
-545.9557169660947
 20
39.82405514010089
 30
91.60732561743833
 40
4.979462521167832
210
-1.0
220
0.0
230
0.0
100
AcDbArc
 50
178.2978353393671
 51
270.0
  0
LINE
  5
175
330
1F
100
AcDbEntity
  8
FP$FP-1
100
AcDbLine
 10
-91.6073256174407
 20
545.9557169660945
 30
34.8445926189332
 11
-229.7999994277954
 21
545.9557169660945
 31
34.84459261893322
  0
ARC
  5
176
330
1F
100
AcDbEntity
  8
FP$FP-1
100
AcDbCircle
 10
545.9557169660948
 20
39.82405514010091
 30
-229.7999994277954
 40
4.979462521167654
210
1.0
220
0.0
230
0.0
100
AcDbArc
 50
269.9999999999974
 51
1.702164660626077
  0
SPLINE
  5
177
330
1F
100
AcDbEntity
  8
FP$FP-1
100
AcDbSpline
210
0.0
220
0.0
230
1.0
 70
    24
 71
     2
 72
     6
 73
     3
 74
     0
 42
0.0000000001
 43
0.0000000001
 40
-0.0517458899100837
 40
-0.0517458899100837
 40
-0.0517458899100837
 40
0.0
 40
0.0
 40
0.0
 10
-229.7999994277954
 20
530.1835697215012
 30
34.84459261893323
 10
-229.7999994277954
 20
538.0696433437979
 30
34.84459261893323
 10
-229.7999994277954
 20
545.9557169660945
 30
34.84459261893322
  0
SPLINE
  5
178
330
1F
100
AcDbEntity
  8
FP$FP-1
100
AcDbSpline
210
0.0
220
0.0
230
1.0
 70
    24
 71
     2
 72
     6
 73
     3
 74
     0
 42
0.0000000001
 43
0.0000000001
 40
0.0
 40
0.0
 40
0.0
 40
0.0517458899100837
 40
0.0517458899100837
 40
0.0517458899100837
 10
-91.6073256174404
 20
530.1835697215012
 30
34.84459261893323
 10
-91.60732561744055
 20
538.0696433437979
 30
34.84459261893322
 10
-91.6073256174407
 20
545.9557169660945
 30
34.8445926189332
  0
LINE
  5
179
330
1F
100
AcDbEntity
  8
FP$FP-1
100
AcDbLine
 10
-91.6073256174404
 20
530.6414860191775
 30
44.29835864446112
 11
-229.7999994277954
 21
530.6414860191775
 31
44.29835864446112
  0
LINE
  5
17A
330
1F
100
AcDbEntity
  8
FP$FP-1
100
AcDbLine
 10
-160.7036625226179
 20
550.9329822426682
 30
44.29835864446112
 11
-160.7036625226179
 21
510.3499897956868
 31
44.29835864446112
  0
LINE
  5
17B
330
1F
100
AcDbEntity
  8
FP$FP-1
100
AcDbLine
 10
-91.6073256174404
 20
550.9329822426682
 30
42.13516188929016
 11
-229.7999994277954
 21
550.9329822426682
 31
42.13516188929016
  0
LINE
  5
17C
330
1F
100
AcDbEntity
  8
FP$FP-1
100
AcDbLine
 10
-160.7036625226179
 20
550.9329822426682
 30
39.97196513411964
 11
-160.7036625226179
 21
550.9329822426682
 31
44.29835864446112
  0
LINE
  5
17D
330
1F
100
AcDbEntity
  8
FP$FP-1
100
AcDbLine
 10
-91.6073256174404
 20
520.266779758594
 30
25.7665470778852
 11
-229.7999994277954
 21
520.266779758594
 31
25.7665470778852
  0
LINE
  5
17E
330
1F
100
AcDbEntity
  8
FP$FP-1
100
AcDbLine
 10
-160.7036625226179
 20
510.3499897956868
 30
16.68850153683713
 11
-160.7036625226179
 21
530.1835697215012
 31
34.84459261893328
  0
LINE
  5
17F
330
1F
100
AcDbEntity
  8
FP$FP-1
100
AcDbLine
 10
-91.6073256174404
 20
510.3499897956868
 30
30.49343009064912
 11
-229.7999994277954
 21
510.3499897956868
 31
30.49343009064912
  0
LINE
  5
180
330
1F
100
AcDbEntity
  8
FP$FP-1
100
AcDbLine
 10
-160.7036625226179
 20
510.3499897956868
 30
44.29835864446112
 11
-160.7036625226179
 21
510.3499897956868
 31
16.68850153683713
  0
ARC
  5
181
330
1F
100
AcDbEntity
  8
FP$FP-1
100
AcDbCircle
 10
545.9557169660947
 20
39.82405514010107
 30
-160.7036625226174
 40
4.979462521167875
210
1.0
220
0.0
230
0.0
100
AcDbArc
 50
270.0
 51
1.702164660626571
  0
LINE
  5
182
330
1F
100
AcDbEntity
  8
FP$FP-1
100
AcDbLine
 10
-229.7999994277954
 20
550.9351794872625
 30
39.82405514010107
 11
-91.60732561744041
 21
550.9351794872625
 31
39.82405514010107
  0
LINE
  5
183
330
1F
100
AcDbEntity
  8
FP$FP-1
100
AcDbLine
 10
-91.6073256174404
 20
538.0696433437979
 30
34.84459261893323
 11
-229.7999994277954
 21
538.0696433437979
 31
34.84459261893323
  0
LINE
  5
184
330
1F
100
AcDbEntity
  8
FP$FP-1
100
AcDbLine
 10
-160.7036625226179
 20
530.1835697215012
 30
34.84459261893323
 11
-160.7036625226179
 21
545.9557169660947
 31
34.84459261893322
  0
LINE
  5
185
330
1F
100
AcDbEntity
  8
FP$FP-1
100
AcDbLine
 10
-229.7999994277954
 20
525.4303918824655
 30
30.49343009064913
 11
-229.7999994277954
 21
510.3499897956868
 31
30.49343009064914
  0
LINE
  5
186
330
1F
100
AcDbEntity
  8
FP$FP-1
100
AcDbLine
 10
-229.7999994277954
 20
530.6727646903653
 30
34.84459261893323
 11
-229.7999994277954
 21
530.6727646903653
 31
44.29835864446112
  0
LINE
  5
187
330
1F
100
AcDbEntity
  8
FP$FP-1
100
AcDbLine
 10
-91.6073256174404
 20
510.3499897956868
 30
30.49343009064914
 11
-91.6073256174404
 21
525.4303918824655
 31
30.49343009064913
  0
LINE
  5
188
330
1F
100
AcDbEntity
  8
FP$FP-1
100
AcDbLine
 10
-91.6073256174404
 20
530.6727646903655
 30
34.84459261893323
 11
-91.6073256174404
 21
530.6727646903655
 31
44.29835864446112
  0
ARC
  5
189
330
1F
100
AcDbEntity
  8
FP$FP-1
100
AcDbCircle
 10
-544.2217016064773
 20
24.29999999999449
 30
62.87518004178998
 40
5.0
210
-1.0
220
0.0
230
0.0
100
AcDbArc
 50
180.0000000000002
 51
0.0000000000000407
  0
LINE
  5
18A
330
1F
100
AcDbEntity
  8
FP$FP-1
100
AcDbLine
 10
-62.87518004178998
 20
539.2217016064773
 30
24.29999999999448
 11
-349.4999989986457
 21
539.2217016064775
 31
24.29999999999449
  0
ARC
  5
18B
330
1F
100
AcDbEntity
  8
FP$FP-1
100
AcDbCircle
 10
544.2217016064774
 20
24.2999999999945
 30
-349.4999989986458
 40
4.999999999999886
210
1.0
220
0.0
230
0.0
100
AcDbArc
 50
180.0000000000001
 51
0.0
  0
LINE
  5
18C
330
1F
100
AcDbEntity
  8
FP$FP-1
100
AcDbLine
 10
-349.4999989986457
 20
549.2217016064775
 30
24.29999999999449
 11
-62.87518004178998
 21
549.2217016064773
 31
24.29999999999448
  0
ARC
  5
18D
330
1F
100
AcDbEntity
  8
FP$FP-1
100
AcDbCircle
 10
-544.2217016064773
 20
24.2999999999945
 30
62.87518004178997
 40
5.0
210
-1.0
220
0.0
230
0.0
100
AcDbArc
 50
359.9999999999998
 51
180.0
  0
ARC
  5
18E
330
1F
100
AcDbEntity
  8
FP$FP-1
100
AcDbCircle
 10
544.2217016064774
 20
24.2999999999945
 30
-349.4999989986458
 40
5.000000000000114
210
1.0
220
0.0
230
0.0
100
AcDbArc
 50
359.9999999999999
 51
180.0
  0
ARC
  5
18F
330
1F
100
AcDbEntity
  8
FP$FP-1
100
AcDbCircle
 10
62.87518004179013
 20
529.2217016064772
 30
-24.29999999999448
 40
20.00000000000014
210
0.0
220
0.0
230
-1.0
100
AcDbArc
 50
90.00000000000044
 51
179.9999999999997
  0
ARC
  5
190
330
1F
100
AcDbEntity
  8
FP$FP-1
100
AcDbCircle
 10
47.87518004179
 20
24.29999999999448
 30
529.2217016064772
 40
4.999999999999993
210
0.0
220
1.0
230
0.0
100
AcDbArc
 50
180.0000000000002
 51
0.0
  0
ARC
  5
191
330
1F
100
AcDbEntity
  8
FP$FP-1
100
AcDbCircle
 10
-62.87518004178997
 20
529.2217016064772
 30
24.29999999999447
 40
10.00000000000011
100
AcDbArc
 50
0.0
 51
90.00000000000004
  0
ARC
  5
192
330
1F
100
AcDbEntity
  8
FP$FP-1
100
AcDbCircle
 10
47.87518004178999
 20
24.29999999999448
 30
529.2217016064772
 40
5.0
210
0.0
220
1.0
230
0.0
100
AcDbArc
 50
359.9999999999999
 51
180.0000000000002
  0
ARC
  5
193
330
1F
100
AcDbEntity
  8
FP$FP-1
100
AcDbCircle
 10
47.87518004179001
 20
24.29999999999447
 30
510.3499897956832
 40
4.999999999999993
210
0.0
220
1.0
230
0.0
100
AcDbArc
 50
180.0000000000001
 51
0.0
  0
LINE
  5
194
330
1F
100
AcDbEntity
  8
FP$FP-1
100
AcDbLine
 10
-52.87518004179
 20
510.3499897956832
 30
24.29999999999449
 11
-52.87518004179
 21
529.2217016064772
 31
24.29999999999447
  0
LINE
  5
195
330
1F
100
AcDbEntity
  8
FP$FP-1
100
AcDbLine
 10
-42.87518004179
 20
529.2217016064772
 30
24.29999999999446
 11
-42.87518004179
 21
510.3499897956832
 31
24.29999999999446
  0
ARC
  5
196
330
1F
100
AcDbEntity
  8
FP$FP-1
100
AcDbCircle
 10
47.87518004179
 20
24.29999999999445
 30
510.3499897956832
 40
4.999999999999993
210
0.0
220
1.0
230
0.0
100
AcDbArc
 50
0.0000000000004071
 51
180.0
  0
ARC
  5
197
330
1F
100
AcDbEntity
  8
FP$FP-1
100
AcDbCircle
 10
544.2217016064773
 20
24.2999999999945
 30
-206.1875895202174
 40
5.0
210
1.0
220
0.0
230
0.0
100
AcDbArc
 50
180.0
 51
0.0
  0
LINE
  5
198
330
1F
100
AcDbEntity
  8
FP$FP-1
100
AcDbLine
 10
-349.4999989986455
 20
544.2217016064773
 30
19.2999999999945
 11
-62.87518004178998
 21
544.2217016064773
 31
19.2999999999945
  0
ARC
  5
199
330
1F
100
AcDbEntity
  8
FP$FP-1
100
AcDbCircle
 10
544.2217016064773
 20
24.2999999999945
 30
-206.1875895202174
 40
5.0
210
1.0
220
0.0
230
0.0
100
AcDbArc
 50
0.0
 51
180.0
  0
LINE
  5
19A
330
1F
100
AcDbEntity
  8
FP$FP-1
100
AcDbLine
 10
-349.4999989986455
 20
544.2217016064773
 30
29.2999999999945
 11
-62.87518004178998
 21
544.2217016064773
 31
29.2999999999945
  0
LINE
  5
19B
330
1F
100
AcDbEntity
  8
FP$FP-1
100
AcDbLine
 10
-349.4999989986455
 20
544.2217016064782
 30
19.29999999999447
 11
-349.4999989986455
 21
544.2217016064782
 31
29.29999999999448
  0
LINE
  5
19C
330
1F
100
AcDbEntity
  8
FP$FP-1
100
AcDbLine
 10
-349.4999989986455
 20
539.2217016064782
 30
24.29999999999448
 11
-349.4999989986455
 21
549.2217016064782
 31
24.29999999999448
  0
ARC
  5
19D
330
1F
100
AcDbEntity
  8
FP$FP-1
100
AcDbCircle
 10
-62.87518004178998
 20
529.2217016064773
 30
19.2999999999945
 40
14.99999999999999
100
AcDbArc
 50
0.0
 51
90.0
  0
ARC
  5
19E
330
1F
100
AcDbEntity
  8
FP$FP-1
100
AcDbCircle
 10
-47.87518004178999
 20
24.29999999999448
 30
-529.2217016064773
 40
5.0
210
0.0
220
-1.0
230
0.0
100
AcDbArc
 50
180.0
 51
359.9999999999998
  0
ARC
  5
19F
330
1F
100
AcDbEntity
  8
FP$FP-1
100
AcDbCircle
 10
-62.87518004178998
 20
529.2217016064773
 30
24.29999999999448
 40
19.99999999999999
100
AcDbArc
 50
0.0
 51
89.99999999999999
  0
ARC
  5
1A0
330
1F
100
AcDbEntity
  8
FP$FP-1
100
AcDbCircle
 10
-62.87518004178998
 20
529.2217016064773
 30
29.29999999999447
 40
14.99999999999999
100
AcDbArc
 50
0.0
 51
90.0
  0
ARC
  5
1A1
330
1F
100
AcDbEntity
  8
FP$FP-1
100
AcDbCircle
 10
-47.87518004179
 20
24.29999999999447
 30
-519.7858457010798
 40
5.0
210
0.0
220
-1.0
230
0.0
100
AcDbArc
 50
180.0
 51
0.0
  0
LINE
  5
1A2
330
1F
100
AcDbEntity
  8
FP$FP-1
100
AcDbLine
 10
-47.87518004179
 20
529.2217016064773
 30
19.29999999999447
 11
-47.87518004179
 21
510.3499897956832
 31
19.29999999999447
  0
ARC
  5
1A3
330
1F
100
AcDbEntity
  8
FP$FP-1
100
AcDbCircle
 10
-47.87518004179001
 20
24.29999999999446
 30
-519.7858457010798
 40
5.0
210
0.0
220
-1.0
230
0.0
100
AcDbArc
 50
359.9999999999999
 51
179.9999999999999
  0
LINE
  5
1A4
330
1F
100
AcDbEntity
  8
FP$FP-1
100
AcDbLine
 10
-47.87518004179
 20
529.2217016064773
 30
29.29999999999446
 11
-47.87518004179
 21
510.3499897956832
 31
29.29999999999446
  0
LINE
  5
1A5
330
1F
100
AcDbEntity
  8
FP$FP-1
100
AcDbLine
 10
-47.87518004179003
 20
510.3499897956832
 30
19.29999999999448
 11
-47.87518004179003
 21
510.3499897956832
 31
29.29999999999445
  0
LINE
  5
1A6
330
1F
100
AcDbEntity
  8
FP$FP-1
100
AcDbLine
 10
-52.87518004179
 20
510.3499897956832
 30
24.29999999999447
 11
-42.87518004179001
 21
510.3499897956832
 31
24.29999999999447
  0
INSERT
  5
1E0
330
1F
100
AcDbEntity
  8
FP$FP-1
100
AcDbBlockReference
  2
FamilyGeomCombination_133348-View 1
 10
0.0
 20
0.0
 30
0.0
  0
LINE
  5
1E1
330
1F
100
AcDbEntity
  8
FP$FP-1
100
AcDbLine
 10
220.0000010609618
 20
528.9380587577888
 30
11.13158761260453
 11
330.0000010609618
 21
528.9380587577887
 31
11.13158761260537
  0
ARC
  5
1E2
330
1F
100
AcDbEntity
  8
FP$FP-1
100
AcDbCircle
 10
-537.9380587577887
 20
11.13158761260536
 30
-330.0000010609618
 40
9.000000000000114
210
-1.0
220
0.0
230
0.0
100
AcDbArc
 50
0.0000000000001018
 51
180.0
  0
LINE
  5
1E3
330
1F
100
AcDbEntity
  8
FP$FP-1
100
AcDbLine
 10
330.0000010609618
 20
546.9380587577887
 30
11.13158761260538
 11
220.0000010609618
 21
546.9380587577888
 31
11.13158761260455
  0
ARC
  5
1E4
330
1F
100
AcDbEntity
  8
FP$FP-1
100
AcDbCircle
 10
537.9380587577888
 20
11.13158761260536
 30
220.0000010609618
 40
9.0
210
1.0
220
0.0
230
0.0
100
AcDbArc
 50
180.0000000000052
 51
0.0
  0
ARC
  5
1E5
330
1F
100
AcDbEntity
  8
FP$FP-1
100
AcDbCircle
 10
-537.9380587577887
 20
11.13158761260536
 30
-330.0000010609619
 40
8.999999999999886
210
-1.0
220
0.0
230
0.0
100
AcDbArc
 50
179.9999999999999
 51
0.0
  0
ARC
  5
1E6
330
1F
100
AcDbEntity
  8
FP$FP-1
100
AcDbCircle
 10
-199.9999999999974
 20
537.9380587577888
 30
-31.13158867356799
 40
9.0
210
0.0
220
0.0
230
-1.0
100
AcDbArc
 50
90.00000000000851
 51
180.0
  0
ARC
  5
1E7
330
1F
100
AcDbEntity
  8
FP$FP-1
100
AcDbCircle
 10
-199.9999999999974
 20
537.9380587577886
 30
-31.13158867356808
 40
8.999999999999886
210
0.0
220
0.0
230
-1.0
100
AcDbArc
 50
179.9999999999993
 51
270.0000000000003
  0
SPLINE
  5
1E8
330
1F
100
AcDbEntity
  8
FP$FP-1
100
AcDbSpline
 70
     0
 71
     3
 72
    22
 73
    18
 74
     0
 42
0.0000000001
 43
0.0000000001
 40
-1.0
 40
-1.0
 40
-1.0
 40
-1.0
 40
-0.8749656106150047
 40
-0.8749656106150047
 40
-0.7499682433291793
 40
-0.7499682433291793
 40
-0.624985763877584
 40
-0.624985763877584
 40
-0.4999999999999956
 40
-0.4999999999999956
 40
-0.3750142744437216
 40
-0.3750142744437216
 40
-0.250032758311359
 40
-0.250032758311359
 40
-0.125040204617332
 40
-0.125040204617332
 40
0.0
 40
0.0
 40
0.0
 40
0.0
 10
199.9999999999983
 20
528.9380587577888
 30
31.13158867356801
 10
200.1227102508777
 20
528.9380587577888
 30
29.82388341502795
 10
200.3118416746223
 20
528.9399178715084
 30
28.5390297867479
 10
200.8599683736006
 20
528.9409167106646
 30
26.00554752697165
 10
201.2190718258159
 20
528.940438538123
 30
24.75805885512927
 10
202.1511286755283
 20
528.939143842139
 30
22.33509555949381
 10
202.7252023687836
 20
528.9385017413197
 30
21.15966112702341
 10
204.1151206613599
 20
528.9380174069776
 30
18.94881488230409
 10
204.9319375622616
 20
528.9380587577888
 30
17.91537942437704
 10
206.7837915278767
 20
528.9380587577888
 30
16.06352545876189
 10
207.8172266354589
 20
528.9380174070076
 30
15.24670877346302
 10
210.0280639339069
 20
528.938501739052
 30
13.85679590372076
 10
211.2034887522322
 20
528.9391438298641
 30
13.28272561023976
 10
213.6263948666412
 20
528.9404384993305
 30
12.35068687992436
 10
214.8738337165464
 20
528.9409166839841
 30
11.99159162679195
 10
217.4073225275933
 20
528.9399179951329
 30
11.44344683381569
 10
218.692234982275
 20
528.9380587577888
 30
11.25430357062269
 10
220.0000010609618
 20
528.9380587577888
 30
11.13158761260453
  0
ARC
  5
1E9
330
1F
100
AcDbEntity
  8
FP$FP-1
100
AcDbCircle
 10
-537.9380587577889
 20
11.13158761260363
 30
-220.0000010609618
 40
9.000000000000105
210
-1.0
220
0.0
230
0.0
100
AcDbArc
 50
0.0000000000057787
 51
89.99999999999928
  0
ARC
  5
1EA
330
1F
100
AcDbEntity
  8
FP$FP-1
100
AcDbCircle
 10
-537.9380587577889
 20
11.13158761260378
 30
-220.0000010609618
 40
9.0
210
-1.0
220
0.0
230
0.0
100
AcDbArc
 50
89.99999999999855
 51
180.0000000000001
  0
ARC
  5
1EB
330
1F
100
AcDbEntity
  8
FP$FP-1
100
AcDbCircle
 10
220.0000010609618
 20
31.13158867356809
 30
-537.9380587577887
 40
11.00000106096435
210
0.0
220
-1.0
230
0.0
100
AcDbArc
 50
180.0
 51
270.0
  0
ARC
  5
1EC
330
1F
100
AcDbEntity
  8
FP$FP-1
100
AcDbCircle
 10
-199.9999999999974
 20
537.9380587577887
 30
-31.13158867356805
 40
9.000000000000114
210
0.0
220
0.0
230
-1.0
100
AcDbArc
 50
269.9999999999948
 51
90.0000000000058
  0
SPLINE
  5
1ED
330
1F
100
AcDbEntity
  8
FP$FP-1
100
AcDbSpline
 70
     0
 71
     3
 72
    22
 73
    18
 74
     0
 42
0.0000000001
 43
0.0000000001
 40
-1.0
 40
-1.0
 40
-1.0
 40
-1.0
 40
-0.8749597953826664
 40
-0.8749597953826664
 40
-0.7499672416886392
 40
-0.7499672416886392
 40
-0.6249857255562768
 40
-0.6249857255562768
 40
-0.5000000000000016
 40
-0.5000000000000016
 40
-0.3750142361224157
 40
-0.3750142361224157
 40
-0.2500317566708207
 40
-0.2500317566708207
 40
-0.125034389384996
 40
-0.125034389384996
 40
0.0
 40
0.0
 40
0.0
 40
0.0
 10
220.0000010609618
 20
546.9380587577888
 30
11.13158761260455
 10
218.692234982275
 20
546.9380587577888
 30
11.25430357062271
 10
217.4073225275933
 20
546.9361995204447
 30
11.44344683381571
 10
214.8738337165463
 20
546.9352008315934
 30
11.99159162679197
 10
213.6263948666412
 20
546.935679016247
 30
12.35068687992441
 10
211.2034887522321
 20
546.9369736857135
 30
13.28272561023982
 10
210.0280639339068
 20
546.9376157765256
 30
13.8567959037208
 10
207.8172266354588
 20
546.93810010857
 30
15.24670877346306
 10
206.7837915278765
 20
546.9380587577888
 30
16.06352545876196
 10
204.9319375622613
 20
546.9380587577888
 30
17.9153794243771
 10
204.1151206613596
 20
546.9381001086001
 30
18.94881488230408
 10
202.7252023687832
 20
546.9376157742578
 30
21.15966112702343
 10
202.151128675528
 20
546.9369736734386
 30
22.3350955594939
 10
201.2190718258159
 20
546.9356789774546
 30
24.75805885512944
 10
200.859968373601
 20
546.9352008049129
 30
26.00554752697193
 10
200.3118416746226
 20
546.9361996440691
 30
28.53902978674806
 10
200.1227102508768
 20
546.9380587577888
 30
29.82388341502799
 10
199.9999999999988
 20
546.9380587577888
 30
31.13158867356804
  0
ARC
  5
1EE
330
1F
100
AcDbEntity
  8
FP$FP-1
100
AcDbCircle
 10
-199.9999999999991
 20
537.9380587577889
 30
-44.29835864446254
 40
9.0
210
0.0
220
0.0
230
-1.0
100
AcDbArc
 50
90.00000000000018
 51
270.0
  0
LINE
  5
1EF
330
1F
100
AcDbEntity
  8
FP$FP-1
100
AcDbLine
 10
199.9999999999991
 20
528.9380587577888
 30
44.29835864446253
 11
199.9999999999983
 21
528.9380587577888
 31
31.13158867356801
  0
LINE
  5
1F0
330
1F
100
AcDbEntity
  8
FP$FP-1
100
AcDbLine
 10
199.9999999999988
 20
546.9380587577888
 30
31.13158867356804
 11
199.9999999999991
 21
546.9380587577889
 31
44.29835864446253
  0
ARC
  5
1F1
330
1F
100
AcDbEntity
  8
FP$FP-1
100
AcDbCircle
 10
-199.9999999999992
 20
537.9380587577888
 30
-44.29835864446254
 40
9.0
210
0.0
220
0.0
230
-1.0
100
AcDbArc
 50
270.0000000000007
 51
90.0
  0
ARC
  5
1F2
330
1F
100
AcDbEntity
  8
FP$FP-1
100
AcDbCircle
 10
-537.9380587577888
 20
11.13158761260536
 30
-275.0000010609619
 40
9.0
210
-1.0
220
0.0
230
0.0
100
AcDbArc
 50
0.0
 51
180.0
  0
LINE
  5
1F3
330
1F
100
AcDbEntity
  8
FP$FP-1
100
AcDbLine
 10
330.0000010609617
 20
537.9380587577888
 30
20.13158761260536
 11
220.0000010609618
 21
537.9380587577888
 31
20.13158761260536
  0
ARC
  5
1F4
330
1F
100
AcDbEntity
  8
FP$FP-1
100
AcDbCircle
 10
-537.9380587577888
 20
11.13158761260536
 30
-275.0000010609619
 40
9.0
210
-1.0
220
0.0
230
0.0
100
AcDbArc
 50
180.0
 51
0.0
  0
LINE
  5
1F5
330
1F
100
AcDbEntity
  8
FP$FP-1
100
AcDbLine
 10
330.0000010609617
 20
537.9380587577888
 30
2.131587612605358
 11
220.0000010609618
 21
537.9380587577888
 31
2.131587612605358
  0
ARC
  5
1F6
330
1F
100
AcDbEntity
  8
FP$FP-1
100
AcDbCircle
 10
220.0000010609618
 20
31.13158867356807
 30
-528.9380587577889
 40
20.00000106096433
210
0.0
220
-1.0
230
0.0
100
AcDbArc
 50
224.999994838858
 51
225.000005622444
  0
ARC
  5
1F7
330
1F
100
AcDbEntity
  8
FP$FP-1
100
AcDbCircle
 10
220.0000010609618
 20
31.1315886735681
 30
-546.9380587577889
 40
20.00000106096435
210
0.0
220
-1.0
230
0.0
100
AcDbArc
 50
224.9999907962812
 51
225.0000088573331
  0
ARC
  5
1F8
330
1F
100
AcDbEntity
  8
FP$FP-1
100
AcDbCircle
 10
220.0000010609618
 20
31.13158867356809
 30
-546.9380587577889
 40
20.00000106096437
210
0.0
220
-1.0
230
0.0
100
AcDbArc
 50
180.0
 51
270.0
  0
ARC
  5
1F9
330
1F
100
AcDbEntity
  8
FP$FP-1
100
AcDbCircle
 10
220.0000010609618
 20
31.13158867356809
 30
-537.9380587577888
 40
29.00000106096437
210
0.0
220
-1.0
230
0.0
100
AcDbArc
 50
180.0
 51
270.0
  0
ARC
  5
1FA
330
1F
100
AcDbEntity
  8
FP$FP-1
100
AcDbCircle
 10
220.0000010609618
 20
31.13158867356809
 30
-528.9380587577889
 40
20.00000106096437
210
0.0
220
-1.0
230
0.0
100
AcDbArc
 50
180.0000000000014
 51
224.9999907072896
  0
ARC
  5
1FB
330
1F
100
AcDbEntity
  8
FP$FP-1
100
AcDbCircle
 10
220.0000010609618
 20
31.13158867356809
 30
-528.9380587577889
 40
20.00000106096437
210
0.0
220
-1.0
230
0.0
100
AcDbArc
 50
225.0000098176964
 51
269.9999999999998
  0
LINE
  5
1FC
330
1F
100
AcDbEntity
  8
FP$FP-1
100
AcDbLine
 10
330.0000010609617
 20
546.9380587577887
 30
11.13158761260541
 11
330.0000010609617
 21
528.9380587577888
 31
11.13158761260541
  0
LINE
  5
1FD
330
1F
100
AcDbEntity
  8
FP$FP-1
100
AcDbLine
 10
330.0000010609617
 20
537.9380587577888
 30
20.13158761260542
 11
330.0000010609617
 21
537.9380587577888
 31
2.131587612605415
  0
ARC
  5
1FE
330
1F
100
AcDbEntity
  8
FP$FP-1
100
AcDbCircle
 10
199.9999999999991
 20
537.9380587577889
 30
37.71497365901524
 40
9.0
100
AcDbArc
 50
270.0
 51
90.0
  0
LINE
  5
1FF
330
1F
100
AcDbEntity
  8
FP$FP-1
100
AcDbLine
 10
208.9999999999991
 20
537.9380587577889
 30
31.13158867356795
 11
208.9999999999991
 21
537.9380587577889
 31
44.29835864446254
  0
ARC
  5
200
330
1F
100
AcDbEntity
  8
FP$FP-1
100
AcDbCircle
 10
199.9999999999992
 20
537.9380587577888
 30
37.71497365901519
 40
9.0
100
AcDbArc
 50
90.0
 51
270.0
  0
LINE
  5
201
330
1F
100
AcDbEntity
  8
FP$FP-1
100
AcDbLine
 10
190.9999999999992
 20
537.9380587577888
 30
31.13158867356795
 11
190.9999999999992
 21
537.9380587577888
 31
44.29835864446254
  0
LINE
  5
202
330
1F
100
AcDbEntity
  8
FP$FP-1
100
AcDbLine
 10
199.999999999999
 20
546.9380587577888
 30
44.29835864446254
 11
199.999999999999
 21
528.9380587577887
 31
44.29835864446254
  0
LINE
  5
203
330
1F
100
AcDbEntity
  8
FP$FP-1
100
AcDbLine
 10
208.999999999999
 20
537.9380587577887
 30
44.29835864446254
 11
190.999999999999
 21
537.9380587577887
 31
44.29835864446254
  0
ENDSEC
  0
SECTION
  2
OBJECTS
  0
DICTIONARY
  5
C
330
0
100
AcDbDictionary
281
     1
  3
ACAD_DETAILVIEWSTYLE
350
23F
  3
ACAD_GROUP
350
D
  3
ACAD_LAYOUT
350
1A
  3
ACAD_MATERIAL
350
43
  3
ACAD_MLEADERSTYLE
350
5B
  3
ACAD_MLINESTYLE
350
17
  3
ACAD_PLOTSETTINGS
350
19
  3
ACAD_PLOTSTYLENAME
350
E
  3
ACAD_SCALELIST
350
47
  3
ACAD_SECTIONVIEWSTYLE
350
240
  3
ACAD_TABLESTYLE
350
59
  3
ACAD_VISUALSTYLE
350
2A
  3
ACDB_RECOMPOSE_DATA
350
23C
  3
AcDbVariableDictionary
350
204
  0
SUN
  5
5D
330
29
100
AcDbSun
 90
        1
290
     0
 63
     7
421
 16777215
 40
1.0
291
     1
 91
  2455826
 92
 54000000
292
     0
 70
     2
 71
   256
280
     1
  0
DICTIONARY
  5
23F
102
{ACAD_REACTORS
330
C
102
}
330
C
100
AcDbDictionary
281
     1
  0
DICTIONARY
  5
D
102
{ACAD_REACTORS
330
C
102
}
330
C
100
AcDbDictionary
281
     1
  0
DICTIONARY
  5
1A
102
{ACAD_REACTORS
330
C
102
}
330
C
100
AcDbDictionary
281
     1
  3
Layout1
350
1E
  3
Layout2
350
26
  3
Model
350
22
  0
DICTIONARY
  5
43
102
{ACAD_REACTORS
330
C
102
}
330
C
100
AcDbDictionary
281
     1
  3
ByBlock
350
45
  3
ByLayer
350
44
  3
Global
350
46
  0
DICTIONARY
  5
5B
102
{ACAD_REACTORS
330
C
102
}
330
C
100
AcDbDictionary
281
     1
  3
Standard
350
5C
  0
DICTIONARY
  5
17
102
{ACAD_REACTORS
330
C
102
}
330
C
100
AcDbDictionary
281
     1
  3
Standard
350
18
  0
DICTIONARY
  5
19
102
{ACAD_REACTORS
330
C
102
}
330
C
100
AcDbDictionary
281
     1
  0
ACDBDICTIONARYWDFLT
  5
E
102
{ACAD_REACTORS
330
C
102
}
330
C
100
AcDbDictionary
281
     1
  3
Normal
350
F
100
AcDbDictionaryWithDefault
340
F
  0
DICTIONARY
  5
47
102
{ACAD_REACTORS
330
C
102
}
330
C
100
AcDbDictionary
281
     1
  3
A0
350
48
  3
A1
350
49
  3
A2
350
4A
  3
A3
350
4B
  3
A4
350
4C
  3
A5
350
4D
  3
A6
350
4E
  3
A7
350
4F
  3
A8
350
50
  3
A9
350
51
  3
B1
350
52
  3
B2
350
53
  3
B3
350
54
  3
B4
350
55
  3
B5
350
56
  3
B6
350
57
  3
B7
350
58
  0
DICTIONARY
  5
240
102
{ACAD_REACTORS
330
C
102
}
330
C
100
AcDbDictionary
281
     1
  0
DICTIONARY
  5
59
102
{ACAD_REACTORS
330
C
102
}
330
C
100
AcDbDictionary
281
     1
  3
Standard
350
5A
  0
DICTIONARY
  5
2A
102
{ACAD_REACTORS
330
C
102
}
330
C
100
AcDbDictionary
281
     1
  3
2dWireframe
350
2F
  3
Basic
350
32
  3
Brighten
350
36
  3
ColorChange
350
3A
  3
Conceptual
350
34
  3
Dim
350
35
  3
EdgeColorOff
350
3D
  3
Facepattern
350
39
  3
Flat
350
2B
  3
FlatWithEdges
350
2C
  3
Gouraud
350
2D
  3
GouraudWithEdges
350
2E
  3
Hidden
350
31
  3
JitterOff
350
3B
  3
Linepattern
350
38
  3
OverhangOff
350
3C
  3
Realistic
350
33
  3
Shaded
350
42
  3
Shaded with edges
350
41
  3
Shades of Gray
350
3E
  3
Sketchy
350
3F
  3
Thicken
350
37
  3
Wireframe
350
30
  3
X-Ray
350
40
  0
XRECORD
  5
23C
102
{ACAD_REACTORS
330
C
102
}
330
C
100
AcDbXrecord
280
     1
 90
        1
330
5A
  0
DICTIONARY
  5
204
102
{ACAD_REACTORS
330
C
102
}
330
C
100
AcDbDictionary
281
     1
  3
CANNOSCALE
350
205
  3
CMLEADERSTYLE
350
23E
  3
CTABLESTYLE
350
23D
  3
XCLIPFRAME
350
206
  0
LAYOUT
  5
1E
102
{ACAD_REACTORS
330
1A
102
}
330
1A
100
AcDbPlotSettings
  1

  2
none_device
  4

  6

 40
0.0
 41
0.0
 42
0.0
 43
0.0
 44
0.0
 45
0.0
 46
0.0
 47
0.0
 48
0.0
 49
0.0
140
0.0
141
0.0
142
1.0
143
1.0
 70
   688
 72
     0
 73
     0
 74
     5
  7

 75
    16
 76
     0
 77
     2
 78
   300
147
1.0
148
0.0
149
0.0
100
AcDbLayout
  1
Layout1
 70
     1
 71
     1
 10
0.0
 20
0.0
 11
12.0
 21
9.0
 12
0.0
 22
0.0
 32
0.0
 14
1.000000000000000E+20
 24
1.000000000000000E+20
 34
1.000000000000000E+20
 15
-1.000000000000000E+20
 25
-1.000000000000000E+20
 35
-1.000000000000000E+20
146
0.0
 13
0.0
 23
0.0
 33
0.0
 16
1.0
 26
0.0
 36
0.0
 17
0.0
 27
1.0
 37
0.0
 76
     0
330
1B
  0
LAYOUT
  5
26
102
{ACAD_REACTORS
330
1A
102
}
330
1A
100
AcDbPlotSettings
  1

  2
none_device
  4

  6

 40
0.0
 41
0.0
 42
0.0
 43
0.0
 44
0.0
 45
0.0
 46
0.0
 47
0.0
 48
0.0
 49
0.0
140
0.0
141
0.0
142
1.0
143
1.0
 70
   688
 72
     0
 73
     0
 74
     5
  7

 75
    16
 76
     0
 77
     2
 78
   300
147
1.0
148
0.0
149
0.0
100
AcDbLayout
  1
Layout2
 70
     1
 71
     2
 10
0.0
 20
0.0
 11
0.0
 21
0.0
 12
0.0
 22
0.0
 32
0.0
 14
0.0
 24
0.0
 34
0.0
 15
0.0
 25
0.0
 35
0.0
146
0.0
 13
0.0
 23
0.0
 33
0.0
 16
1.0
 26
0.0
 36
0.0
 17
0.0
 27
1.0
 37
0.0
 76
     0
330
23
  0
LAYOUT
  5
22
102
{ACAD_REACTORS
330
1A
102
}
330
1A
100
AcDbPlotSettings
  1

  2
none_device
  4
Letter_(8.50_x_11.00_Inches)
  6

 40
6.35
 41
6.35
 42
6.35000508
 43
6.35000508
 44
215.9
 45
279.4
 46
0.0
 47
0.0
 48
0.0
 49
0.0
140
0.0
141
0.0
142
1.0
143
1.0
 70
  1712
 72
     0
 73
     0
 74
     0
  7

 75
     0
 76
     0
 77
     2
 78
   300
147
1.0
148
0.0
149
0.0
100
AcDbLayout
  1
Model
 70
     1
 71
     0
 10
0.0
 20
0.0
 11
12.0
 21
9.0
 12
0.0
 22
0.0
 32
0.0
 14
-349.4999989986497
 24
-0.8000238418586861
 34
-0.0000000000125521
 15
330.0000010609619
 25
552.9999999999873
 35
453.9999999999935
146
0.0
 13
0.0
 23
0.0
 33
0.0
 16
1.0
 26
0.0
 36
0.0
 17
0.0
 27
1.0
 37
0.0
 76
     0
330
1F
331
29
  0
MATERIAL
  5
45
102
{ACAD_REACTORS
330
43
102
}
330
43
100
AcDbMaterial
  1
ByBlock
 72
     1
 94
      127
  0
MATERIAL
  5
44
102
{ACAD_REACTORS
330
43
102
}
330
43
100
AcDbMaterial
  1
ByLayer
 72
     1
 94
      127
  0
MATERIAL
  5
46
102
{ACAD_REACTORS
330
43
102
}
330
43
100
AcDbMaterial
  1
Global
 72
     1
 94
      127
  0
MLEADERSTYLE
  5
5C
102
{ACAD_REACTORS
330
5B
102
}
102
{ACAD_XDICTIONARY
360
23A
102
}
330
5B
100
AcDbMLeaderStyle
170
     2
171
     1
172
     0
 90
        2
 40
0.0
 41
0.0
173
     1
 91
-1056964608
340
14
 92
       -2
290
     1
 42
0.09
291
     1
 43
0.36
  3
Standard
341
0
 44
0.18
300

342
11
174
     1
178
     6
175
     1
176
     0
 93
-1056964608
 45
0.18
292
     0
297
     0
 46
0.18
343
0
 94
-1056964608
 47
1.0
 49
1.0
140
1.0
293
     1
141
0.0
294
     1
177
     0
142
1.0
295
     0
296
     0
143
0.125
1001
ACAD_MLEADERVER
1070
     2
  0
MLINESTYLE
  5
18
102
{ACAD_REACTORS
330
17
102
}
330
17
100
AcDbMlineStyle
  2
Standard
 70
     0
  3

 62
   256
 51
90.0
 52
90.0
 71
     2
 49
0.5
 62
   256
  6
BYLAYER
 49
-0.5
 62
   256
  6
BYLAYER
  0
ACDBPLACEHOLDER
  5
F
102
{ACAD_REACTORS
330
E
102
}
330
E
  0
SCALE
  5
48
102
{ACAD_REACTORS
330
47
102
}
330
47
100
AcDbScale
 70
     0
300
1:1
140
1.0
141
1.0
290
     1
  0
SCALE
  5
49
102
{ACAD_REACTORS
330
47
102
}
330
47
100
AcDbScale
 70
     0
300
1/128" = 1'-0"
140
0.0078125
141
12.0
290
     0
  0
SCALE
  5
4A
102
{ACAD_REACTORS
330
47
102
}
330
47
100
AcDbScale
 70
     0
300
1/64" = 1'-0"
140
0.015625
141
12.0
290
     0
  0
SCALE
  5
4B
102
{ACAD_REACTORS
330
47
102
}
330
47
100
AcDbScale
 70
     0
300
1/32" = 1'-0"
140
0.03125
141
12.0
290
     0
  0
SCALE
  5
4C
102
{ACAD_REACTORS
330
47
102
}
330
47
100
AcDbScale
 70
     0
300
1/16" = 1'-0"
140
0.0625
141
12.0
290
     0
  0
SCALE
  5
4D
102
{ACAD_REACTORS
330
47
102
}
330
47
100
AcDbScale
 70
     0
300
3/32" = 1'-0"
140
0.09375
141
12.0
290
     0
  0
SCALE
  5
4E
102
{ACAD_REACTORS
330
47
102
}
330
47
100
AcDbScale
 70
     0
300
1/8" = 1'-0"
140
0.125
141
12.0
290
     0
  0
SCALE
  5
4F
102
{ACAD_REACTORS
330
47
102
}
330
47
100
AcDbScale
 70
     0
300
3/16" = 1'-0"
140
0.1875
141
12.0
290
     0
  0
SCALE
  5
50
102
{ACAD_REACTORS
330
47
102
}
330
47
100
AcDbScale
 70
     0
300
1/4" = 1'-0"
140
0.25
141
12.0
290
     0
  0
SCALE
  5
51
102
{ACAD_REACTORS
330
47
102
}
330
47
100
AcDbScale
 70
     0
300
3/8" = 1'-0"
140
0.375
141
12.0
290
     0
  0
SCALE
  5
52
102
{ACAD_REACTORS
330
47
102
}
330
47
100
AcDbScale
 70
     0
300
1/2" = 1'-0"
140
0.5
141
12.0
290
     0
  0
SCALE
  5
53
102
{ACAD_REACTORS
330
47
102
}
330
47
100
AcDbScale
 70
     0
300
3/4" = 1'-0"
140
0.75
141
12.0
290
     0
  0
SCALE
  5
54
102
{ACAD_REACTORS
330
47
102
}
330
47
100
AcDbScale
 70
     0
300
1" = 1'-0"
140
1.0
141
12.0
290
     0
  0
SCALE
  5
55
102
{ACAD_REACTORS
330
47
102
}
330
47
100
AcDbScale
 70
     0
300
1-1/2" = 1'-0"
140
1.5
141
12.0
290
     0
  0
SCALE
  5
56
102
{ACAD_REACTORS
330
47
102
}
330
47
100
AcDbScale
 70
     0
300
3" = 1'-0"
140
3.0
141
12.0
290
     0
  0
SCALE
  5
57
102
{ACAD_REACTORS
330
47
102
}
330
47
100
AcDbScale
 70
     0
300
6" = 1'-0"
140
6.0
141
12.0
290
     0
  0
SCALE
  5
58
102
{ACAD_REACTORS
330
47
102
}
330
47
100
AcDbScale
 70
     0
300
1'-0" = 1'-0"
140
12.0
141
12.0
290
     0
  0
TABLESTYLE
  5
5A
102
{ACAD_REACTORS
330
59
102
}
102
{ACAD_XDICTIONARY
360
237
102
}
330
59
100
AcDbTableStyle
  3
Standard
 70
     0
 71
     0
 40
0.06
 41
0.06
280
     0
281
     0
  7
Standard
140
0.18
170
     2
 62
     0
 63
   257
283
     0
 90
        4
 91
        0
  1

274
    -2
284
     1
 64
     0
275
    -2
285
     1
 65
     0
276
    -2
286
     1
 66
     0
277
    -2
287
     1
 67
     0
278
    -2
288
     1
 68
     0
279
    -2
289
     1
 69
     0
  7
Standard
140
0.25
170
     5
 62
     0
 63
   257
283
     0
 90
        4
 91
        0
  1

274
    -2
284
     1
 64
     0
275
    -2
285
     1
 65
     0
276
    -2
286
     1
 66
     0
277
    -2
287
     1
 67
     0
278
    -2
288
     1
 68
     0
279
    -2
289
     1
 69
     0
  7
Standard
140
0.18
170
     5
 62
     0
 63
   257
283
     0
 90
        4
 91
        0
  1

274
    -2
284
     1
 64
     0
275
    -2
285
     1
 65
     0
276
    -2
286
     1
 66
     0
277
    -2
287
     1
 67
     0
278
    -2
288
     1
 68
     0
279
    -2
289
     1
 69
     0
  0
VISUALSTYLE
  5
2F
102
{ACAD_REACTORS
330
2A
102
}
102
{ACAD_XDICTIONARY
360
20F
102
}
330
2A
100
AcDbVisualStyle
  2
2dWireframe
 70
     4
 71
     0
 72
     2
 73
     0
 90
        0
 40
0.6
 41
30.0
 62
     5
 63
     7
421
 16777215
 74
     1
 91
        4
 64
     7
 65
   257
 75
     1
175
     1
 42
1.0
 92
        0
 66
   257
 43
1.0
 76
     1
 77
     6
 78
     2
 67
     7
 79
     5
170
     0
171
     0
290
     0
174
     0
 93
        1
 44
0.0
173
     0
291
     0
 45
0.0
  0
VISUALSTYLE
  5
32
102
{ACAD_REACTORS
330
2A
102
}
102
{ACAD_XDICTIONARY
360
215
102
}
330
2A
100
AcDbVisualStyle
  2
Basic
 70
     7
 71
     1
 72
     0
 73
     1
 90
        0
 40
0.6
 41
30.0
 62
     5
 63
     7
421
 16777215
 74
     0
 91
        4
 64
     7
 65
   257
 75
     1
175
     1
 42
1.0
 92
        8
 66
     7
 43
1.0
 76
     1
 77
     6
 78
     2
 67
     7
 79
     5
170
     0
171
     0
290
     0
174
     0
 93
        1
 44
0.0
173
     0
291
     1
 45
0.0
  0
VISUALSTYLE
  5
36
102
{ACAD_REACTORS
330
2A
102
}
102
{ACAD_XDICTIONARY
360
21D
102
}
330
2A
100
AcDbVisualStyle
  2
Brighten
 70
    12
 71
     2
 72
     2
 73
     0
 90
        0
 40
0.6
 41
30.0
 62
     5
 63
     7
421
 16777215
 74
     1
 91
        4
 64
     7
 65
   257
 75
     1
175
     1
 42
1.0
 92
        8
 66
     7
 43
1.0
 76
     1
 77
     6
 78
     2
 67
     7
 79
     5
170
     0
171
     0
290
     0
174
     0
 93
        1
 44
50.0
173
     0
291
     1
 45
0.0
  0
VISUALSTYLE
  5
3A
102
{ACAD_REACTORS
330
2A
102
}
102
{ACAD_XDICTIONARY
360
225
102
}
330
2A
100
AcDbVisualStyle
  2
ColorChange
 70
    16
 71
     2
 72
     2
 73
     3
 90
        0
 40
0.6
 41
30.0
 62
     5
 63
     8
421
  8421504
 74
     1
 91
        4
 64
     7
 65
   257
 75
     1
175
     1
 42
1.0
 92
        8
 66
     8
424
  8421504
 43
1.0
 76
     1
 77
     6
 78
     2
 67
     7
 79
     5
170
     0
171
     0
290
     0
174
     0
 93
        1
 44
0.0
173
     0
291
     1
 45
0.0
  0
VISUALSTYLE
  5
34
102
{ACAD_REACTORS
330
2A
102
}
102
{ACAD_XDICTIONARY
360
219
102
}
330
2A
100
AcDbVisualStyle
  2
Conceptual
 70
     9
 71
     3
 72
     2
 73
     0
 90
        0
 40
0.6
 41
30.0
 62
     5
 63
     7
421
 16777215
 74
     2
 91
        2
 64
     7
 65
   257
 75
     1
175
     1
 42
179.0
 92
        8
 66
     7
 43
1.0
 76
     1
 77
     6
 78
     2
 67
     7
 79
     3
170
     0
171
     0
290
     0
174
     0
 93
        1
 44
0.0
173
     0
291
     0
 45
0.0
  0
VISUALSTYLE
  5
35
102
{ACAD_REACTORS
330
2A
102
}
102
{ACAD_XDICTIONARY
360
21B
102
}
330
2A
100
AcDbVisualStyle
  2
Dim
 70
    11
 71
     2
 72
     2
 73
     0
 90
        0
 40
0.6
 41
30.0
 62
     5
 63
     7
421
 16777215
 74
     1
 91
        4
 64
     7
 65
   257
 75
     1
175
     1
 42
1.0
 92
        8
 66
     7
 43
1.0
 76
     1
 77
     6
 78
     2
 67
     7
 79
     5
170
     0
171
     0
290
     0
174
     0
 93
        1
 44
-50.0
173
     0
291
     1
 45
0.0
  0
VISUALSTYLE
  5
3D
102
{ACAD_REACTORS
330
2A
102
}
102
{ACAD_XDICTIONARY
360
22B
102
}
330
2A
100
AcDbVisualStyle
  2
EdgeColorOff
 70
    22
 71
     2
 72
     2
 73
     0
 90
        0
 40
0.6
 41
30.0
 62
     5
 63
     7
421
 16777215
 74
     1
 91
        4
 64
     7
 65
   257
 75
     1
175
     1
 42
1.0
 92
        8
 66
     7
 43
1.0
 76
     1
 77
     6
 78
     2
 67
     7
 79
     5
170
     0
171
     0
290
     0
174
     0
 93
        1
 44
0.0
173
     0
291
     1
 45
0.0
  0
VISUALSTYLE
  5
39
102
{ACAD_REACTORS
330
2A
102
}
102
{ACAD_XDICTIONARY
360
223
102
}
330
2A
100
AcDbVisualStyle
  2
Facepattern
 70
    15
 71
     2
 72
     2
 73
     0
 90
        0
 40
0.6
 41
30.0
 62
     5
 63
     7
421
 16777215
 74
     1
 91
        4
 64
     7
 65
   257
 75
     1
175
     1
 42
1.0
 92
        8
 66
     7
 43
1.0
 76
     1
 77
     6
 78
     2
 67
     7
 79
     5
170
     0
171
     0
290
     0
174
     0
 93
        1
 44
0.0
173
     0
291
     1
 45
0.0
  0
VISUALSTYLE
  5
2B
102
{ACAD_REACTORS
330
2A
102
}
102
{ACAD_XDICTIONARY
360
207
102
}
330
2A
100
AcDbVisualStyle
  2
Flat
 70
     0
 71
     2
 72
     1
 73
     1
 90
        2
 40
0.6
 41
30.0
 62
     5
 63
     7
421
 16777215
 74
     0
 91
        0
 64
     7
 65
   257
 75
     1
175
     1
 42
1.0
 92
        8
 66
     7
 43
1.0
 76
     1
 77
     6
 78
     2
 67
     7
 79
     5
170
     0
171
     0
290
     0
174
     0
 93
       13
 44
0.0
173
     0
291
     1
 45
0.0
  0
VISUALSTYLE
  5
2C
102
{ACAD_REACTORS
330
2A
102
}
102
{ACAD_XDICTIONARY
360
209
102
}
330
2A
100
AcDbVisualStyle
  2
FlatWithEdges
 70
     1
 71
     2
 72
     1
 73
     1
 90
        2
 40
0.6
 41
30.0
 62
     5
 63
     7
421
 16777215
 74
     1
 91
        0
 64
     7
 65
   257
 75
     1
175
     1
 42
1.0
 92
        0
 66
   257
 43
1.0
 76
     1
 77
     6
 78
     2
 67
     7
 79
     5
170
     0
171
     0
290
     0
174
     0
 93
       13
 44
0.0
173
     0
291
     1
 45
0.0
  0
VISUALSTYLE
  5
2D
102
{ACAD_REACTORS
330
2A
102
}
102
{ACAD_XDICTIONARY
360
20B
102
}
330
2A
100
AcDbVisualStyle
  2
Gouraud
 70
     2
 71
     2
 72
     2
 73
     1
 90
        2
 40
0.6
 41
30.0
 62
     5
 63
     7
421
 16777215
 74
     0
 91
        0
 64
     7
 65
   257
 75
     1
175
     1
 42
1.0
 92
        0
 66
     7
 43
1.0
 76
     1
 77
     6
 78
     2
 67
     7
 79
     5
170
     0
171
     0
290
     0
174
     0
 93
       13
 44
0.0
173
     0
291
     1
 45
0.0
  0
VISUALSTYLE
  5
2E
102
{ACAD_REACTORS
330
2A
102
}
102
{ACAD_XDICTIONARY
360
20D
102
}
330
2A
100
AcDbVisualStyle
  2
GouraudWithEdges
 70
     3
 71
     2
 72
     2
 73
     1
 90
        2
 40
0.6
 41
30.0
 62
     5
 63
     7
421
 16777215
 74
     1
 91
        0
 64
     7
 65
   257
 75
     1
175
     1
 42
1.0
 92
        0
 66
   257
 43
1.0
 76
     1
 77
     6
 78
     2
 67
     7
 79
     5
170
     0
171
     0
290
     0
174
     0
 93
       13
 44
0.0
173
     0
291
     1
 45
0.0
  0
VISUALSTYLE
  5
31
102
{ACAD_REACTORS
330
2A
102
}
102
{ACAD_XDICTIONARY
360
213
102
}
330
2A
100
AcDbVisualStyle
  2
Hidden
 70
     6
 71
     1
 72
     2
 73
     2
 90
        0
 40
0.6
 41
30.0
 62
     5
 63
     7
421
 16777215
 74
     2
 91
        2
 64
     7
 65
   257
 75
     2
175
     1
 42
40.0
 92
        0
 66
   257
 43
1.0
 76
     1
 77
     6
 78
     2
 67
     7
 79
     3
170
     0
171
     0
290
     0
174
     0
 93
        1
 44
0.0
173
     0
291
     0
 45
0.0
  0
VISUALSTYLE
  5
3B
102
{ACAD_REACTORS
330
2A
102
}
102
{ACAD_XDICTIONARY
360
227
102
}
330
2A
100
AcDbVisualStyle
  2
JitterOff
 70
    20
 71
     2
 72
     2
 73
     0
 90
        0
 40
0.6
 41
30.0
 62
     5
 63
     7
421
 16777215
 74
     1
 91
        4
 64
     7
 65
   257
 75
     1
175
     1
 42
1.0
 92
       10
 66
     7
 43
1.0
 76
     1
 77
     6
 78
     2
 67
     7
 79
     5
170
     0
171
     0
290
     0
174
     0
 93
        1
 44
0.0
173
     0
291
     1
 45
0.0
  0
VISUALSTYLE
  5
38
102
{ACAD_REACTORS
330
2A
102
}
102
{ACAD_XDICTIONARY
360
221
102
}
330
2A
100
AcDbVisualStyle
  2
Linepattern
 70
    14
 71
     2
 72
     2
 73
     0
 90
        0
 40
0.6
 41
30.0
 62
     5
 63
     7
421
 16777215
 74
     1
 91
        4
 64
     7
 65
   257
 75
     7
175
     7
 42
1.0
 92
        8
 66
     7
 43
1.0
 76
     1
 77
     6
 78
     2
 67
     7
 79
     5
170
     0
171
     0
290
     0
174
     0
 93
        1
 44
0.0
173
     0
291
     1
 45
0.0
  0
VISUALSTYLE
  5
3C
102
{ACAD_REACTORS
330
2A
102
}
102
{ACAD_XDICTIONARY
360
229
102
}
330
2A
100
AcDbVisualStyle
  2
OverhangOff
 70
    21
 71
     2
 72
     2
 73
     0
 90
        0
 40
0.6
 41
30.0
 62
     5
 63
     7
421
 16777215
 74
     1
 91
        4
 64
     7
 65
   257
 75
     1
175
     1
 42
1.0
 92
        9
 66
     7
 43
1.0
 76
     1
 77
     6
 78
     2
 67
     7
 79
     5
170
     0
171
     0
290
     0
174
     0
 93
        1
 44
0.0
173
     0
291
     1
 45
0.0
  0
VISUALSTYLE
  5
33
102
{ACAD_REACTORS
330
2A
102
}
102
{ACAD_XDICTIONARY
360
217
102
}
330
2A
100
AcDbVisualStyle
  2
Realistic
 70
     8
 71
     2
 72
     3
 73
     0
 90
        2
 40
0.6
 41
30.0
 62
     5
 63
     7
421
 16777215
 74
     0
 91
        0
 64
     7
 65
   257
 75
     1
175
     1
 42
1.0
 92
        8
 66
   257
 43
1.0
 76
     1
 77
     6
 78
     2
 67
     7
 79
     3
170
     0
171
     0
290
     0
174
     0
 93
       13
 44
0.0
173
     0
291
     0
 45
0.0
  0
VISUALSTYLE
  5
42
102
{ACAD_REACTORS
330
2A
102
}
102
{ACAD_XDICTIONARY
360
235
102
}
330
2A
100
AcDbVisualStyle
  2
Shaded
 70
    27
 71
     2
 72
     2
 73
     1
 90
        2
 40
0.6
 41
30.0
 62
     5
 63
     7
421
 16777215
 74
     0
 91
        4
 64
     7
 65
   257
 75
     1
175
     1
 42
1.0
 92
        8
 66
   257
 43
1.0
 76
     1
 77
     6
 78
     2
 67
     8
425
  7895160
 79
     3
170
     0
171
     0
290
     0
174
     0
 93
        5
 44
0.0
173
     0
291
     0
 45
0.0
  0
VISUALSTYLE
  5
41
102
{ACAD_REACTORS
330
2A
102
}
102
{ACAD_XDICTIONARY
360
233
102
}
330
2A
100
AcDbVisualStyle
  2
Shaded with edges
 70
    26
 71
     2
 72
     2
 73
     1
 90
        2
 40
0.6
 41
30.0
 62
     5
 63
     7
421
 16777215
 74
     1
 91
       10
 64
     7
 65
   257
 75
     2
175
     1
 42
1.0
 92
        8
 66
   257
 43
1.0
 76
     1
 77
     6
 78
     2
 67
     7
 79
     3
170
     0
171
     0
290
     0
174
     0
 93
        5
 44
0.0
173
     0
291
     0
 45
0.0
  0
VISUALSTYLE
  5
3E
102
{ACAD_REACTORS
330
2A
102
}
102
{ACAD_XDICTIONARY
360
22D
102
}
330
2A
100
AcDbVisualStyle
  2
Shades of Gray
 70
    23
 71
     2
 72
     2
 73
     3
 90
        0
 40
0.6
 41
30.0
 62
     5
 63
     7
421
 16777215
 74
     2
 91
        2
 64
     7
 65
     7
 75
     1
175
     1
 42
40.0
 92
        8
 66
     7
 43
1.0
 76
     1
 77
     6
 78
     2
 67
     7
 79
     3
170
     0
171
     0
290
     0
174
     0
 93
        1
 44
0.0
173
     0
291
     0
 45
0.0
  0
VISUALSTYLE
  5
3F
102
{ACAD_REACTORS
330
2A
102
}
102
{ACAD_XDICTIONARY
360
22F
102
}
330
2A
100
AcDbVisualStyle
  2
Sketchy
 70
    24
 71
     1
 72
     2
 73
     2
 90
        0
 40
0.6
 41
30.0
 62
     5
 63
     7
421
 16777215
 74
     2
 91
        2
 64
     7
 65
     7
 75
     1
175
     1
 42
40.0
 92
       11
 66
     7
 43
1.0
 76
     1
 77
     6
 78
     2
 67
     7
 79
     6
170
     0
171
     0
290
     0
174
     0
 93
        1
 44
0.0
173
     0
291
     0
 45
0.0
  0
VISUALSTYLE
  5
37
102
{ACAD_REACTORS
330
2A
102
}
102
{ACAD_XDICTIONARY
360
21F
102
}
330
2A
100
AcDbVisualStyle
  2
Thicken
 70
    13
 71
     2
 72
     2
 73
     0
 90
        0
 40
0.6
 41
30.0
 62
     5
 63
     7
421
 16777215
 74
     1
 91
        4
 64
     7
 65
   257
 75
     1
175
     1
 42
1.0
 92
       12
 66
     7
 43
1.0
 76
     1
 77
     6
 78
     2
 67
     7
 79
     5
170
     0
171
     0
290
     0
174
     0
 93
        1
 44
0.0
173
     0
291
     1
 45
0.0
  0
VISUALSTYLE
  5
30
102
{ACAD_REACTORS
330
2A
102
}
102
{ACAD_XDICTIONARY
360
211
102
}
330
2A
100
AcDbVisualStyle
  2
Wireframe
 70
     5
 71
     0
 72
     2
 73
     0
 90
        0
 40
0.6
 41
30.0
 62
     5
 63
     7
421
 16777215
 74
     1
 91
        4
 64
     7
 65
   257
 75
     1
175
     1
 42
1.0
 92
        0
 66
   257
 43
1.0
 76
     1
 77
     6
 78
     2
 67
     7
 79
     3
170
     0
171
     0
290
     0
174
     0
 93
        1
 44
0.0
173
     0
291
     0
 45
0.0
  0
VISUALSTYLE
  5
40
102
{ACAD_REACTORS
330
2A
102
}
102
{ACAD_XDICTIONARY
360
231
102
}
330
2A
100
AcDbVisualStyle
  2
X-Ray
 70
    25
 71
     2
 72
     2
 73
     1
 90
        1
 40
0.5
 41
30.0
 62
     5
 63
     7
421
 16777215
 74
     1
 91
        0
 64
     7
 65
   257
 75
     1
175
     1
 42
1.0
 92
        8
 66
     7
 43
1.0
 76
     1
 77
     6
 78
     2
 67
     7
 79
     3
170
     0
171
     0
290
     0
174
     0
 93
       13
 44
0.0
173
     0
291
     0
 45
0.0
  0
DICTIONARYVAR
  5
205
102
{ACAD_REACTORS
330
204
102
}
330
204
100
DictionaryVariables
280
     0
  1
1:1
  0
DICTIONARYVAR
  5
23E
102
{ACAD_REACTORS
330
204
102
}
330
204
100
DictionaryVariables
280
     0
  1
Standard
  0
DICTIONARYVAR
  5
23D
102
{ACAD_REACTORS
330
204
102
}
330
204
100
DictionaryVariables
280
     0
  1
Standard
  0
DICTIONARYVAR
  5
206
102
{ACAD_REACTORS
330
204
102
}
330
204
100
DictionaryVariables
280
     0
  1
2
  0
DICTIONARY
  5
23A
330
5C
100
AcDbDictionary
280
     1
281
     1
  3
ACAD_XREC_ROUNDTRIP
360
23B
  0
DICTIONARY
  5
237
330
5A
100
AcDbDictionary
280
     1
281
     1
  3
ACAD_ROUNDTRIP_2008_TABLESTYLE_CELLSTYLEMAP
360
238
  0
DICTIONARY
  5
20F
330
2F
100
AcDbDictionary
280
     1
281
     1
  3
ACAD_XREC_ROUNDTRIP
360
210
  0
DICTIONARY
  5
215
330
32
100
AcDbDictionary
280
     1
281
     1
  3
ACAD_XREC_ROUNDTRIP
360
216
  0
DICTIONARY
  5
21D
330
36
100
AcDbDictionary
280
     1
281
     1
  3
ACAD_XREC_ROUNDTRIP
360
21E
  0
DICTIONARY
  5
225
330
3A
100
AcDbDictionary
280
     1
281
     1
  3
ACAD_XREC_ROUNDTRIP
360
226
  0
DICTIONARY
  5
219
330
34
100
AcDbDictionary
280
     1
281
     1
  3
ACAD_XREC_ROUNDTRIP
360
21A
  0
DICTIONARY
  5
21B
330
35
100
AcDbDictionary
280
     1
281
     1
  3
ACAD_XREC_ROUNDTRIP
360
21C
  0
DICTIONARY
  5
22B
330
3D
100
AcDbDictionary
280
     1
281
     1
  3
ACAD_XREC_ROUNDTRIP
360
22C
  0
DICTIONARY
  5
223
330
39
100
AcDbDictionary
280
     1
281
     1
  3
ACAD_XREC_ROUNDTRIP
360
224
  0
DICTIONARY
  5
207
330
2B
100
AcDbDictionary
280
     1
281
     1
  3
ACAD_XREC_ROUNDTRIP
360
208
  0
DICTIONARY
  5
209
330
2C
100
AcDbDictionary
280
     1
281
     1
  3
ACAD_XREC_ROUNDTRIP
360
20A
  0
DICTIONARY
  5
20B
330
2D
100
AcDbDictionary
280
     1
281
     1
  3
ACAD_XREC_ROUNDTRIP
360
20C
  0
DICTIONARY
  5
20D
330
2E
100
AcDbDictionary
280
     1
281
     1
  3
ACAD_XREC_ROUNDTRIP
360
20E
  0
DICTIONARY
  5
213
330
31
100
AcDbDictionary
280
     1
281
     1
  3
ACAD_XREC_ROUNDTRIP
360
214
  0
DICTIONARY
  5
227
330
3B
100
AcDbDictionary
280
     1
281
     1
  3
ACAD_XREC_ROUNDTRIP
360
228
  0
DICTIONARY
  5
221
330
38
100
AcDbDictionary
280
     1
281
     1
  3
ACAD_XREC_ROUNDTRIP
360
222
  0
DICTIONARY
  5
229
330
3C
100
AcDbDictionary
280
     1
281
     1
  3
ACAD_XREC_ROUNDTRIP
360
22A
  0
DICTIONARY
  5
217
330
33
100
AcDbDictionary
280
     1
281
     1
  3
ACAD_XREC_ROUNDTRIP
360
218
  0
DICTIONARY
  5
235
330
42
100
AcDbDictionary
280
     1
281
     1
  3
ACAD_XREC_ROUNDTRIP
360
236
  0
DICTIONARY
  5
233
330
41
100
AcDbDictionary
280
     1
281
     1
  3
ACAD_XREC_ROUNDTRIP
360
234
  0
DICTIONARY
  5
22D
330
3E
100
AcDbDictionary
280
     1
281
     1
  3
ACAD_XREC_ROUNDTRIP
360
22E
  0
DICTIONARY
  5
22F
330
3F
100
AcDbDictionary
280
     1
281
     1
  3
ACAD_XREC_ROUNDTRIP
360
230
  0
DICTIONARY
  5
21F
330
37
100
AcDbDictionary
280
     1
281
     1
  3
ACAD_XREC_ROUNDTRIP
360
220
  0
DICTIONARY
  5
211
330
30
100
AcDbDictionary
280
     1
281
     1
  3
ACAD_XREC_ROUNDTRIP
360
212
  0
DICTIONARY
  5
231
330
40
100
AcDbDictionary
280
     1
281
     1
  3
ACAD_XREC_ROUNDTRIP
360
232
  0
XRECORD
  5
23B
102
{ACAD_REACTORS
330
23A
102
}
330
23A
100
AcDbXrecord
280
     1
102
ACAD_ROUNDTRIP_2010_MLEADER_STYLE
  0
CELLSTYLEMAP
  5
238
102
{ACAD_REACTORS
330
237
102
}
330
237
100
AcDbCellStyleMap
 90
        3
300
CELLSTYLE
  1
TABLEFORMAT_BEGIN
 90
        5
170
     1
 91
        0
 92
    32768
 62
   257
 93
        1
300
CONTENTFORMAT
  1
CONTENTFORMAT_BEGIN
 90
        0
 91
        0
 92
        4
 93
        0
300

 40
0.0
140
1.0
 94
        5
 62
     0
340
11
144
0.25
309
CONTENTFORMAT_END
171
     1
301
MARGIN
  1
CELLMARGIN_BEGIN
 40
0.06
 40
0.06
 40
0.06
 40
0.06
 40
0.06
 40
0.06
309
CELLMARGIN_END
 94
        6
 95
        1
302
GRIDFORMAT
  1
GRIDFORMAT_BEGIN
 90
        0
 91
        1
 62
     0
 92
       -2
340
14
 93
        0
 40
0.045
309
GRIDFORMAT_END
 95
        2
302
GRIDFORMAT
  1
GRIDFORMAT_BEGIN
 90
        0
 91
        1
 62
     0
 92
       -2
340
14
 93
        0
 40
0.045
309
GRIDFORMAT_END
 95
        4
302
GRIDFORMAT
  1
GRIDFORMAT_BEGIN
 90
        0
 91
        1
 62
     0
 92
       -2
340
14
 93
        0
 40
0.045
309
GRIDFORMAT_END
 95
        8
302
GRIDFORMAT
  1
GRIDFORMAT_BEGIN
 90
        0
 91
        1
 62
     0
 92
       -2
340
14
 93
        0
 40
0.045
309
GRIDFORMAT_END
 95
       16
302
GRIDFORMAT
  1
GRIDFORMAT_BEGIN
 90
        0
 91
        1
 62
     0
 92
       -2
340
14
 93
        0
 40
0.045
309
GRIDFORMAT_END
 95
       32
302
GRIDFORMAT
  1
GRIDFORMAT_BEGIN
 90
        0
 91
        1
 62
     0
 92
       -2
340
14
 93
        0
 40
0.045
309
GRIDFORMAT_END
309
TABLEFORMAT_END
  1
CELLSTYLE_BEGIN
 90
        1
 91
        1
300
_TITLE
309
CELLSTYLE_END
300
CELLSTYLE
  1
TABLEFORMAT_BEGIN
 90
        5
170
     1
 91
        0
 92
        0
 62
   257
 93
        1
300
CONTENTFORMAT
  1
CONTENTFORMAT_BEGIN
 90
        0
 91
        0
 92
        4
 93
        0
300

 40
0.0
140
1.0
 94
        5
 62
     0
340
11
144
0.18
309
CONTENTFORMAT_END
171
     1
301
MARGIN
  1
CELLMARGIN_BEGIN
 40
0.06
 40
0.06
 40
0.06
 40
0.06
 40
0.06
 40
0.06
309
CELLMARGIN_END
 94
        6
 95
        1
302
GRIDFORMAT
  1
GRIDFORMAT_BEGIN
 90
        0
 91
        1
 62
     0
 92
       -2
340
14
 93
        0
 40
0.045
309
GRIDFORMAT_END
 95
        2
302
GRIDFORMAT
  1
GRIDFORMAT_BEGIN
 90
        0
 91
        1
 62
     0
 92
       -2
340
14
 93
        0
 40
0.045
309
GRIDFORMAT_END
 95
        4
302
GRIDFORMAT
  1
GRIDFORMAT_BEGIN
 90
        0
 91
        1
 62
     0
 92
       -2
340
14
 93
        0
 40
0.045
309
GRIDFORMAT_END
 95
        8
302
GRIDFORMAT
  1
GRIDFORMAT_BEGIN
 90
        0
 91
        1
 62
     0
 92
       -2
340
14
 93
        0
 40
0.045
309
GRIDFORMAT_END
 95
       16
302
GRIDFORMAT
  1
GRIDFORMAT_BEGIN
 90
        0
 91
        1
 62
     0
 92
       -2
340
14
 93
        0
 40
0.045
309
GRIDFORMAT_END
 95
       32
302
GRIDFORMAT
  1
GRIDFORMAT_BEGIN
 90
        0
 91
        1
 62
     0
 92
       -2
340
14
 93
        0
 40
0.045
309
GRIDFORMAT_END
309
TABLEFORMAT_END
  1
CELLSTYLE_BEGIN
 90
        2
 91
        1
300
_HEADER
309
CELLSTYLE_END
300
CELLSTYLE
  1
TABLEFORMAT_BEGIN
 90
        5
170
     1
 91
        0
 92
        0
 62
   257
 93
        1
300
CONTENTFORMAT
  1
CONTENTFORMAT_BEGIN
 90
        0
 91
        0
 92
        4
 93
        0
300

 40
0.0
140
1.0
 94
        2
 62
     0
340
11
144
0.18
309
CONTENTFORMAT_END
171
     1
301
MARGIN
  1
CELLMARGIN_BEGIN
 40
0.06
 40
0.06
 40
0.06
 40
0.06
 40
0.06
 40
0.06
309
CELLMARGIN_END
 94
        6
 95
        1
302
GRIDFORMAT
  1
GRIDFORMAT_BEGIN
 90
        0
 91
        1
 62
     0
 92
       -2
340
14
 93
        0
 40
0.045
309
GRIDFORMAT_END
 95
        2
302
GRIDFORMAT
  1
GRIDFORMAT_BEGIN
 90
        0
 91
        1
 62
     0
 92
       -2
340
14
 93
        0
 40
0.045
309
GRIDFORMAT_END
 95
        4
302
GRIDFORMAT
  1
GRIDFORMAT_BEGIN
 90
        0
 91
        1
 62
     0
 92
       -2
340
14
 93
        0
 40
0.045
309
GRIDFORMAT_END
 95
        8
302
GRIDFORMAT
  1
GRIDFORMAT_BEGIN
 90
        0
 91
        1
 62
     0
 92
       -2
340
14
 93
        0
 40
0.045
309
GRIDFORMAT_END
 95
       16
302
GRIDFORMAT
  1
GRIDFORMAT_BEGIN
 90
        0
 91
        1
 62
     0
 92
       -2
340
14
 93
        0
 40
0.045
309
GRIDFORMAT_END
 95
       32
302
GRIDFORMAT
  1
GRIDFORMAT_BEGIN
 90
        0
 91
        1
 62
     0
 92
       -2
340
14
 93
        0
 40
0.045
309
GRIDFORMAT_END
309
TABLEFORMAT_END
  1
CELLSTYLE_BEGIN
 90
        3
 91
        2
300
_DATA
309
CELLSTYLE_END
  0
XRECORD
  5
210
102
{ACAD_REACTORS
330
20F
102
}
330
20F
100
AcDbXrecord
280
     1
102
RTVSPropertyOp0
 70
     1
102
RTVSPropertyOp1
 70
     1
102
RTVSPropertyOp2
 70
     1
102
RTVSPropertyOp3
 70
     1
102
RTVSPropertyOp4
 70
     1
102
RTVSPropertyOp5
 70
     1
102
RTVSPropertyOp6
 70
     1
102
RTVSPropertyOp7
 70
     1
102
RTVSPropertyOp8
 70
     1
102
RTVSPropertyOp9
 70
     1
102
RTVSPropertyOp10
 70
     1
102
RTVSPropertyOp11
 70
     1
102
RTVSPropertyOp12
 70
     1
102
RTVSPropertyOp13
 70
     1
102
RTVSPropertyOp14
 70
     1
102
RTVSPropertyOp15
 70
     1
102
RTVSPropertyOp16
 70
     1
102
RTVSPropertyOp17
 70
     1
102
RTVSPropertyOp18
 70
     1
102
RTVSPropertyOp19
 70
     1
102
RTVSPropertyOp20
 70
     1
102
RTVSPropertyOp21
 70
     1
102
RTVSPropertyOp22
 70
     1
102
RTVSPropertyOp23
 70
     1
102
RTVSPropertyOp24
 70
     1
102
RTVSPropertyOp25
 70
     1
102
RTVSPropertyOp26
 70
     1
102
RTVSPropertyOp27
 70
     1
102
RTVSPropertyOp28
 70
     1
102
RTVSPropertyOp29
 70
     1
102
RTVSPropertyOp30
 70
     1
102
RTVSPropertyOp31
 70
     1
102
RTVSPropertyOp32
 70
     1
102
RTVSPropertyOp33
 70
     1
102
RTVSPropertyOp34
 70
     1
102
RTVSPropertyOp35
 70
     1
102
RTVSPropertyOp36
 70
     1
102
RTVSPropertyOp37
 70
     1
102
RTVSPropertyOp38
 70
     1
102
RTVSPropertyOp39
 70
     1
102
RTVSPropertyOp40
 70
     1
102
RTVSPropertyOp41
 70
     1
102
RTVSPropertyOp42
 70
     1
102
RTVSPropertyOp43
 70
     1
102
RTVSPropertyOp44
 70
     1
102
RTVSPropertyOp45
 70
     1
102
RTVSPropertyOp46
 70
     1
102
RTVSPropertyOp47
 70
     1
102
RTVSPropertyOp48
 70
     1
102
RTVSPropertyOp49
 70
     1
102
RTVSPropertyOp50
 70
     1
102
RTVSPropertyOp51
 70
     0
102
RTVSPropertyOp52
 70
     0
102
RTVSPropertyOp53
 70
     1
102
RTVSPropertyOp54
 70
     1
102
RTVSPropertyOp55
 70
     1
102
RTVSPropertyOp56
 70
     1
102
RTVSPropertyOp57
 70
     1
102
RTVSPost2010Prop28
280
     1
102
RTVSPost2010PropOp28
 70
     1
102
RTVSPost2010Prop29
280
     1
102
RTVSPost2010PropOp29
 70
     1
102
RTVSPost2010Prop30
280
     0
102
RTVSPost2010PropOp30
 70
     1
102
RTVSPost2010Prop31
280
     0
102
RTVSPost2010PropOp31
 70
     1
102
RTVSPost2010Prop32
280
     0
102
RTVSPost2010PropOp32
 70
     1
102
RTVSPost2010Prop33
280
     0
102
RTVSPost2010PropOp33
 70
     1
102
RTVSPost2010Prop34
280
     0
102
RTVSPost2010PropOp34
 70
     1
102
RTVSPost2010Prop35
280
     0
102
RTVSPost2010PropOp35
 70
     1
102
RTVSPost2010Prop36
280
     0
102
RTVSPost2010PropOp36
 70
     1
102
RTVSPost2010Prop37
 90
       50
102
RTVSPost2010PropOp37
 70
     1
102
RTVSPost2010Prop38
140
0.0
102
RTVSPost2010PropOp38
 70
     1
102
RTVSPost2010Prop39
140
1.0
102
RTVSPost2010PropOp39
 70
     1
102
RTVSPost2010Prop40
 90
        0
102
RTVSPost2010PropOp40
 70
     1
102
RTVSPost2010Prop41ColorIndex
 90
       18
102
RTVSPost2010Prop41ColorRGB
 90
        0
102
RTVSPost2010PropOp41
 70
     1
102
RTVSPost2010Prop42
 90
       50
102
RTVSPost2010PropOp42
 70
     1
102
RTVSPost2010Prop43
 90
        3
102
RTVSPost2010PropOp43
 70
     1
102
RTVSPost2010Prop44ColorIndex
 90
        5
102
RTVSPost2010Prop44ColorRGB
 90
      255
102
RTVSPost2010PropOp44
 70
     1
102
RTVSPost2010Prop45
280
     0
102
RTVSPost2010PropOp45
 70
     1
102
RTVSPost2010Prop46
 90
       50
102
RTVSPost2010PropOp46
 70
     1
102
RTVSPost2010Prop47
 90
       50
102
RTVSPost2010PropOp47
 70
     1
102
RTVSPost2010Prop48
 90
       50
102
RTVSPost2010PropOp48
 70
     1
102
RTVSPost2010Prop49
280
     0
102
RTVSPost2010PropOp49
 70
     1
102
RTVSPost2010Prop50
 90
       50
102
RTVSPost2010PropOp50
 70
     1
102
RTVSPost2010Prop51ColorIndex
 90
      256
102
RTVSPost2010Prop51ColorRGB
 90
-16777216
102
RTVSPost2010PropOp51
 70
     0
102
RTVSPost2010Prop52
140
1.0
102
RTVSPost2010PropOp52
 70
     0
102
RTVSPost2010Prop53
 90
        2
102
RTVSPost2010PropOp53
 70
     1
102
RTVSPost2010Prop54
  1
strokes_ogs.tif
102
RTVSPost2010PropOp54
 70
     1
102
RTVSPost2010Prop55
280
     0
102
RTVSPost2010PropOp55
 70
     1
102
RTVSPost2010Prop56
140
1.0
102
RTVSPost2010PropOp56
 70
     1
102
RTVSPost2010Prop57
140
1.0
102
RTVSPost2010PropOp57
 70
     1
  0
XRECORD
  5
216
102
{ACAD_REACTORS
330
215
102
}
330
215
100
AcDbXrecord
280
     1
102
RTVSPropertyOp0
 70
     1
102
RTVSPropertyOp1
 70
     1
102
RTVSPropertyOp2
 70
     1
102
RTVSPropertyOp3
 70
     1
102
RTVSPropertyOp4
 70
     1
102
RTVSPropertyOp5
 70
     1
102
RTVSPropertyOp6
 70
     1
102
RTVSPropertyOp7
 70
     1
102
RTVSPropertyOp8
 70
     1
102
RTVSPropertyOp9
 70
     1
102
RTVSPropertyOp10
 70
     1
102
RTVSPropertyOp11
 70
     1
102
RTVSPropertyOp12
 70
     1
102
RTVSPropertyOp13
 70
     1
102
RTVSPropertyOp14
 70
     1
102
RTVSPropertyOp15
 70
     1
102
RTVSPropertyOp16
 70
     1
102
RTVSPropertyOp17
 70
     1
102
RTVSPropertyOp18
 70
     1
102
RTVSPropertyOp19
 70
     1
102
RTVSPropertyOp20
 70
     1
102
RTVSPropertyOp21
 70
     1
102
RTVSPropertyOp22
 70
     1
102
RTVSPropertyOp23
 70
     1
102
RTVSPropertyOp24
 70
     1
102
RTVSPropertyOp25
 70
     1
102
RTVSPropertyOp26
 70
     1
102
RTVSPropertyOp27
 70
     1
102
RTVSPropertyOp28
 70
     1
102
RTVSPropertyOp29
 70
     1
102
RTVSPropertyOp30
 70
     1
102
RTVSPropertyOp31
 70
     1
102
RTVSPropertyOp32
 70
     1
102
RTVSPropertyOp33
 70
     1
102
RTVSPropertyOp34
 70
     1
102
RTVSPropertyOp35
 70
     1
102
RTVSPropertyOp36
 70
     1
102
RTVSPropertyOp37
 70
     1
102
RTVSPropertyOp38
 70
     1
102
RTVSPropertyOp39
 70
     1
102
RTVSPropertyOp40
 70
     1
102
RTVSPropertyOp41
 70
     1
102
RTVSPropertyOp42
 70
     1
102
RTVSPropertyOp43
 70
     1
102
RTVSPropertyOp44
 70
     1
102
RTVSPropertyOp45
 70
     1
102
RTVSPropertyOp46
 70
     1
102
RTVSPropertyOp47
 70
     1
102
RTVSPropertyOp48
 70
     1
102
RTVSPropertyOp49
 70
     1
102
RTVSPropertyOp50
 70
     1
102
RTVSPropertyOp51
 70
     0
102
RTVSPropertyOp52
 70
     0
102
RTVSPropertyOp53
 70
     1
102
RTVSPropertyOp54
 70
     1
102
RTVSPropertyOp55
 70
     1
102
RTVSPropertyOp56
 70
     1
102
RTVSPropertyOp57
 70
     1
102
RTVSPost2010Prop28
280
     0
102
RTVSPost2010PropOp28
 70
     1
102
RTVSPost2010Prop29
280
     1
102
RTVSPost2010PropOp29
 70
     1
102
RTVSPost2010Prop30
280
     1
102
RTVSPost2010PropOp30
 70
     1
102
RTVSPost2010Prop31
280
     0
102
RTVSPost2010PropOp31
 70
     1
102
RTVSPost2010Prop32
280
     0
102
RTVSPost2010PropOp32
 70
     1
102
RTVSPost2010Prop33
280
     0
102
RTVSPost2010PropOp33
 70
     1
102
RTVSPost2010Prop34
280
     0
102
RTVSPost2010PropOp34
 70
     1
102
RTVSPost2010Prop35
280
     0
102
RTVSPost2010PropOp35
 70
     1
102
RTVSPost2010Prop36
280
     0
102
RTVSPost2010PropOp36
 70
     1
102
RTVSPost2010Prop37
 90
       50
102
RTVSPost2010PropOp37
 70
     1
102
RTVSPost2010Prop38
140
0.0
102
RTVSPost2010PropOp38
 70
     1
102
RTVSPost2010Prop39
140
1.0
102
RTVSPost2010PropOp39
 70
     1
102
RTVSPost2010Prop40
 90
        0
102
RTVSPost2010PropOp40
 70
     1
102
RTVSPost2010Prop41ColorIndex
 90
       18
102
RTVSPost2010Prop41ColorRGB
 90
        0
102
RTVSPost2010PropOp41
 70
     1
102
RTVSPost2010Prop42
 90
       50
102
RTVSPost2010PropOp42
 70
     1
102
RTVSPost2010Prop43
 90
        3
102
RTVSPost2010PropOp43
 70
     1
102
RTVSPost2010Prop44ColorIndex
 90
        5
102
RTVSPost2010Prop44ColorRGB
 90
      255
102
RTVSPost2010PropOp44
 70
     1
102
RTVSPost2010Prop45
280
     0
102
RTVSPost2010PropOp45
 70
     1
102
RTVSPost2010Prop46
 90
       50
102
RTVSPost2010PropOp46
 70
     1
102
RTVSPost2010Prop47
 90
       50
102
RTVSPost2010PropOp47
 70
     1
102
RTVSPost2010Prop48
 90
       50
102
RTVSPost2010PropOp48
 70
     1
102
RTVSPost2010Prop49
280
     0
102
RTVSPost2010PropOp49
 70
     1
102
RTVSPost2010Prop50
 90
       50
102
RTVSPost2010PropOp50
 70
     1
102
RTVSPost2010Prop51ColorIndex
 90
      256
102
RTVSPost2010Prop51ColorRGB
 90
-16777216
102
RTVSPost2010PropOp51
 70
     0
102
RTVSPost2010Prop52
140
1.0
102
RTVSPost2010PropOp52
 70
     0
102
RTVSPost2010Prop53
 90
        2
102
RTVSPost2010PropOp53
 70
     1
102
RTVSPost2010Prop54
  1
strokes_ogs.tif
102
RTVSPost2010PropOp54
 70
     1
102
RTVSPost2010Prop55
280
     0
102
RTVSPost2010PropOp55
 70
     1
102
RTVSPost2010Prop56
140
1.0
102
RTVSPost2010PropOp56
 70
     1
102
RTVSPost2010Prop57
140
1.0
102
RTVSPost2010PropOp57
 70
     1
  0
XRECORD
  5
21E
102
{ACAD_REACTORS
330
21D
102
}
330
21D
100
AcDbXrecord
280
     1
102
RTVSPropertyOp0
 70
     1
102
RTVSPropertyOp1
 70
     1
102
RTVSPropertyOp2
 70
     1
102
RTVSPropertyOp3
 70
     1
102
RTVSPropertyOp4
 70
     1
102
RTVSPropertyOp5
 70
     1
102
RTVSPropertyOp6
 70
     1
102
RTVSPropertyOp7
 70
     1
102
RTVSPropertyOp8
 70
     1
102
RTVSPropertyOp9
 70
     1
102
RTVSPropertyOp10
 70
     1
102
RTVSPropertyOp11
 70
     1
102
RTVSPropertyOp12
 70
     1
102
RTVSPropertyOp13
 70
     1
102
RTVSPropertyOp14
 70
     1
102
RTVSPropertyOp15
 70
     1
102
RTVSPropertyOp16
 70
     1
102
RTVSPropertyOp17
 70
     1
102
RTVSPropertyOp18
 70
     1
102
RTVSPropertyOp19
 70
     1
102
RTVSPropertyOp20
 70
     1
102
RTVSPropertyOp21
 70
     1
102
RTVSPropertyOp22
 70
     1
102
RTVSPropertyOp23
 70
     1
102
RTVSPropertyOp24
 70
     1
102
RTVSPropertyOp25
 70
     1
102
RTVSPropertyOp26
 70
     1
102
RTVSPropertyOp27
 70
     1
102
RTVSPropertyOp28
 70
     1
102
RTVSPropertyOp29
 70
     1
102
RTVSPropertyOp30
 70
     1
102
RTVSPropertyOp31
 70
     1
102
RTVSPropertyOp32
 70
     1
102
RTVSPropertyOp33
 70
     1
102
RTVSPropertyOp34
 70
     1
102
RTVSPropertyOp35
 70
     1
102
RTVSPropertyOp36
 70
     1
102
RTVSPropertyOp37
 70
     1
102
RTVSPropertyOp38
 70
     1
102
RTVSPropertyOp39
 70
     1
102
RTVSPropertyOp40
 70
     1
102
RTVSPropertyOp41
 70
     1
102
RTVSPropertyOp42
 70
     1
102
RTVSPropertyOp43
 70
     1
102
RTVSPropertyOp44
 70
     1
102
RTVSPropertyOp45
 70
     1
102
RTVSPropertyOp46
 70
     1
102
RTVSPropertyOp47
 70
     1
102
RTVSPropertyOp48
 70
     1
102
RTVSPropertyOp49
 70
     1
102
RTVSPropertyOp50
 70
     1
102
RTVSPropertyOp51
 70
     0
102
RTVSPropertyOp52
 70
     0
102
RTVSPropertyOp53
 70
     1
102
RTVSPropertyOp54
 70
     1
102
RTVSPropertyOp55
 70
     1
102
RTVSPropertyOp56
 70
     1
102
RTVSPropertyOp57
 70
     1
102
RTVSPost2010Prop28
280
     0
102
RTVSPost2010PropOp28
 70
     1
102
RTVSPost2010Prop29
280
     1
102
RTVSPost2010PropOp29
 70
     1
102
RTVSPost2010Prop30
280
     1
102
RTVSPost2010PropOp30
 70
     1
102
RTVSPost2010Prop31
280
     0
102
RTVSPost2010PropOp31
 70
     1
102
RTVSPost2010Prop32
280
     0
102
RTVSPost2010PropOp32
 70
     1
102
RTVSPost2010Prop33
280
     0
102
RTVSPost2010PropOp33
 70
     1
102
RTVSPost2010Prop34
280
     0
102
RTVSPost2010PropOp34
 70
     1
102
RTVSPost2010Prop35
280
     0
102
RTVSPost2010PropOp35
 70
     1
102
RTVSPost2010Prop36
280
     0
102
RTVSPost2010PropOp36
 70
     1
102
RTVSPost2010Prop37
 90
       50
102
RTVSPost2010PropOp37
 70
     1
102
RTVSPost2010Prop38
140
0.0
102
RTVSPost2010PropOp38
 70
     1
102
RTVSPost2010Prop39
140
1.0
102
RTVSPost2010PropOp39
 70
     1
102
RTVSPost2010Prop40
 90
        0
102
RTVSPost2010PropOp40
 70
     1
102
RTVSPost2010Prop41ColorIndex
 90
       18
102
RTVSPost2010Prop41ColorRGB
 90
        0
102
RTVSPost2010PropOp41
 70
     1
102
RTVSPost2010Prop42
 90
       50
102
RTVSPost2010PropOp42
 70
     1
102
RTVSPost2010Prop43
 90
        3
102
RTVSPost2010PropOp43
 70
     1
102
RTVSPost2010Prop44ColorIndex
 90
        5
102
RTVSPost2010Prop44ColorRGB
 90
      255
102
RTVSPost2010PropOp44
 70
     1
102
RTVSPost2010Prop45
280
     0
102
RTVSPost2010PropOp45
 70
     1
102
RTVSPost2010Prop46
 90
       50
102
RTVSPost2010PropOp46
 70
     1
102
RTVSPost2010Prop47
 90
       50
102
RTVSPost2010PropOp47
 70
     1
102
RTVSPost2010Prop48
 90
       50
102
RTVSPost2010PropOp48
 70
     1
102
RTVSPost2010Prop49
280
     0
102
RTVSPost2010PropOp49
 70
     1
102
RTVSPost2010Prop50
 90
       50
102
RTVSPost2010PropOp50
 70
     1
102
RTVSPost2010Prop51ColorIndex
 90
      256
102
RTVSPost2010Prop51ColorRGB
 90
-16777216
102
RTVSPost2010PropOp51
 70
     0
102
RTVSPost2010Prop52
140
1.0
102
RTVSPost2010PropOp52
 70
     0
102
RTVSPost2010Prop53
 90
        2
102
RTVSPost2010PropOp53
 70
     1
102
RTVSPost2010Prop54
  1
strokes_ogs.tif
102
RTVSPost2010PropOp54
 70
     1
102
RTVSPost2010Prop55
280
     0
102
RTVSPost2010PropOp55
 70
     1
102
RTVSPost2010Prop56
140
1.0
102
RTVSPost2010PropOp56
 70
     1
102
RTVSPost2010Prop57
140
1.0
102
RTVSPost2010PropOp57
 70
     1
  0
XRECORD
  5
226
102
{ACAD_REACTORS
330
225
102
}
330
225
100
AcDbXrecord
280
     1
102
RTVSPropertyOp0
 70
     1
102
RTVSPropertyOp1
 70
     1
102
RTVSPropertyOp2
 70
     1
102
RTVSPropertyOp3
 70
     1
102
RTVSPropertyOp4
 70
     1
102
RTVSPropertyOp5
 70
     1
102
RTVSPropertyOp6
 70
     1
102
RTVSPropertyOp7
 70
     1
102
RTVSPropertyOp8
 70
     1
102
RTVSPropertyOp9
 70
     1
102
RTVSPropertyOp10
 70
     1
102
RTVSPropertyOp11
 70
     1
102
RTVSPropertyOp12
 70
     1
102
RTVSPropertyOp13
 70
     1
102
RTVSPropertyOp14
 70
     1
102
RTVSPropertyOp15
 70
     1
102
RTVSPropertyOp16
 70
     1
102
RTVSPropertyOp17
 70
     1
102
RTVSPropertyOp18
 70
     1
102
RTVSPropertyOp19
 70
     1
102
RTVSPropertyOp20
 70
     1
102
RTVSPropertyOp21
 70
     1
102
RTVSPropertyOp22
 70
     1
102
RTVSPropertyOp23
 70
     1
102
RTVSPropertyOp24
 70
     1
102
RTVSPropertyOp25
 70
     1
102
RTVSPropertyOp26
 70
     1
102
RTVSPropertyOp27
 70
     1
102
RTVSPropertyOp28
 70
     1
102
RTVSPropertyOp29
 70
     1
102
RTVSPropertyOp30
 70
     1
102
RTVSPropertyOp31
 70
     1
102
RTVSPropertyOp32
 70
     1
102
RTVSPropertyOp33
 70
     1
102
RTVSPropertyOp34
 70
     1
102
RTVSPropertyOp35
 70
     1
102
RTVSPropertyOp36
 70
     1
102
RTVSPropertyOp37
 70
     1
102
RTVSPropertyOp38
 70
     1
102
RTVSPropertyOp39
 70
     1
102
RTVSPropertyOp40
 70
     1
102
RTVSPropertyOp41
 70
     1
102
RTVSPropertyOp42
 70
     1
102
RTVSPropertyOp43
 70
     1
102
RTVSPropertyOp44
 70
     1
102
RTVSPropertyOp45
 70
     1
102
RTVSPropertyOp46
 70
     1
102
RTVSPropertyOp47
 70
     1
102
RTVSPropertyOp48
 70
     1
102
RTVSPropertyOp49
 70
     1
102
RTVSPropertyOp50
 70
     1
102
RTVSPropertyOp51
 70
     0
102
RTVSPropertyOp52
 70
     0
102
RTVSPropertyOp53
 70
     1
102
RTVSPropertyOp54
 70
     1
102
RTVSPropertyOp55
 70
     1
102
RTVSPropertyOp56
 70
     1
102
RTVSPropertyOp57
 70
     1
102
RTVSPost2010Prop28
280
     0
102
RTVSPost2010PropOp28
 70
     1
102
RTVSPost2010Prop29
280
     1
102
RTVSPost2010PropOp29
 70
     1
102
RTVSPost2010Prop30
280
     1
102
RTVSPost2010PropOp30
 70
     1
102
RTVSPost2010Prop31
280
     0
102
RTVSPost2010PropOp31
 70
     1
102
RTVSPost2010Prop32
280
     0
102
RTVSPost2010PropOp32
 70
     1
102
RTVSPost2010Prop33
280
     0
102
RTVSPost2010PropOp33
 70
     1
102
RTVSPost2010Prop34
280
     0
102
RTVSPost2010PropOp34
 70
     1
102
RTVSPost2010Prop35
280
     0
102
RTVSPost2010PropOp35
 70
     1
102
RTVSPost2010Prop36
280
     0
102
RTVSPost2010PropOp36
 70
     1
102
RTVSPost2010Prop37
 90
       50
102
RTVSPost2010PropOp37
 70
     1
102
RTVSPost2010Prop38
140
0.0
102
RTVSPost2010PropOp38
 70
     1
102
RTVSPost2010Prop39
140
1.0
102
RTVSPost2010PropOp39
 70
     1
102
RTVSPost2010Prop40
 90
        0
102
RTVSPost2010PropOp40
 70
     1
102
RTVSPost2010Prop41ColorIndex
 90
       18
102
RTVSPost2010Prop41ColorRGB
 90
        0
102
RTVSPost2010PropOp41
 70
     1
102
RTVSPost2010Prop42
 90
       50
102
RTVSPost2010PropOp42
 70
     1
102
RTVSPost2010Prop43
 90
        3
102
RTVSPost2010PropOp43
 70
     1
102
RTVSPost2010Prop44ColorIndex
 90
        5
102
RTVSPost2010Prop44ColorRGB
 90
      255
102
RTVSPost2010PropOp44
 70
     1
102
RTVSPost2010Prop45
280
     0
102
RTVSPost2010PropOp45
 70
     1
102
RTVSPost2010Prop46
 90
       50
102
RTVSPost2010PropOp46
 70
     1
102
RTVSPost2010Prop47
 90
       50
102
RTVSPost2010PropOp47
 70
     1
102
RTVSPost2010Prop48
 90
       50
102
RTVSPost2010PropOp48
 70
     1
102
RTVSPost2010Prop49
280
     0
102
RTVSPost2010PropOp49
 70
     1
102
RTVSPost2010Prop50
 90
       50
102
RTVSPost2010PropOp50
 70
     1
102
RTVSPost2010Prop51ColorIndex
 90
      256
102
RTVSPost2010Prop51ColorRGB
 90
-16777216
102
RTVSPost2010PropOp51
 70
     0
102
RTVSPost2010Prop52
140
1.0
102
RTVSPost2010PropOp52
 70
     0
102
RTVSPost2010Prop53
 90
        2
102
RTVSPost2010PropOp53
 70
     1
102
RTVSPost2010Prop54
  1
strokes_ogs.tif
102
RTVSPost2010PropOp54
 70
     1
102
RTVSPost2010Prop55
280
     0
102
RTVSPost2010PropOp55
 70
     1
102
RTVSPost2010Prop56
140
1.0
102
RTVSPost2010PropOp56
 70
     1
102
RTVSPost2010Prop57
140
1.0
102
RTVSPost2010PropOp57
 70
     1
  0
XRECORD
  5
21A
102
{ACAD_REACTORS
330
219
102
}
330
219
100
AcDbXrecord
280
     1
102
RTVSPropertyOp0
 70
     1
102
RTVSPropertyOp1
 70
     1
102
RTVSPropertyOp2
 70
     1
102
RTVSPropertyOp3
 70
     1
102
RTVSPropertyOp4
 70
     1
102
RTVSPropertyOp5
 70
     1
102
RTVSPropertyOp6
 70
     1
102
RTVSPropertyOp7
 70
     1
102
RTVSPropertyOp8
 70
     1
102
RTVSPropertyOp9
 70
     1
102
RTVSPropertyOp10
 70
     1
102
RTVSPropertyOp11
 70
     1
102
RTVSPropertyOp12
 70
     1
102
RTVSPropertyOp13
 70
     1
102
RTVSPropertyOp14
 70
     1
102
RTVSPropertyOp15
 70
     1
102
RTVSPropertyOp16
 70
     1
102
RTVSPropertyOp17
 70
     1
102
RTVSPropertyOp18
 70
     1
102
RTVSPropertyOp19
 70
     1
102
RTVSPropertyOp20
 70
     1
102
RTVSPropertyOp21
 70
     1
102
RTVSPropertyOp22
 70
     1
102
RTVSPropertyOp23
 70
     1
102
RTVSPropertyOp24
 70
     1
102
RTVSPropertyOp25
 70
     1
102
RTVSPropertyOp26
 70
     1
102
RTVSPropertyOp27
 70
     1
102
RTVSPropertyOp28
 70
     1
102
RTVSPropertyOp29
 70
     1
102
RTVSPropertyOp30
 70
     1
102
RTVSPropertyOp31
 70
     1
102
RTVSPropertyOp32
 70
     1
102
RTVSPropertyOp33
 70
     1
102
RTVSPropertyOp34
 70
     1
102
RTVSPropertyOp35
 70
     1
102
RTVSPropertyOp36
 70
     1
102
RTVSPropertyOp37
 70
     1
102
RTVSPropertyOp38
 70
     1
102
RTVSPropertyOp39
 70
     1
102
RTVSPropertyOp40
 70
     1
102
RTVSPropertyOp41
 70
     1
102
RTVSPropertyOp42
 70
     1
102
RTVSPropertyOp43
 70
     1
102
RTVSPropertyOp44
 70
     1
102
RTVSPropertyOp45
 70
     1
102
RTVSPropertyOp46
 70
     1
102
RTVSPropertyOp47
 70
     1
102
RTVSPropertyOp48
 70
     1
102
RTVSPropertyOp49
 70
     1
102
RTVSPropertyOp50
 70
     1
102
RTVSPropertyOp51
 70
     0
102
RTVSPropertyOp52
 70
     0
102
RTVSPropertyOp53
 70
     1
102
RTVSPropertyOp54
 70
     1
102
RTVSPropertyOp55
 70
     1
102
RTVSPropertyOp56
 70
     1
102
RTVSPropertyOp57
 70
     1
102
RTVSPost2010Prop28
280
     0
102
RTVSPost2010PropOp28
 70
     1
102
RTVSPost2010Prop29
280
     1
102
RTVSPost2010PropOp29
 70
     1
102
RTVSPost2010Prop30
280
     1
102
RTVSPost2010PropOp30
 70
     1
102
RTVSPost2010Prop31
280
     0
102
RTVSPost2010PropOp31
 70
     1
102
RTVSPost2010Prop32
280
     0
102
RTVSPost2010PropOp32
 70
     1
102
RTVSPost2010Prop33
280
     0
102
RTVSPost2010PropOp33
 70
     1
102
RTVSPost2010Prop34
280
     0
102
RTVSPost2010PropOp34
 70
     1
102
RTVSPost2010Prop35
280
     0
102
RTVSPost2010PropOp35
 70
     1
102
RTVSPost2010Prop36
280
     0
102
RTVSPost2010PropOp36
 70
     1
102
RTVSPost2010Prop37
 90
       50
102
RTVSPost2010PropOp37
 70
     1
102
RTVSPost2010Prop38
140
0.0
102
RTVSPost2010PropOp38
 70
     1
102
RTVSPost2010Prop39
140
1.0
102
RTVSPost2010PropOp39
 70
     1
102
RTVSPost2010Prop40
 90
        0
102
RTVSPost2010PropOp40
 70
     1
102
RTVSPost2010Prop41ColorIndex
 90
       18
102
RTVSPost2010Prop41ColorRGB
 90
        0
102
RTVSPost2010PropOp41
 70
     1
102
RTVSPost2010Prop42
 90
       50
102
RTVSPost2010PropOp42
 70
     1
102
RTVSPost2010Prop43
 90
        3
102
RTVSPost2010PropOp43
 70
     1
102
RTVSPost2010Prop44ColorIndex
 90
        5
102
RTVSPost2010Prop44ColorRGB
 90
      255
102
RTVSPost2010PropOp44
 70
     1
102
RTVSPost2010Prop45
280
     0
102
RTVSPost2010PropOp45
 70
     1
102
RTVSPost2010Prop46
 90
       50
102
RTVSPost2010PropOp46
 70
     1
102
RTVSPost2010Prop47
 90
       50
102
RTVSPost2010PropOp47
 70
     1
102
RTVSPost2010Prop48
 90
       50
102
RTVSPost2010PropOp48
 70
     1
102
RTVSPost2010Prop49
280
     0
102
RTVSPost2010PropOp49
 70
     1
102
RTVSPost2010Prop50
 90
       50
102
RTVSPost2010PropOp50
 70
     1
102
RTVSPost2010Prop51ColorIndex
 90
      256
102
RTVSPost2010Prop51ColorRGB
 90
-16777216
102
RTVSPost2010PropOp51
 70
     0
102
RTVSPost2010Prop52
140
1.0
102
RTVSPost2010PropOp52
 70
     0
102
RTVSPost2010Prop53
 90
        2
102
RTVSPost2010PropOp53
 70
     1
102
RTVSPost2010Prop54
  1
strokes_ogs.tif
102
RTVSPost2010PropOp54
 70
     1
102
RTVSPost2010Prop55
280
     0
102
RTVSPost2010PropOp55
 70
     1
102
RTVSPost2010Prop56
140
1.0
102
RTVSPost2010PropOp56
 70
     1
102
RTVSPost2010Prop57
140
1.0
102
RTVSPost2010PropOp57
 70
     1
  0
XRECORD
  5
21C
102
{ACAD_REACTORS
330
21B
102
}
330
21B
100
AcDbXrecord
280
     1
102
RTVSPropertyOp0
 70
     1
102
RTVSPropertyOp1
 70
     1
102
RTVSPropertyOp2
 70
     1
102
RTVSPropertyOp3
 70
     1
102
RTVSPropertyOp4
 70
     1
102
RTVSPropertyOp5
 70
     1
102
RTVSPropertyOp6
 70
     1
102
RTVSPropertyOp7
 70
     1
102
RTVSPropertyOp8
 70
     1
102
RTVSPropertyOp9
 70
     1
102
RTVSPropertyOp10
 70
     1
102
RTVSPropertyOp11
 70
     1
102
RTVSPropertyOp12
 70
     1
102
RTVSPropertyOp13
 70
     1
102
RTVSPropertyOp14
 70
     1
102
RTVSPropertyOp15
 70
     1
102
RTVSPropertyOp16
 70
     1
102
RTVSPropertyOp17
 70
     1
102
RTVSPropertyOp18
 70
     1
102
RTVSPropertyOp19
 70
     1
102
RTVSPropertyOp20
 70
     1
102
RTVSPropertyOp21
 70
     1
102
RTVSPropertyOp22
 70
     1
102
RTVSPropertyOp23
 70
     1
102
RTVSPropertyOp24
 70
     1
102
RTVSPropertyOp25
 70
     1
102
RTVSPropertyOp26
 70
     1
102
RTVSPropertyOp27
 70
     1
102
RTVSPropertyOp28
 70
     1
102
RTVSPropertyOp29
 70
     1
102
RTVSPropertyOp30
 70
     1
102
RTVSPropertyOp31
 70
     1
102
RTVSPropertyOp32
 70
     1
102
RTVSPropertyOp33
 70
     1
102
RTVSPropertyOp34
 70
     1
102
RTVSPropertyOp35
 70
     1
102
RTVSPropertyOp36
 70
     1
102
RTVSPropertyOp37
 70
     1
102
RTVSPropertyOp38
 70
     1
102
RTVSPropertyOp39
 70
     1
102
RTVSPropertyOp40
 70
     1
102
RTVSPropertyOp41
 70
     1
102
RTVSPropertyOp42
 70
     1
102
RTVSPropertyOp43
 70
     1
102
RTVSPropertyOp44
 70
     1
102
RTVSPropertyOp45
 70
     1
102
RTVSPropertyOp46
 70
     1
102
RTVSPropertyOp47
 70
     1
102
RTVSPropertyOp48
 70
     1
102
RTVSPropertyOp49
 70
     1
102
RTVSPropertyOp50
 70
     1
102
RTVSPropertyOp51
 70
     0
102
RTVSPropertyOp52
 70
     0
102
RTVSPropertyOp53
 70
     1
102
RTVSPropertyOp54
 70
     1
102
RTVSPropertyOp55
 70
     1
102
RTVSPropertyOp56
 70
     1
102
RTVSPropertyOp57
 70
     1
102
RTVSPost2010Prop28
280
     0
102
RTVSPost2010PropOp28
 70
     1
102
RTVSPost2010Prop29
280
     1
102
RTVSPost2010PropOp29
 70
     1
102
RTVSPost2010Prop30
280
     1
102
RTVSPost2010PropOp30
 70
     1
102
RTVSPost2010Prop31
280
     0
102
RTVSPost2010PropOp31
 70
     1
102
RTVSPost2010Prop32
280
     0
102
RTVSPost2010PropOp32
 70
     1
102
RTVSPost2010Prop33
280
     0
102
RTVSPost2010PropOp33
 70
     1
102
RTVSPost2010Prop34
280
     0
102
RTVSPost2010PropOp34
 70
     1
102
RTVSPost2010Prop35
280
     0
102
RTVSPost2010PropOp35
 70
     1
102
RTVSPost2010Prop36
280
     0
102
RTVSPost2010PropOp36
 70
     1
102
RTVSPost2010Prop37
 90
       50
102
RTVSPost2010PropOp37
 70
     1
102
RTVSPost2010Prop38
140
0.0
102
RTVSPost2010PropOp38
 70
     1
102
RTVSPost2010Prop39
140
1.0
102
RTVSPost2010PropOp39
 70
     1
102
RTVSPost2010Prop40
 90
        0
102
RTVSPost2010PropOp40
 70
     1
102
RTVSPost2010Prop41ColorIndex
 90
       18
102
RTVSPost2010Prop41ColorRGB
 90
        0
102
RTVSPost2010PropOp41
 70
     1
102
RTVSPost2010Prop42
 90
       50
102
RTVSPost2010PropOp42
 70
     1
102
RTVSPost2010Prop43
 90
        3
102
RTVSPost2010PropOp43
 70
     1
102
RTVSPost2010Prop44ColorIndex
 90
        5
102
RTVSPost2010Prop44ColorRGB
 90
      255
102
RTVSPost2010PropOp44
 70
     1
102
RTVSPost2010Prop45
280
     0
102
RTVSPost2010PropOp45
 70
     1
102
RTVSPost2010Prop46
 90
       50
102
RTVSPost2010PropOp46
 70
     1
102
RTVSPost2010Prop47
 90
       50
102
RTVSPost2010PropOp47
 70
     1
102
RTVSPost2010Prop48
 90
       50
102
RTVSPost2010PropOp48
 70
     1
102
RTVSPost2010Prop49
280
     0
102
RTVSPost2010PropOp49
 70
     1
102
RTVSPost2010Prop50
 90
       50
102
RTVSPost2010PropOp50
 70
     1
102
RTVSPost2010Prop51ColorIndex
 90
      256
102
RTVSPost2010Prop51ColorRGB
 90
-16777216
102
RTVSPost2010PropOp51
 70
     0
102
RTVSPost2010Prop52
140
1.0
102
RTVSPost2010PropOp52
 70
     0
102
RTVSPost2010Prop53
 90
        2
102
RTVSPost2010PropOp53
 70
     1
102
RTVSPost2010Prop54
  1
strokes_ogs.tif
102
RTVSPost2010PropOp54
 70
     1
102
RTVSPost2010Prop55
280
     0
102
RTVSPost2010PropOp55
 70
     1
102
RTVSPost2010Prop56
140
1.0
102
RTVSPost2010PropOp56
 70
     1
102
RTVSPost2010Prop57
140
1.0
102
RTVSPost2010PropOp57
 70
     1
  0
XRECORD
  5
22C
102
{ACAD_REACTORS
330
22B
102
}
330
22B
100
AcDbXrecord
280
     1
102
RTVSPropertyOp0
 70
     0
102
RTVSPropertyOp1
 70
     0
102
RTVSPropertyOp2
 70
     0
102
RTVSPropertyOp3
 70
     0
102
RTVSPropertyOp4
 70
     0
102
RTVSPropertyOp5
 70
     0
102
RTVSPropertyOp6
 70
     0
102
RTVSPropertyOp7
 70
     0
102
RTVSPropertyOp8
 70
     0
102
RTVSPropertyOp9
 70
     0
102
RTVSPropertyOp10
 70
     0
102
RTVSPropertyOp11
 70
     0
102
RTVSPropertyOp12
 70
     0
102
RTVSPropertyOp13
 70
     0
102
RTVSPropertyOp14
 70
     2
102
RTVSPropertyOp15
 70
     0
102
RTVSPropertyOp16
 70
     0
102
RTVSPropertyOp17
 70
     0
102
RTVSPropertyOp18
 70
     0
102
RTVSPropertyOp19
 70
     0
102
RTVSPropertyOp20
 70
     0
102
RTVSPropertyOp21
 70
     0
102
RTVSPropertyOp22
 70
     0
102
RTVSPropertyOp23
 70
     0
102
RTVSPropertyOp24
 70
     0
102
RTVSPropertyOp25
 70
     0
102
RTVSPropertyOp26
 70
     0
102
RTVSPropertyOp27
 70
     0
102
RTVSPropertyOp28
 70
     0
102
RTVSPropertyOp29
 70
     0
102
RTVSPropertyOp30
 70
     0
102
RTVSPropertyOp31
 70
     0
102
RTVSPropertyOp32
 70
     0
102
RTVSPropertyOp33
 70
     0
102
RTVSPropertyOp34
 70
     0
102
RTVSPropertyOp35
 70
     0
102
RTVSPropertyOp36
 70
     0
102
RTVSPropertyOp37
 70
     0
102
RTVSPropertyOp38
 70
     0
102
RTVSPropertyOp39
 70
     0
102
RTVSPropertyOp40
 70
     0
102
RTVSPropertyOp41
 70
     0
102
RTVSPropertyOp42
 70
     0
102
RTVSPropertyOp43
 70
     0
102
RTVSPropertyOp44
 70
     0
102
RTVSPropertyOp45
 70
     0
102
RTVSPropertyOp46
 70
     0
102
RTVSPropertyOp47
 70
     0
102
RTVSPropertyOp48
 70
     0
102
RTVSPropertyOp49
 70
     0
102
RTVSPropertyOp50
 70
     0
102
RTVSPropertyOp51
 70
     0
102
RTVSPropertyOp52
 70
     0
102
RTVSPropertyOp53
 70
     0
102
RTVSPropertyOp54
 70
     0
102
RTVSPropertyOp55
 70
     0
102
RTVSPropertyOp56
 70
     0
102
RTVSPropertyOp57
 70
     0
102
RTVSPost2010Prop28
280
     0
102
RTVSPost2010PropOp28
 70
     0
102
RTVSPost2010Prop29
280
     1
102
RTVSPost2010PropOp29
 70
     0
102
RTVSPost2010Prop30
280
     1
102
RTVSPost2010PropOp30
 70
     0
102
RTVSPost2010Prop31
280
     0
102
RTVSPost2010PropOp31
 70
     0
102
RTVSPost2010Prop32
280
     0
102
RTVSPost2010PropOp32
 70
     0
102
RTVSPost2010Prop33
280
     0
102
RTVSPost2010PropOp33
 70
     0
102
RTVSPost2010Prop34
280
     0
102
RTVSPost2010PropOp34
 70
     0
102
RTVSPost2010Prop35
280
     0
102
RTVSPost2010PropOp35
 70
     0
102
RTVSPost2010Prop36
280
     0
102
RTVSPost2010PropOp36
 70
     0
102
RTVSPost2010Prop37
 90
       50
102
RTVSPost2010PropOp37
 70
     0
102
RTVSPost2010Prop38
140
0.0
102
RTVSPost2010PropOp38
 70
     0
102
RTVSPost2010Prop39
140
1.0
102
RTVSPost2010PropOp39
 70
     0
102
RTVSPost2010Prop40
 90
        0
102
RTVSPost2010PropOp40
 70
     0
102
RTVSPost2010Prop41ColorIndex
 90
       18
102
RTVSPost2010Prop41ColorRGB
 90
        0
102
RTVSPost2010PropOp41
 70
     0
102
RTVSPost2010Prop42
 90
       50
102
RTVSPost2010PropOp42
 70
     0
102
RTVSPost2010Prop43
 90
        3
102
RTVSPost2010PropOp43
 70
     0
102
RTVSPost2010Prop44ColorIndex
 90
        5
102
RTVSPost2010Prop44ColorRGB
 90
      255
102
RTVSPost2010PropOp44
 70
     0
102
RTVSPost2010Prop45
280
     0
102
RTVSPost2010PropOp45
 70
     0
102
RTVSPost2010Prop46
 90
       50
102
RTVSPost2010PropOp46
 70
     0
102
RTVSPost2010Prop47
 90
       50
102
RTVSPost2010PropOp47
 70
     0
102
RTVSPost2010Prop48
 90
       50
102
RTVSPost2010PropOp48
 70
     0
102
RTVSPost2010Prop49
280
     0
102
RTVSPost2010PropOp49
 70
     0
102
RTVSPost2010Prop50
 90
       50
102
RTVSPost2010PropOp50
 70
     0
102
RTVSPost2010Prop51ColorIndex
 90
      256
102
RTVSPost2010Prop51ColorRGB
 90
-16777216
102
RTVSPost2010PropOp51
 70
     0
102
RTVSPost2010Prop52
140
1.0
102
RTVSPost2010PropOp52
 70
     0
102
RTVSPost2010Prop53
 90
        2
102
RTVSPost2010PropOp53
 70
     0
102
RTVSPost2010Prop54
  1
strokes_ogs.tif
102
RTVSPost2010PropOp54
 70
     0
102
RTVSPost2010Prop55
280
     0
102
RTVSPost2010PropOp55
 70
     0
102
RTVSPost2010Prop56
140
1.0
102
RTVSPost2010PropOp56
 70
     0
102
RTVSPost2010Prop57
140
1.0
102
RTVSPost2010PropOp57
 70
     0
  0
XRECORD
  5
224
102
{ACAD_REACTORS
330
223
102
}
330
223
100
AcDbXrecord
280
     1
102
RTVSPropertyOp0
 70
     1
102
RTVSPropertyOp1
 70
     1
102
RTVSPropertyOp2
 70
     1
102
RTVSPropertyOp3
 70
     1
102
RTVSPropertyOp4
 70
     1
102
RTVSPropertyOp5
 70
     1
102
RTVSPropertyOp6
 70
     1
102
RTVSPropertyOp7
 70
     1
102
RTVSPropertyOp8
 70
     1
102
RTVSPropertyOp9
 70
     1
102
RTVSPropertyOp10
 70
     1
102
RTVSPropertyOp11
 70
     1
102
RTVSPropertyOp12
 70
     1
102
RTVSPropertyOp13
 70
     1
102
RTVSPropertyOp14
 70
     1
102
RTVSPropertyOp15
 70
     1
102
RTVSPropertyOp16
 70
     1
102
RTVSPropertyOp17
 70
     1
102
RTVSPropertyOp18
 70
     1
102
RTVSPropertyOp19
 70
     1
102
RTVSPropertyOp20
 70
     1
102
RTVSPropertyOp21
 70
     1
102
RTVSPropertyOp22
 70
     1
102
RTVSPropertyOp23
 70
     1
102
RTVSPropertyOp24
 70
     1
102
RTVSPropertyOp25
 70
     1
102
RTVSPropertyOp26
 70
     1
102
RTVSPropertyOp27
 70
     1
102
RTVSPropertyOp28
 70
     1
102
RTVSPropertyOp29
 70
     1
102
RTVSPropertyOp30
 70
     1
102
RTVSPropertyOp31
 70
     1
102
RTVSPropertyOp32
 70
     1
102
RTVSPropertyOp33
 70
     1
102
RTVSPropertyOp34
 70
     1
102
RTVSPropertyOp35
 70
     1
102
RTVSPropertyOp36
 70
     1
102
RTVSPropertyOp37
 70
     1
102
RTVSPropertyOp38
 70
     1
102
RTVSPropertyOp39
 70
     1
102
RTVSPropertyOp40
 70
     1
102
RTVSPropertyOp41
 70
     1
102
RTVSPropertyOp42
 70
     1
102
RTVSPropertyOp43
 70
     1
102
RTVSPropertyOp44
 70
     1
102
RTVSPropertyOp45
 70
     1
102
RTVSPropertyOp46
 70
     1
102
RTVSPropertyOp47
 70
     1
102
RTVSPropertyOp48
 70
     1
102
RTVSPropertyOp49
 70
     1
102
RTVSPropertyOp50
 70
     1
102
RTVSPropertyOp51
 70
     0
102
RTVSPropertyOp52
 70
     0
102
RTVSPropertyOp53
 70
     1
102
RTVSPropertyOp54
 70
     1
102
RTVSPropertyOp55
 70
     1
102
RTVSPropertyOp56
 70
     1
102
RTVSPropertyOp57
 70
     1
102
RTVSPost2010Prop28
280
     0
102
RTVSPost2010PropOp28
 70
     1
102
RTVSPost2010Prop29
280
     1
102
RTVSPost2010PropOp29
 70
     1
102
RTVSPost2010Prop30
280
     1
102
RTVSPost2010PropOp30
 70
     1
102
RTVSPost2010Prop31
280
     0
102
RTVSPost2010PropOp31
 70
     1
102
RTVSPost2010Prop32
280
     0
102
RTVSPost2010PropOp32
 70
     1
102
RTVSPost2010Prop33
280
     0
102
RTVSPost2010PropOp33
 70
     1
102
RTVSPost2010Prop34
280
     0
102
RTVSPost2010PropOp34
 70
     1
102
RTVSPost2010Prop35
280
     0
102
RTVSPost2010PropOp35
 70
     1
102
RTVSPost2010Prop36
280
     0
102
RTVSPost2010PropOp36
 70
     1
102
RTVSPost2010Prop37
 90
       50
102
RTVSPost2010PropOp37
 70
     1
102
RTVSPost2010Prop38
140
0.0
102
RTVSPost2010PropOp38
 70
     1
102
RTVSPost2010Prop39
140
1.0
102
RTVSPost2010PropOp39
 70
     1
102
RTVSPost2010Prop40
 90
        0
102
RTVSPost2010PropOp40
 70
     1
102
RTVSPost2010Prop41ColorIndex
 90
       18
102
RTVSPost2010Prop41ColorRGB
 90
        0
102
RTVSPost2010PropOp41
 70
     1
102
RTVSPost2010Prop42
 90
       50
102
RTVSPost2010PropOp42
 70
     1
102
RTVSPost2010Prop43
 90
        3
102
RTVSPost2010PropOp43
 70
     1
102
RTVSPost2010Prop44ColorIndex
 90
        5
102
RTVSPost2010Prop44ColorRGB
 90
      255
102
RTVSPost2010PropOp44
 70
     1
102
RTVSPost2010Prop45
280
     0
102
RTVSPost2010PropOp45
 70
     1
102
RTVSPost2010Prop46
 90
       50
102
RTVSPost2010PropOp46
 70
     1
102
RTVSPost2010Prop47
 90
       50
102
RTVSPost2010PropOp47
 70
     1
102
RTVSPost2010Prop48
 90
       50
102
RTVSPost2010PropOp48
 70
     1
102
RTVSPost2010Prop49
280
     0
102
RTVSPost2010PropOp49
 70
     1
102
RTVSPost2010Prop50
 90
       50
102
RTVSPost2010PropOp50
 70
     1
102
RTVSPost2010Prop51ColorIndex
 90
      256
102
RTVSPost2010Prop51ColorRGB
 90
-16777216
102
RTVSPost2010PropOp51
 70
     0
102
RTVSPost2010Prop52
140
1.0
102
RTVSPost2010PropOp52
 70
     0
102
RTVSPost2010Prop53
 90
        2
102
RTVSPost2010PropOp53
 70
     1
102
RTVSPost2010Prop54
  1
strokes_ogs.tif
102
RTVSPost2010PropOp54
 70
     1
102
RTVSPost2010Prop55
280
     0
102
RTVSPost2010PropOp55
 70
     1
102
RTVSPost2010Prop56
140
1.0
102
RTVSPost2010PropOp56
 70
     1
102
RTVSPost2010Prop57
140
1.0
102
RTVSPost2010PropOp57
 70
     1
  0
XRECORD
  5
208
102
{ACAD_REACTORS
330
207
102
}
330
207
100
AcDbXrecord
280
     1
102
RTVSPropertyOp0
 70
     1
102
RTVSPropertyOp1
 70
     1
102
RTVSPropertyOp2
 70
     1
102
RTVSPropertyOp3
 70
     1
102
RTVSPropertyOp4
 70
     1
102
RTVSPropertyOp5
 70
     1
102
RTVSPropertyOp6
 70
     1
102
RTVSPropertyOp7
 70
     1
102
RTVSPropertyOp8
 70
     1
102
RTVSPropertyOp9
 70
     1
102
RTVSPropertyOp10
 70
     1
102
RTVSPropertyOp11
 70
     1
102
RTVSPropertyOp12
 70
     1
102
RTVSPropertyOp13
 70
     1
102
RTVSPropertyOp14
 70
     1
102
RTVSPropertyOp15
 70
     1
102
RTVSPropertyOp16
 70
     1
102
RTVSPropertyOp17
 70
     1
102
RTVSPropertyOp18
 70
     1
102
RTVSPropertyOp19
 70
     1
102
RTVSPropertyOp20
 70
     1
102
RTVSPropertyOp21
 70
     1
102
RTVSPropertyOp22
 70
     1
102
RTVSPropertyOp23
 70
     1
102
RTVSPropertyOp24
 70
     1
102
RTVSPropertyOp25
 70
     1
102
RTVSPropertyOp26
 70
     1
102
RTVSPropertyOp27
 70
     1
102
RTVSPropertyOp28
 70
     1
102
RTVSPropertyOp29
 70
     1
102
RTVSPropertyOp30
 70
     1
102
RTVSPropertyOp31
 70
     1
102
RTVSPropertyOp32
 70
     1
102
RTVSPropertyOp33
 70
     1
102
RTVSPropertyOp34
 70
     1
102
RTVSPropertyOp35
 70
     1
102
RTVSPropertyOp36
 70
     1
102
RTVSPropertyOp37
 70
     1
102
RTVSPropertyOp38
 70
     1
102
RTVSPropertyOp39
 70
     1
102
RTVSPropertyOp40
 70
     1
102
RTVSPropertyOp41
 70
     1
102
RTVSPropertyOp42
 70
     1
102
RTVSPropertyOp43
 70
     1
102
RTVSPropertyOp44
 70
     1
102
RTVSPropertyOp45
 70
     1
102
RTVSPropertyOp46
 70
     1
102
RTVSPropertyOp47
 70
     1
102
RTVSPropertyOp48
 70
     1
102
RTVSPropertyOp49
 70
     1
102
RTVSPropertyOp50
 70
     1
102
RTVSPropertyOp51
 70
     0
102
RTVSPropertyOp52
 70
     0
102
RTVSPropertyOp53
 70
     1
102
RTVSPropertyOp54
 70
     1
102
RTVSPropertyOp55
 70
     1
102
RTVSPropertyOp56
 70
     1
102
RTVSPropertyOp57
 70
     1
102
RTVSPost2010Prop28
280
     0
102
RTVSPost2010PropOp28
 70
     1
102
RTVSPost2010Prop29
280
     1
102
RTVSPost2010PropOp29
 70
     1
102
RTVSPost2010Prop30
280
     1
102
RTVSPost2010PropOp30
 70
     1
102
RTVSPost2010Prop31
280
     0
102
RTVSPost2010PropOp31
 70
     1
102
RTVSPost2010Prop32
280
     0
102
RTVSPost2010PropOp32
 70
     1
102
RTVSPost2010Prop33
280
     0
102
RTVSPost2010PropOp33
 70
     1
102
RTVSPost2010Prop34
280
     0
102
RTVSPost2010PropOp34
 70
     1
102
RTVSPost2010Prop35
280
     0
102
RTVSPost2010PropOp35
 70
     1
102
RTVSPost2010Prop36
280
     0
102
RTVSPost2010PropOp36
 70
     1
102
RTVSPost2010Prop37
 90
       50
102
RTVSPost2010PropOp37
 70
     1
102
RTVSPost2010Prop38
140
0.0
102
RTVSPost2010PropOp38
 70
     1
102
RTVSPost2010Prop39
140
1.0
102
RTVSPost2010PropOp39
 70
     1
102
RTVSPost2010Prop40
 90
        0
102
RTVSPost2010PropOp40
 70
     1
102
RTVSPost2010Prop41ColorIndex
 90
       18
102
RTVSPost2010Prop41ColorRGB
 90
        0
102
RTVSPost2010PropOp41
 70
     1
102
RTVSPost2010Prop42
 90
       50
102
RTVSPost2010PropOp42
 70
     1
102
RTVSPost2010Prop43
 90
        3
102
RTVSPost2010PropOp43
 70
     1
102
RTVSPost2010Prop44ColorIndex
 90
        5
102
RTVSPost2010Prop44ColorRGB
 90
      255
102
RTVSPost2010PropOp44
 70
     1
102
RTVSPost2010Prop45
280
     0
102
RTVSPost2010PropOp45
 70
     1
102
RTVSPost2010Prop46
 90
       50
102
RTVSPost2010PropOp46
 70
     1
102
RTVSPost2010Prop47
 90
       50
102
RTVSPost2010PropOp47
 70
     1
102
RTVSPost2010Prop48
 90
       50
102
RTVSPost2010PropOp48
 70
     1
102
RTVSPost2010Prop49
280
     0
102
RTVSPost2010PropOp49
 70
     1
102
RTVSPost2010Prop50
 90
       50
102
RTVSPost2010PropOp50
 70
     1
102
RTVSPost2010Prop51ColorIndex
 90
      256
102
RTVSPost2010Prop51ColorRGB
 90
-16777216
102
RTVSPost2010PropOp51
 70
     0
102
RTVSPost2010Prop52
140
1.0
102
RTVSPost2010PropOp52
 70
     0
102
RTVSPost2010Prop53
 90
        2
102
RTVSPost2010PropOp53
 70
     1
102
RTVSPost2010Prop54
  1
strokes_ogs.tif
102
RTVSPost2010PropOp54
 70
     1
102
RTVSPost2010Prop55
280
     0
102
RTVSPost2010PropOp55
 70
     1
102
RTVSPost2010Prop56
140
1.0
102
RTVSPost2010PropOp56
 70
     1
102
RTVSPost2010Prop57
140
1.0
102
RTVSPost2010PropOp57
 70
     1
  0
XRECORD
  5
20A
102
{ACAD_REACTORS
330
209
102
}
330
209
100
AcDbXrecord
280
     1
102
RTVSPropertyOp0
 70
     1
102
RTVSPropertyOp1
 70
     1
102
RTVSPropertyOp2
 70
     1
102
RTVSPropertyOp3
 70
     1
102
RTVSPropertyOp4
 70
     1
102
RTVSPropertyOp5
 70
     1
102
RTVSPropertyOp6
 70
     1
102
RTVSPropertyOp7
 70
     1
102
RTVSPropertyOp8
 70
     1
102
RTVSPropertyOp9
 70
     1
102
RTVSPropertyOp10
 70
     1
102
RTVSPropertyOp11
 70
     1
102
RTVSPropertyOp12
 70
     1
102
RTVSPropertyOp13
 70
     1
102
RTVSPropertyOp14
 70
     1
102
RTVSPropertyOp15
 70
     1
102
RTVSPropertyOp16
 70
     1
102
RTVSPropertyOp17
 70
     1
102
RTVSPropertyOp18
 70
     1
102
RTVSPropertyOp19
 70
     1
102
RTVSPropertyOp20
 70
     1
102
RTVSPropertyOp21
 70
     1
102
RTVSPropertyOp22
 70
     1
102
RTVSPropertyOp23
 70
     1
102
RTVSPropertyOp24
 70
     1
102
RTVSPropertyOp25
 70
     1
102
RTVSPropertyOp26
 70
     1
102
RTVSPropertyOp27
 70
     1
102
RTVSPropertyOp28
 70
     1
102
RTVSPropertyOp29
 70
     1
102
RTVSPropertyOp30
 70
     1
102
RTVSPropertyOp31
 70
     1
102
RTVSPropertyOp32
 70
     1
102
RTVSPropertyOp33
 70
     1
102
RTVSPropertyOp34
 70
     1
102
RTVSPropertyOp35
 70
     1
102
RTVSPropertyOp36
 70
     1
102
RTVSPropertyOp37
 70
     1
102
RTVSPropertyOp38
 70
     1
102
RTVSPropertyOp39
 70
     1
102
RTVSPropertyOp40
 70
     1
102
RTVSPropertyOp41
 70
     1
102
RTVSPropertyOp42
 70
     1
102
RTVSPropertyOp43
 70
     1
102
RTVSPropertyOp44
 70
     1
102
RTVSPropertyOp45
 70
     1
102
RTVSPropertyOp46
 70
     1
102
RTVSPropertyOp47
 70
     1
102
RTVSPropertyOp48
 70
     1
102
RTVSPropertyOp49
 70
     1
102
RTVSPropertyOp50
 70
     1
102
RTVSPropertyOp51
 70
     0
102
RTVSPropertyOp52
 70
     0
102
RTVSPropertyOp53
 70
     1
102
RTVSPropertyOp54
 70
     1
102
RTVSPropertyOp55
 70
     1
102
RTVSPropertyOp56
 70
     1
102
RTVSPropertyOp57
 70
     1
102
RTVSPost2010Prop28
280
     0
102
RTVSPost2010PropOp28
 70
     1
102
RTVSPost2010Prop29
280
     1
102
RTVSPost2010PropOp29
 70
     1
102
RTVSPost2010Prop30
280
     1
102
RTVSPost2010PropOp30
 70
     1
102
RTVSPost2010Prop31
280
     0
102
RTVSPost2010PropOp31
 70
     1
102
RTVSPost2010Prop32
280
     0
102
RTVSPost2010PropOp32
 70
     1
102
RTVSPost2010Prop33
280
     0
102
RTVSPost2010PropOp33
 70
     1
102
RTVSPost2010Prop34
280
     0
102
RTVSPost2010PropOp34
 70
     1
102
RTVSPost2010Prop35
280
     0
102
RTVSPost2010PropOp35
 70
     1
102
RTVSPost2010Prop36
280
     0
102
RTVSPost2010PropOp36
 70
     1
102
RTVSPost2010Prop37
 90
       50
102
RTVSPost2010PropOp37
 70
     1
102
RTVSPost2010Prop38
140
0.0
102
RTVSPost2010PropOp38
 70
     1
102
RTVSPost2010Prop39
140
1.0
102
RTVSPost2010PropOp39
 70
     1
102
RTVSPost2010Prop40
 90
        0
102
RTVSPost2010PropOp40
 70
     1
102
RTVSPost2010Prop41ColorIndex
 90
       18
102
RTVSPost2010Prop41ColorRGB
 90
        0
102
RTVSPost2010PropOp41
 70
     1
102
RTVSPost2010Prop42
 90
       50
102
RTVSPost2010PropOp42
 70
     1
102
RTVSPost2010Prop43
 90
        3
102
RTVSPost2010PropOp43
 70
     1
102
RTVSPost2010Prop44ColorIndex
 90
        5
102
RTVSPost2010Prop44ColorRGB
 90
      255
102
RTVSPost2010PropOp44
 70
     1
102
RTVSPost2010Prop45
280
     0
102
RTVSPost2010PropOp45
 70
     1
102
RTVSPost2010Prop46
 90
       50
102
RTVSPost2010PropOp46
 70
     1
102
RTVSPost2010Prop47
 90
       50
102
RTVSPost2010PropOp47
 70
     1
102
RTVSPost2010Prop48
 90
       50
102
RTVSPost2010PropOp48
 70
     1
102
RTVSPost2010Prop49
280
     0
102
RTVSPost2010PropOp49
 70
     1
102
RTVSPost2010Prop50
 90
       50
102
RTVSPost2010PropOp50
 70
     1
102
RTVSPost2010Prop51ColorIndex
 90
      256
102
RTVSPost2010Prop51ColorRGB
 90
-16777216
102
RTVSPost2010PropOp51
 70
     0
102
RTVSPost2010Prop52
140
1.0
102
RTVSPost2010PropOp52
 70
     0
102
RTVSPost2010Prop53
 90
        2
102
RTVSPost2010PropOp53
 70
     1
102
RTVSPost2010Prop54
  1
strokes_ogs.tif
102
RTVSPost2010PropOp54
 70
     1
102
RTVSPost2010Prop55
280
     0
102
RTVSPost2010PropOp55
 70
     1
102
RTVSPost2010Prop56
140
1.0
102
RTVSPost2010PropOp56
 70
     1
102
RTVSPost2010Prop57
140
1.0
102
RTVSPost2010PropOp57
 70
     1
  0
XRECORD
  5
20C
102
{ACAD_REACTORS
330
20B
102
}
330
20B
100
AcDbXrecord
280
     1
102
RTVSPropertyOp0
 70
     1
102
RTVSPropertyOp1
 70
     1
102
RTVSPropertyOp2
 70
     1
102
RTVSPropertyOp3
 70
     1
102
RTVSPropertyOp4
 70
     1
102
RTVSPropertyOp5
 70
     1
102
RTVSPropertyOp6
 70
     1
102
RTVSPropertyOp7
 70
     1
102
RTVSPropertyOp8
 70
     1
102
RTVSPropertyOp9
 70
     1
102
RTVSPropertyOp10
 70
     1
102
RTVSPropertyOp11
 70
     1
102
RTVSPropertyOp12
 70
     1
102
RTVSPropertyOp13
 70
     1
102
RTVSPropertyOp14
 70
     1
102
RTVSPropertyOp15
 70
     1
102
RTVSPropertyOp16
 70
     1
102
RTVSPropertyOp17
 70
     1
102
RTVSPropertyOp18
 70
     1
102
RTVSPropertyOp19
 70
     1
102
RTVSPropertyOp20
 70
     1
102
RTVSPropertyOp21
 70
     1
102
RTVSPropertyOp22
 70
     1
102
RTVSPropertyOp23
 70
     1
102
RTVSPropertyOp24
 70
     1
102
RTVSPropertyOp25
 70
     1
102
RTVSPropertyOp26
 70
     1
102
RTVSPropertyOp27
 70
     1
102
RTVSPropertyOp28
 70
     1
102
RTVSPropertyOp29
 70
     1
102
RTVSPropertyOp30
 70
     1
102
RTVSPropertyOp31
 70
     1
102
RTVSPropertyOp32
 70
     1
102
RTVSPropertyOp33
 70
     1
102
RTVSPropertyOp34
 70
     1
102
RTVSPropertyOp35
 70
     1
102
RTVSPropertyOp36
 70
     1
102
RTVSPropertyOp37
 70
     1
102
RTVSPropertyOp38
 70
     1
102
RTVSPropertyOp39
 70
     1
102
RTVSPropertyOp40
 70
     1
102
RTVSPropertyOp41
 70
     1
102
RTVSPropertyOp42
 70
     1
102
RTVSPropertyOp43
 70
     1
102
RTVSPropertyOp44
 70
     1
102
RTVSPropertyOp45
 70
     1
102
RTVSPropertyOp46
 70
     1
102
RTVSPropertyOp47
 70
     1
102
RTVSPropertyOp48
 70
     1
102
RTVSPropertyOp49
 70
     1
102
RTVSPropertyOp50
 70
     1
102
RTVSPropertyOp51
 70
     0
102
RTVSPropertyOp52
 70
     0
102
RTVSPropertyOp53
 70
     1
102
RTVSPropertyOp54
 70
     1
102
RTVSPropertyOp55
 70
     1
102
RTVSPropertyOp56
 70
     1
102
RTVSPropertyOp57
 70
     1
102
RTVSPost2010Prop28
280
     0
102
RTVSPost2010PropOp28
 70
     1
102
RTVSPost2010Prop29
280
     1
102
RTVSPost2010PropOp29
 70
     1
102
RTVSPost2010Prop30
280
     1
102
RTVSPost2010PropOp30
 70
     1
102
RTVSPost2010Prop31
280
     0
102
RTVSPost2010PropOp31
 70
     1
102
RTVSPost2010Prop32
280
     0
102
RTVSPost2010PropOp32
 70
     1
102
RTVSPost2010Prop33
280
     0
102
RTVSPost2010PropOp33
 70
     1
102
RTVSPost2010Prop34
280
     0
102
RTVSPost2010PropOp34
 70
     1
102
RTVSPost2010Prop35
280
     0
102
RTVSPost2010PropOp35
 70
     1
102
RTVSPost2010Prop36
280
     0
102
RTVSPost2010PropOp36
 70
     1
102
RTVSPost2010Prop37
 90
       50
102
RTVSPost2010PropOp37
 70
     1
102
RTVSPost2010Prop38
140
0.0
102
RTVSPost2010PropOp38
 70
     1
102
RTVSPost2010Prop39
140
1.0
102
RTVSPost2010PropOp39
 70
     1
102
RTVSPost2010Prop40
 90
        0
102
RTVSPost2010PropOp40
 70
     1
102
RTVSPost2010Prop41ColorIndex
 90
       18
102
RTVSPost2010Prop41ColorRGB
 90
        0
102
RTVSPost2010PropOp41
 70
     1
102
RTVSPost2010Prop42
 90
       50
102
RTVSPost2010PropOp42
 70
     1
102
RTVSPost2010Prop43
 90
        3
102
RTVSPost2010PropOp43
 70
     1
102
RTVSPost2010Prop44ColorIndex
 90
        5
102
RTVSPost2010Prop44ColorRGB
 90
      255
102
RTVSPost2010PropOp44
 70
     1
102
RTVSPost2010Prop45
280
     0
102
RTVSPost2010PropOp45
 70
     1
102
RTVSPost2010Prop46
 90
       50
102
RTVSPost2010PropOp46
 70
     1
102
RTVSPost2010Prop47
 90
       50
102
RTVSPost2010PropOp47
 70
     1
102
RTVSPost2010Prop48
 90
       50
102
RTVSPost2010PropOp48
 70
     1
102
RTVSPost2010Prop49
280
     0
102
RTVSPost2010PropOp49
 70
     1
102
RTVSPost2010Prop50
 90
       50
102
RTVSPost2010PropOp50
 70
     1
102
RTVSPost2010Prop51ColorIndex
 90
      256
102
RTVSPost2010Prop51ColorRGB
 90
-16777216
102
RTVSPost2010PropOp51
 70
     0
102
RTVSPost2010Prop52
140
1.0
102
RTVSPost2010PropOp52
 70
     0
102
RTVSPost2010Prop53
 90
        2
102
RTVSPost2010PropOp53
 70
     1
102
RTVSPost2010Prop54
  1
strokes_ogs.tif
102
RTVSPost2010PropOp54
 70
     1
102
RTVSPost2010Prop55
280
     0
102
RTVSPost2010PropOp55
 70
     1
102
RTVSPost2010Prop56
140
1.0
102
RTVSPost2010PropOp56
 70
     1
102
RTVSPost2010Prop57
140
1.0
102
RTVSPost2010PropOp57
 70
     1
  0
XRECORD
  5
20E
102
{ACAD_REACTORS
330
20D
102
}
330
20D
100
AcDbXrecord
280
     1
102
RTVSPropertyOp0
 70
     1
102
RTVSPropertyOp1
 70
     1
102
RTVSPropertyOp2
 70
     1
102
RTVSPropertyOp3
 70
     1
102
RTVSPropertyOp4
 70
     1
102
RTVSPropertyOp5
 70
     1
102
RTVSPropertyOp6
 70
     1
102
RTVSPropertyOp7
 70
     1
102
RTVSPropertyOp8
 70
     1
102
RTVSPropertyOp9
 70
     1
102
RTVSPropertyOp10
 70
     1
102
RTVSPropertyOp11
 70
     1
102
RTVSPropertyOp12
 70
     1
102
RTVSPropertyOp13
 70
     1
102
RTVSPropertyOp14
 70
     1
102
RTVSPropertyOp15
 70
     1
102
RTVSPropertyOp16
 70
     1
102
RTVSPropertyOp17
 70
     1
102
RTVSPropertyOp18
 70
     1
102
RTVSPropertyOp19
 70
     1
102
RTVSPropertyOp20
 70
     1
102
RTVSPropertyOp21
 70
     1
102
RTVSPropertyOp22
 70
     1
102
RTVSPropertyOp23
 70
     1
102
RTVSPropertyOp24
 70
     1
102
RTVSPropertyOp25
 70
     1
102
RTVSPropertyOp26
 70
     1
102
RTVSPropertyOp27
 70
     1
102
RTVSPropertyOp28
 70
     1
102
RTVSPropertyOp29
 70
     1
102
RTVSPropertyOp30
 70
     1
102
RTVSPropertyOp31
 70
     1
102
RTVSPropertyOp32
 70
     1
102
RTVSPropertyOp33
 70
     1
102
RTVSPropertyOp34
 70
     1
102
RTVSPropertyOp35
 70
     1
102
RTVSPropertyOp36
 70
     1
102
RTVSPropertyOp37
 70
     1
102
RTVSPropertyOp38
 70
     1
102
RTVSPropertyOp39
 70
     1
102
RTVSPropertyOp40
 70
     1
102
RTVSPropertyOp41
 70
     1
102
RTVSPropertyOp42
 70
     1
102
RTVSPropertyOp43
 70
     1
102
RTVSPropertyOp44
 70
     1
102
RTVSPropertyOp45
 70
     1
102
RTVSPropertyOp46
 70
     1
102
RTVSPropertyOp47
 70
     1
102
RTVSPropertyOp48
 70
     1
102
RTVSPropertyOp49
 70
     1
102
RTVSPropertyOp50
 70
     1
102
RTVSPropertyOp51
 70
     0
102
RTVSPropertyOp52
 70
     0
102
RTVSPropertyOp53
 70
     1
102
RTVSPropertyOp54
 70
     1
102
RTVSPropertyOp55
 70
     1
102
RTVSPropertyOp56
 70
     1
102
RTVSPropertyOp57
 70
     1
102
RTVSPost2010Prop28
280
     0
102
RTVSPost2010PropOp28
 70
     1
102
RTVSPost2010Prop29
280
     1
102
RTVSPost2010PropOp29
 70
     1
102
RTVSPost2010Prop30
280
     1
102
RTVSPost2010PropOp30
 70
     1
102
RTVSPost2010Prop31
280
     0
102
RTVSPost2010PropOp31
 70
     1
102
RTVSPost2010Prop32
280
     0
102
RTVSPost2010PropOp32
 70
     1
102
RTVSPost2010Prop33
280
     0
102
RTVSPost2010PropOp33
 70
     1
102
RTVSPost2010Prop34
280
     0
102
RTVSPost2010PropOp34
 70
     1
102
RTVSPost2010Prop35
280
     0
102
RTVSPost2010PropOp35
 70
     1
102
RTVSPost2010Prop36
280
     0
102
RTVSPost2010PropOp36
 70
     1
102
RTVSPost2010Prop37
 90
       50
102
RTVSPost2010PropOp37
 70
     1
102
RTVSPost2010Prop38
140
0.0
102
RTVSPost2010PropOp38
 70
     1
102
RTVSPost2010Prop39
140
1.0
102
RTVSPost2010PropOp39
 70
     1
102
RTVSPost2010Prop40
 90
        0
102
RTVSPost2010PropOp40
 70
     1
102
RTVSPost2010Prop41ColorIndex
 90
       18
102
RTVSPost2010Prop41ColorRGB
 90
        0
102
RTVSPost2010PropOp41
 70
     1
102
RTVSPost2010Prop42
 90
       50
102
RTVSPost2010PropOp42
 70
     1
102
RTVSPost2010Prop43
 90
        3
102
RTVSPost2010PropOp43
 70
     1
102
RTVSPost2010Prop44ColorIndex
 90
        5
102
RTVSPost2010Prop44ColorRGB
 90
      255
102
RTVSPost2010PropOp44
 70
     1
102
RTVSPost2010Prop45
280
     0
102
RTVSPost2010PropOp45
 70
     1
102
RTVSPost2010Prop46
 90
       50
102
RTVSPost2010PropOp46
 70
     1
102
RTVSPost2010Prop47
 90
       50
102
RTVSPost2010PropOp47
 70
     1
102
RTVSPost2010Prop48
 90
       50
102
RTVSPost2010PropOp48
 70
     1
102
RTVSPost2010Prop49
280
     0
102
RTVSPost2010PropOp49
 70
     1
102
RTVSPost2010Prop50
 90
       50
102
RTVSPost2010PropOp50
 70
     1
102
RTVSPost2010Prop51ColorIndex
 90
      256
102
RTVSPost2010Prop51ColorRGB
 90
-16777216
102
RTVSPost2010PropOp51
 70
     0
102
RTVSPost2010Prop52
140
1.0
102
RTVSPost2010PropOp52
 70
     0
102
RTVSPost2010Prop53
 90
        2
102
RTVSPost2010PropOp53
 70
     1
102
RTVSPost2010Prop54
  1
strokes_ogs.tif
102
RTVSPost2010PropOp54
 70
     1
102
RTVSPost2010Prop55
280
     0
102
RTVSPost2010PropOp55
 70
     1
102
RTVSPost2010Prop56
140
1.0
102
RTVSPost2010PropOp56
 70
     1
102
RTVSPost2010Prop57
140
1.0
102
RTVSPost2010PropOp57
 70
     1
  0
XRECORD
  5
214
102
{ACAD_REACTORS
330
213
102
}
330
213
100
AcDbXrecord
280
     1
102
RTVSPropertyOp0
 70
     1
102
RTVSPropertyOp1
 70
     1
102
RTVSPropertyOp2
 70
     1
102
RTVSPropertyOp3
 70
     1
102
RTVSPropertyOp4
 70
     1
102
RTVSPropertyOp5
 70
     1
102
RTVSPropertyOp6
 70
     1
102
RTVSPropertyOp7
 70
     1
102
RTVSPropertyOp8
 70
     1
102
RTVSPropertyOp9
 70
     1
102
RTVSPropertyOp10
 70
     1
102
RTVSPropertyOp11
 70
     1
102
RTVSPropertyOp12
 70
     1
102
RTVSPropertyOp13
 70
     1
102
RTVSPropertyOp14
 70
     1
102
RTVSPropertyOp15
 70
     1
102
RTVSPropertyOp16
 70
     1
102
RTVSPropertyOp17
 70
     1
102
RTVSPropertyOp18
 70
     1
102
RTVSPropertyOp19
 70
     1
102
RTVSPropertyOp20
 70
     1
102
RTVSPropertyOp21
 70
     1
102
RTVSPropertyOp22
 70
     1
102
RTVSPropertyOp23
 70
     1
102
RTVSPropertyOp24
 70
     1
102
RTVSPropertyOp25
 70
     1
102
RTVSPropertyOp26
 70
     1
102
RTVSPropertyOp27
 70
     1
102
RTVSPropertyOp28
 70
     1
102
RTVSPropertyOp29
 70
     1
102
RTVSPropertyOp30
 70
     1
102
RTVSPropertyOp31
 70
     1
102
RTVSPropertyOp32
 70
     1
102
RTVSPropertyOp33
 70
     1
102
RTVSPropertyOp34
 70
     1
102
RTVSPropertyOp35
 70
     1
102
RTVSPropertyOp36
 70
     1
102
RTVSPropertyOp37
 70
     1
102
RTVSPropertyOp38
 70
     1
102
RTVSPropertyOp39
 70
     1
102
RTVSPropertyOp40
 70
     1
102
RTVSPropertyOp41
 70
     1
102
RTVSPropertyOp42
 70
     1
102
RTVSPropertyOp43
 70
     1
102
RTVSPropertyOp44
 70
     1
102
RTVSPropertyOp45
 70
     1
102
RTVSPropertyOp46
 70
     1
102
RTVSPropertyOp47
 70
     1
102
RTVSPropertyOp48
 70
     1
102
RTVSPropertyOp49
 70
     1
102
RTVSPropertyOp50
 70
     1
102
RTVSPropertyOp51
 70
     0
102
RTVSPropertyOp52
 70
     0
102
RTVSPropertyOp53
 70
     1
102
RTVSPropertyOp54
 70
     1
102
RTVSPropertyOp55
 70
     1
102
RTVSPropertyOp56
 70
     1
102
RTVSPropertyOp57
 70
     1
102
RTVSPost2010Prop28
280
     0
102
RTVSPost2010PropOp28
 70
     1
102
RTVSPost2010Prop29
280
     1
102
RTVSPost2010PropOp29
 70
     1
102
RTVSPost2010Prop30
280
     1
102
RTVSPost2010PropOp30
 70
     1
102
RTVSPost2010Prop31
280
     0
102
RTVSPost2010PropOp31
 70
     1
102
RTVSPost2010Prop32
280
     0
102
RTVSPost2010PropOp32
 70
     1
102
RTVSPost2010Prop33
280
     0
102
RTVSPost2010PropOp33
 70
     1
102
RTVSPost2010Prop34
280
     0
102
RTVSPost2010PropOp34
 70
     1
102
RTVSPost2010Prop35
280
     0
102
RTVSPost2010PropOp35
 70
     1
102
RTVSPost2010Prop36
280
     0
102
RTVSPost2010PropOp36
 70
     1
102
RTVSPost2010Prop37
 90
       50
102
RTVSPost2010PropOp37
 70
     1
102
RTVSPost2010Prop38
140
0.0
102
RTVSPost2010PropOp38
 70
     1
102
RTVSPost2010Prop39
140
1.0
102
RTVSPost2010PropOp39
 70
     1
102
RTVSPost2010Prop40
 90
        0
102
RTVSPost2010PropOp40
 70
     1
102
RTVSPost2010Prop41ColorIndex
 90
       18
102
RTVSPost2010Prop41ColorRGB
 90
        0
102
RTVSPost2010PropOp41
 70
     1
102
RTVSPost2010Prop42
 90
       50
102
RTVSPost2010PropOp42
 70
     1
102
RTVSPost2010Prop43
 90
        3
102
RTVSPost2010PropOp43
 70
     1
102
RTVSPost2010Prop44ColorIndex
 90
        5
102
RTVSPost2010Prop44ColorRGB
 90
      255
102
RTVSPost2010PropOp44
 70
     1
102
RTVSPost2010Prop45
280
     0
102
RTVSPost2010PropOp45
 70
     1
102
RTVSPost2010Prop46
 90
       50
102
RTVSPost2010PropOp46
 70
     1
102
RTVSPost2010Prop47
 90
       50
102
RTVSPost2010PropOp47
 70
     1
102
RTVSPost2010Prop48
 90
       50
102
RTVSPost2010PropOp48
 70
     1
102
RTVSPost2010Prop49
280
     0
102
RTVSPost2010PropOp49
 70
     1
102
RTVSPost2010Prop50
 90
       50
102
RTVSPost2010PropOp50
 70
     1
102
RTVSPost2010Prop51ColorIndex
 90
      256
102
RTVSPost2010Prop51ColorRGB
 90
-16777216
102
RTVSPost2010PropOp51
 70
     0
102
RTVSPost2010Prop52
140
1.0
102
RTVSPost2010PropOp52
 70
     0
102
RTVSPost2010Prop53
 90
        2
102
RTVSPost2010PropOp53
 70
     1
102
RTVSPost2010Prop54
  1
strokes_ogs.tif
102
RTVSPost2010PropOp54
 70
     1
102
RTVSPost2010Prop55
280
     0
102
RTVSPost2010PropOp55
 70
     1
102
RTVSPost2010Prop56
140
1.0
102
RTVSPost2010PropOp56
 70
     1
102
RTVSPost2010Prop57
140
1.0
102
RTVSPost2010PropOp57
 70
     1
  0
XRECORD
  5
228
102
{ACAD_REACTORS
330
227
102
}
330
227
100
AcDbXrecord
280
     1
102
RTVSPropertyOp0
 70
     0
102
RTVSPropertyOp1
 70
     0
102
RTVSPropertyOp2
 70
     0
102
RTVSPropertyOp3
 70
     0
102
RTVSPropertyOp4
 70
     0
102
RTVSPropertyOp5
 70
     0
102
RTVSPropertyOp6
 70
     0
102
RTVSPropertyOp7
 70
     0
102
RTVSPropertyOp8
 70
     0
102
RTVSPropertyOp9
 70
     0
102
RTVSPropertyOp10
 70
     0
102
RTVSPropertyOp11
 70
     0
102
RTVSPropertyOp12
 70
     0
102
RTVSPropertyOp13
 70
     0
102
RTVSPropertyOp14
 70
     2
102
RTVSPropertyOp15
 70
     0
102
RTVSPropertyOp16
 70
     0
102
RTVSPropertyOp17
 70
     0
102
RTVSPropertyOp18
 70
     0
102
RTVSPropertyOp19
 70
     0
102
RTVSPropertyOp20
 70
     0
102
RTVSPropertyOp21
 70
     0
102
RTVSPropertyOp22
 70
     0
102
RTVSPropertyOp23
 70
     0
102
RTVSPropertyOp24
 70
     0
102
RTVSPropertyOp25
 70
     0
102
RTVSPropertyOp26
 70
     0
102
RTVSPropertyOp27
 70
     0
102
RTVSPropertyOp28
 70
     0
102
RTVSPropertyOp29
 70
     0
102
RTVSPropertyOp30
 70
     0
102
RTVSPropertyOp31
 70
     0
102
RTVSPropertyOp32
 70
     0
102
RTVSPropertyOp33
 70
     0
102
RTVSPropertyOp34
 70
     0
102
RTVSPropertyOp35
 70
     0
102
RTVSPropertyOp36
 70
     0
102
RTVSPropertyOp37
 70
     0
102
RTVSPropertyOp38
 70
     0
102
RTVSPropertyOp39
 70
     0
102
RTVSPropertyOp40
 70
     0
102
RTVSPropertyOp41
 70
     0
102
RTVSPropertyOp42
 70
     0
102
RTVSPropertyOp43
 70
     0
102
RTVSPropertyOp44
 70
     0
102
RTVSPropertyOp45
 70
     0
102
RTVSPropertyOp46
 70
     0
102
RTVSPropertyOp47
 70
     0
102
RTVSPropertyOp48
 70
     0
102
RTVSPropertyOp49
 70
     0
102
RTVSPropertyOp50
 70
     0
102
RTVSPropertyOp51
 70
     0
102
RTVSPropertyOp52
 70
     0
102
RTVSPropertyOp53
 70
     0
102
RTVSPropertyOp54
 70
     0
102
RTVSPropertyOp55
 70
     0
102
RTVSPropertyOp56
 70
     0
102
RTVSPropertyOp57
 70
     0
102
RTVSPost2010Prop28
280
     0
102
RTVSPost2010PropOp28
 70
     0
102
RTVSPost2010Prop29
280
     1
102
RTVSPost2010PropOp29
 70
     0
102
RTVSPost2010Prop30
280
     1
102
RTVSPost2010PropOp30
 70
     0
102
RTVSPost2010Prop31
280
     0
102
RTVSPost2010PropOp31
 70
     0
102
RTVSPost2010Prop32
280
     0
102
RTVSPost2010PropOp32
 70
     0
102
RTVSPost2010Prop33
280
     0
102
RTVSPost2010PropOp33
 70
     0
102
RTVSPost2010Prop34
280
     0
102
RTVSPost2010PropOp34
 70
     0
102
RTVSPost2010Prop35
280
     0
102
RTVSPost2010PropOp35
 70
     0
102
RTVSPost2010Prop36
280
     0
102
RTVSPost2010PropOp36
 70
     0
102
RTVSPost2010Prop37
 90
       50
102
RTVSPost2010PropOp37
 70
     0
102
RTVSPost2010Prop38
140
0.0
102
RTVSPost2010PropOp38
 70
     0
102
RTVSPost2010Prop39
140
1.0
102
RTVSPost2010PropOp39
 70
     0
102
RTVSPost2010Prop40
 90
        0
102
RTVSPost2010PropOp40
 70
     0
102
RTVSPost2010Prop41ColorIndex
 90
       18
102
RTVSPost2010Prop41ColorRGB
 90
        0
102
RTVSPost2010PropOp41
 70
     0
102
RTVSPost2010Prop42
 90
       50
102
RTVSPost2010PropOp42
 70
     0
102
RTVSPost2010Prop43
 90
        3
102
RTVSPost2010PropOp43
 70
     0
102
RTVSPost2010Prop44ColorIndex
 90
        5
102
RTVSPost2010Prop44ColorRGB
 90
      255
102
RTVSPost2010PropOp44
 70
     0
102
RTVSPost2010Prop45
280
     0
102
RTVSPost2010PropOp45
 70
     0
102
RTVSPost2010Prop46
 90
       50
102
RTVSPost2010PropOp46
 70
     0
102
RTVSPost2010Prop47
 90
       50
102
RTVSPost2010PropOp47
 70
     0
102
RTVSPost2010Prop48
 90
       50
102
RTVSPost2010PropOp48
 70
     0
102
RTVSPost2010Prop49
280
     0
102
RTVSPost2010PropOp49
 70
     0
102
RTVSPost2010Prop50
 90
       50
102
RTVSPost2010PropOp50
 70
     0
102
RTVSPost2010Prop51ColorIndex
 90
      256
102
RTVSPost2010Prop51ColorRGB
 90
-16777216
102
RTVSPost2010PropOp51
 70
     0
102
RTVSPost2010Prop52
140
1.0
102
RTVSPost2010PropOp52
 70
     0
102
RTVSPost2010Prop53
 90
        2
102
RTVSPost2010PropOp53
 70
     0
102
RTVSPost2010Prop54
  1
strokes_ogs.tif
102
RTVSPost2010PropOp54
 70
     0
102
RTVSPost2010Prop55
280
     0
102
RTVSPost2010PropOp55
 70
     0
102
RTVSPost2010Prop56
140
1.0
102
RTVSPost2010PropOp56
 70
     0
102
RTVSPost2010Prop57
140
1.0
102
RTVSPost2010PropOp57
 70
     0
  0
XRECORD
  5
222
102
{ACAD_REACTORS
330
221
102
}
330
221
100
AcDbXrecord
280
     1
102
RTVSPropertyOp0
 70
     1
102
RTVSPropertyOp1
 70
     1
102
RTVSPropertyOp2
 70
     1
102
RTVSPropertyOp3
 70
     1
102
RTVSPropertyOp4
 70
     1
102
RTVSPropertyOp5
 70
     1
102
RTVSPropertyOp6
 70
     1
102
RTVSPropertyOp7
 70
     1
102
RTVSPropertyOp8
 70
     1
102
RTVSPropertyOp9
 70
     1
102
RTVSPropertyOp10
 70
     1
102
RTVSPropertyOp11
 70
     1
102
RTVSPropertyOp12
 70
     1
102
RTVSPropertyOp13
 70
     1
102
RTVSPropertyOp14
 70
     1
102
RTVSPropertyOp15
 70
     1
102
RTVSPropertyOp16
 70
     1
102
RTVSPropertyOp17
 70
     1
102
RTVSPropertyOp18
 70
     1
102
RTVSPropertyOp19
 70
     1
102
RTVSPropertyOp20
 70
     1
102
RTVSPropertyOp21
 70
     1
102
RTVSPropertyOp22
 70
     1
102
RTVSPropertyOp23
 70
     1
102
RTVSPropertyOp24
 70
     1
102
RTVSPropertyOp25
 70
     1
102
RTVSPropertyOp26
 70
     1
102
RTVSPropertyOp27
 70
     1
102
RTVSPropertyOp28
 70
     1
102
RTVSPropertyOp29
 70
     1
102
RTVSPropertyOp30
 70
     1
102
RTVSPropertyOp31
 70
     1
102
RTVSPropertyOp32
 70
     1
102
RTVSPropertyOp33
 70
     1
102
RTVSPropertyOp34
 70
     1
102
RTVSPropertyOp35
 70
     1
102
RTVSPropertyOp36
 70
     1
102
RTVSPropertyOp37
 70
     1
102
RTVSPropertyOp38
 70
     1
102
RTVSPropertyOp39
 70
     1
102
RTVSPropertyOp40
 70
     1
102
RTVSPropertyOp41
 70
     1
102
RTVSPropertyOp42
 70
     1
102
RTVSPropertyOp43
 70
     1
102
RTVSPropertyOp44
 70
     1
102
RTVSPropertyOp45
 70
     1
102
RTVSPropertyOp46
 70
     1
102
RTVSPropertyOp47
 70
     1
102
RTVSPropertyOp48
 70
     1
102
RTVSPropertyOp49
 70
     1
102
RTVSPropertyOp50
 70
     1
102
RTVSPropertyOp51
 70
     0
102
RTVSPropertyOp52
 70
     0
102
RTVSPropertyOp53
 70
     1
102
RTVSPropertyOp54
 70
     1
102
RTVSPropertyOp55
 70
     1
102
RTVSPropertyOp56
 70
     1
102
RTVSPropertyOp57
 70
     1
102
RTVSPost2010Prop28
280
     0
102
RTVSPost2010PropOp28
 70
     1
102
RTVSPost2010Prop29
280
     1
102
RTVSPost2010PropOp29
 70
     1
102
RTVSPost2010Prop30
280
     1
102
RTVSPost2010PropOp30
 70
     1
102
RTVSPost2010Prop31
280
     0
102
RTVSPost2010PropOp31
 70
     1
102
RTVSPost2010Prop32
280
     0
102
RTVSPost2010PropOp32
 70
     1
102
RTVSPost2010Prop33
280
     0
102
RTVSPost2010PropOp33
 70
     1
102
RTVSPost2010Prop34
280
     0
102
RTVSPost2010PropOp34
 70
     1
102
RTVSPost2010Prop35
280
     0
102
RTVSPost2010PropOp35
 70
     1
102
RTVSPost2010Prop36
280
     0
102
RTVSPost2010PropOp36
 70
     1
102
RTVSPost2010Prop37
 90
       50
102
RTVSPost2010PropOp37
 70
     1
102
RTVSPost2010Prop38
140
0.0
102
RTVSPost2010PropOp38
 70
     1
102
RTVSPost2010Prop39
140
1.0
102
RTVSPost2010PropOp39
 70
     1
102
RTVSPost2010Prop40
 90
        0
102
RTVSPost2010PropOp40
 70
     1
102
RTVSPost2010Prop41ColorIndex
 90
       18
102
RTVSPost2010Prop41ColorRGB
 90
        0
102
RTVSPost2010PropOp41
 70
     1
102
RTVSPost2010Prop42
 90
       50
102
RTVSPost2010PropOp42
 70
     1
102
RTVSPost2010Prop43
 90
        3
102
RTVSPost2010PropOp43
 70
     1
102
RTVSPost2010Prop44ColorIndex
 90
        5
102
RTVSPost2010Prop44ColorRGB
 90
      255
102
RTVSPost2010PropOp44
 70
     1
102
RTVSPost2010Prop45
280
     0
102
RTVSPost2010PropOp45
 70
     1
102
RTVSPost2010Prop46
 90
       50
102
RTVSPost2010PropOp46
 70
     1
102
RTVSPost2010Prop47
 90
       50
102
RTVSPost2010PropOp47
 70
     1
102
RTVSPost2010Prop48
 90
       50
102
RTVSPost2010PropOp48
 70
     1
102
RTVSPost2010Prop49
280
     0
102
RTVSPost2010PropOp49
 70
     1
102
RTVSPost2010Prop50
 90
       50
102
RTVSPost2010PropOp50
 70
     1
102
RTVSPost2010Prop51ColorIndex
 90
      256
102
RTVSPost2010Prop51ColorRGB
 90
-16777216
102
RTVSPost2010PropOp51
 70
     0
102
RTVSPost2010Prop52
140
1.0
102
RTVSPost2010PropOp52
 70
     0
102
RTVSPost2010Prop53
 90
        2
102
RTVSPost2010PropOp53
 70
     1
102
RTVSPost2010Prop54
  1
strokes_ogs.tif
102
RTVSPost2010PropOp54
 70
     1
102
RTVSPost2010Prop55
280
     0
102
RTVSPost2010PropOp55
 70
     1
102
RTVSPost2010Prop56
140
1.0
102
RTVSPost2010PropOp56
 70
     1
102
RTVSPost2010Prop57
140
1.0
102
RTVSPost2010PropOp57
 70
     1
  0
XRECORD
  5
22A
102
{ACAD_REACTORS
330
229
102
}
330
229
100
AcDbXrecord
280
     1
102
RTVSPropertyOp0
 70
     0
102
RTVSPropertyOp1
 70
     0
102
RTVSPropertyOp2
 70
     0
102
RTVSPropertyOp3
 70
     0
102
RTVSPropertyOp4
 70
     0
102
RTVSPropertyOp5
 70
     0
102
RTVSPropertyOp6
 70
     0
102
RTVSPropertyOp7
 70
     0
102
RTVSPropertyOp8
 70
     0
102
RTVSPropertyOp9
 70
     0
102
RTVSPropertyOp10
 70
     0
102
RTVSPropertyOp11
 70
     0
102
RTVSPropertyOp12
 70
     0
102
RTVSPropertyOp13
 70
     0
102
RTVSPropertyOp14
 70
     2
102
RTVSPropertyOp15
 70
     0
102
RTVSPropertyOp16
 70
     0
102
RTVSPropertyOp17
 70
     0
102
RTVSPropertyOp18
 70
     0
102
RTVSPropertyOp19
 70
     0
102
RTVSPropertyOp20
 70
     0
102
RTVSPropertyOp21
 70
     0
102
RTVSPropertyOp22
 70
     0
102
RTVSPropertyOp23
 70
     0
102
RTVSPropertyOp24
 70
     0
102
RTVSPropertyOp25
 70
     0
102
RTVSPropertyOp26
 70
     0
102
RTVSPropertyOp27
 70
     0
102
RTVSPropertyOp28
 70
     0
102
RTVSPropertyOp29
 70
     0
102
RTVSPropertyOp30
 70
     0
102
RTVSPropertyOp31
 70
     0
102
RTVSPropertyOp32
 70
     0
102
RTVSPropertyOp33
 70
     0
102
RTVSPropertyOp34
 70
     0
102
RTVSPropertyOp35
 70
     0
102
RTVSPropertyOp36
 70
     0
102
RTVSPropertyOp37
 70
     0
102
RTVSPropertyOp38
 70
     0
102
RTVSPropertyOp39
 70
     0
102
RTVSPropertyOp40
 70
     0
102
RTVSPropertyOp41
 70
     0
102
RTVSPropertyOp42
 70
     0
102
RTVSPropertyOp43
 70
     0
102
RTVSPropertyOp44
 70
     0
102
RTVSPropertyOp45
 70
     0
102
RTVSPropertyOp46
 70
     0
102
RTVSPropertyOp47
 70
     0
102
RTVSPropertyOp48
 70
     0
102
RTVSPropertyOp49
 70
     0
102
RTVSPropertyOp50
 70
     0
102
RTVSPropertyOp51
 70
     0
102
RTVSPropertyOp52
 70
     0
102
RTVSPropertyOp53
 70
     0
102
RTVSPropertyOp54
 70
     0
102
RTVSPropertyOp55
 70
     0
102
RTVSPropertyOp56
 70
     0
102
RTVSPropertyOp57
 70
     0
102
RTVSPost2010Prop28
280
     0
102
RTVSPost2010PropOp28
 70
     0
102
RTVSPost2010Prop29
280
     1
102
RTVSPost2010PropOp29
 70
     0
102
RTVSPost2010Prop30
280
     1
102
RTVSPost2010PropOp30
 70
     0
102
RTVSPost2010Prop31
280
     0
102
RTVSPost2010PropOp31
 70
     0
102
RTVSPost2010Prop32
280
     0
102
RTVSPost2010PropOp32
 70
     0
102
RTVSPost2010Prop33
280
     0
102
RTVSPost2010PropOp33
 70
     0
102
RTVSPost2010Prop34
280
     0
102
RTVSPost2010PropOp34
 70
     0
102
RTVSPost2010Prop35
280
     0
102
RTVSPost2010PropOp35
 70
     0
102
RTVSPost2010Prop36
280
     0
102
RTVSPost2010PropOp36
 70
     0
102
RTVSPost2010Prop37
 90
       50
102
RTVSPost2010PropOp37
 70
     0
102
RTVSPost2010Prop38
140
0.0
102
RTVSPost2010PropOp38
 70
     0
102
RTVSPost2010Prop39
140
1.0
102
RTVSPost2010PropOp39
 70
     0
102
RTVSPost2010Prop40
 90
        0
102
RTVSPost2010PropOp40
 70
     0
102
RTVSPost2010Prop41ColorIndex
 90
       18
102
RTVSPost2010Prop41ColorRGB
 90
        0
102
RTVSPost2010PropOp41
 70
     0
102
RTVSPost2010Prop42
 90
       50
102
RTVSPost2010PropOp42
 70
     0
102
RTVSPost2010Prop43
 90
        3
102
RTVSPost2010PropOp43
 70
     0
102
RTVSPost2010Prop44ColorIndex
 90
        5
102
RTVSPost2010Prop44ColorRGB
 90
      255
102
RTVSPost2010PropOp44
 70
     0
102
RTVSPost2010Prop45
280
     0
102
RTVSPost2010PropOp45
 70
     0
102
RTVSPost2010Prop46
 90
       50
102
RTVSPost2010PropOp46
 70
     0
102
RTVSPost2010Prop47
 90
       50
102
RTVSPost2010PropOp47
 70
     0
102
RTVSPost2010Prop48
 90
       50
102
RTVSPost2010PropOp48
 70
     0
102
RTVSPost2010Prop49
280
     0
102
RTVSPost2010PropOp49
 70
     0
102
RTVSPost2010Prop50
 90
       50
102
RTVSPost2010PropOp50
 70
     0
102
RTVSPost2010Prop51ColorIndex
 90
      256
102
RTVSPost2010Prop51ColorRGB
 90
-16777216
102
RTVSPost2010PropOp51
 70
     0
102
RTVSPost2010Prop52
140
1.0
102
RTVSPost2010PropOp52
 70
     0
102
RTVSPost2010Prop53
 90
        2
102
RTVSPost2010PropOp53
 70
     0
102
RTVSPost2010Prop54
  1
strokes_ogs.tif
102
RTVSPost2010PropOp54
 70
     0
102
RTVSPost2010Prop55
280
     0
102
RTVSPost2010PropOp55
 70
     0
102
RTVSPost2010Prop56
140
1.0
102
RTVSPost2010PropOp56
 70
     0
102
RTVSPost2010Prop57
140
1.0
102
RTVSPost2010PropOp57
 70
     0
  0
XRECORD
  5
218
102
{ACAD_REACTORS
330
217
102
}
330
217
100
AcDbXrecord
280
     1
102
RTVSPropertyOp0
 70
     1
102
RTVSPropertyOp1
 70
     1
102
RTVSPropertyOp2
 70
     1
102
RTVSPropertyOp3
 70
     1
102
RTVSPropertyOp4
 70
     1
102
RTVSPropertyOp5
 70
     1
102
RTVSPropertyOp6
 70
     1
102
RTVSPropertyOp7
 70
     1
102
RTVSPropertyOp8
 70
     1
102
RTVSPropertyOp9
 70
     1
102
RTVSPropertyOp10
 70
     1
102
RTVSPropertyOp11
 70
     1
102
RTVSPropertyOp12
 70
     1
102
RTVSPropertyOp13
 70
     1
102
RTVSPropertyOp14
 70
     1
102
RTVSPropertyOp15
 70
     1
102
RTVSPropertyOp16
 70
     1
102
RTVSPropertyOp17
 70
     1
102
RTVSPropertyOp18
 70
     1
102
RTVSPropertyOp19
 70
     1
102
RTVSPropertyOp20
 70
     1
102
RTVSPropertyOp21
 70
     1
102
RTVSPropertyOp22
 70
     1
102
RTVSPropertyOp23
 70
     1
102
RTVSPropertyOp24
 70
     1
102
RTVSPropertyOp25
 70
     1
102
RTVSPropertyOp26
 70
     1
102
RTVSPropertyOp27
 70
     1
102
RTVSPropertyOp28
 70
     1
102
RTVSPropertyOp29
 70
     1
102
RTVSPropertyOp30
 70
     1
102
RTVSPropertyOp31
 70
     1
102
RTVSPropertyOp32
 70
     1
102
RTVSPropertyOp33
 70
     1
102
RTVSPropertyOp34
 70
     1
102
RTVSPropertyOp35
 70
     1
102
RTVSPropertyOp36
 70
     1
102
RTVSPropertyOp37
 70
     1
102
RTVSPropertyOp38
 70
     1
102
RTVSPropertyOp39
 70
     1
102
RTVSPropertyOp40
 70
     1
102
RTVSPropertyOp41
 70
     1
102
RTVSPropertyOp42
 70
     1
102
RTVSPropertyOp43
 70
     1
102
RTVSPropertyOp44
 70
     1
102
RTVSPropertyOp45
 70
     1
102
RTVSPropertyOp46
 70
     1
102
RTVSPropertyOp47
 70
     1
102
RTVSPropertyOp48
 70
     1
102
RTVSPropertyOp49
 70
     1
102
RTVSPropertyOp50
 70
     1
102
RTVSPropertyOp51
 70
     0
102
RTVSPropertyOp52
 70
     0
102
RTVSPropertyOp53
 70
     1
102
RTVSPropertyOp54
 70
     1
102
RTVSPropertyOp55
 70
     1
102
RTVSPropertyOp56
 70
     1
102
RTVSPropertyOp57
 70
     1
102
RTVSPost2010Prop28
280
     0
102
RTVSPost2010PropOp28
 70
     1
102
RTVSPost2010Prop29
280
     1
102
RTVSPost2010PropOp29
 70
     1
102
RTVSPost2010Prop30
280
     1
102
RTVSPost2010PropOp30
 70
     1
102
RTVSPost2010Prop31
280
     0
102
RTVSPost2010PropOp31
 70
     1
102
RTVSPost2010Prop32
280
     0
102
RTVSPost2010PropOp32
 70
     1
102
RTVSPost2010Prop33
280
     0
102
RTVSPost2010PropOp33
 70
     1
102
RTVSPost2010Prop34
280
     0
102
RTVSPost2010PropOp34
 70
     1
102
RTVSPost2010Prop35
280
     0
102
RTVSPost2010PropOp35
 70
     1
102
RTVSPost2010Prop36
280
     0
102
RTVSPost2010PropOp36
 70
     1
102
RTVSPost2010Prop37
 90
       50
102
RTVSPost2010PropOp37
 70
     1
102
RTVSPost2010Prop38
140
0.0
102
RTVSPost2010PropOp38
 70
     1
102
RTVSPost2010Prop39
140
1.0
102
RTVSPost2010PropOp39
 70
     1
102
RTVSPost2010Prop40
 90
        0
102
RTVSPost2010PropOp40
 70
     1
102
RTVSPost2010Prop41ColorIndex
 90
       18
102
RTVSPost2010Prop41ColorRGB
 90
        0
102
RTVSPost2010PropOp41
 70
     1
102
RTVSPost2010Prop42
 90
       50
102
RTVSPost2010PropOp42
 70
     1
102
RTVSPost2010Prop43
 90
        3
102
RTVSPost2010PropOp43
 70
     1
102
RTVSPost2010Prop44ColorIndex
 90
        5
102
RTVSPost2010Prop44ColorRGB
 90
      255
102
RTVSPost2010PropOp44
 70
     1
102
RTVSPost2010Prop45
280
     0
102
RTVSPost2010PropOp45
 70
     1
102
RTVSPost2010Prop46
 90
       50
102
RTVSPost2010PropOp46
 70
     1
102
RTVSPost2010Prop47
 90
       50
102
RTVSPost2010PropOp47
 70
     1
102
RTVSPost2010Prop48
 90
       50
102
RTVSPost2010PropOp48
 70
     1
102
RTVSPost2010Prop49
280
     0
102
RTVSPost2010PropOp49
 70
     1
102
RTVSPost2010Prop50
 90
       50
102
RTVSPost2010PropOp50
 70
     1
102
RTVSPost2010Prop51ColorIndex
 90
      256
102
RTVSPost2010Prop51ColorRGB
 90
-16777216
102
RTVSPost2010PropOp51
 70
     0
102
RTVSPost2010Prop52
140
1.0
102
RTVSPost2010PropOp52
 70
     0
102
RTVSPost2010Prop53
 90
        2
102
RTVSPost2010PropOp53
 70
     1
102
RTVSPost2010Prop54
  1
strokes_ogs.tif
102
RTVSPost2010PropOp54
 70
     1
102
RTVSPost2010Prop55
280
     0
102
RTVSPost2010PropOp55
 70
     1
102
RTVSPost2010Prop56
140
1.0
102
RTVSPost2010PropOp56
 70
     1
102
RTVSPost2010Prop57
140
1.0
102
RTVSPost2010PropOp57
 70
     1
  0
XRECORD
  5
236
102
{ACAD_REACTORS
330
235
102
}
330
235
100
AcDbXrecord
280
     1
102
RTVSPropertyOp0
 70
     1
102
RTVSPropertyOp1
 70
     1
102
RTVSPropertyOp2
 70
     1
102
RTVSPropertyOp3
 70
     1
102
RTVSPropertyOp4
 70
     1
102
RTVSPropertyOp5
 70
     1
102
RTVSPropertyOp6
 70
     1
102
RTVSPropertyOp7
 70
     1
102
RTVSPropertyOp8
 70
     1
102
RTVSPropertyOp9
 70
     1
102
RTVSPropertyOp10
 70
     1
102
RTVSPropertyOp11
 70
     1
102
RTVSPropertyOp12
 70
     1
102
RTVSPropertyOp13
 70
     1
102
RTVSPropertyOp14
 70
     1
102
RTVSPropertyOp15
 70
     1
102
RTVSPropertyOp16
 70
     1
102
RTVSPropertyOp17
 70
     1
102
RTVSPropertyOp18
 70
     1
102
RTVSPropertyOp19
 70
     1
102
RTVSPropertyOp20
 70
     1
102
RTVSPropertyOp21
 70
     1
102
RTVSPropertyOp22
 70
     1
102
RTVSPropertyOp23
 70
     1
102
RTVSPropertyOp24
 70
     1
102
RTVSPropertyOp25
 70
     1
102
RTVSPropertyOp26
 70
     1
102
RTVSPropertyOp27
 70
     1
102
RTVSPropertyOp28
 70
     1
102
RTVSPropertyOp29
 70
     1
102
RTVSPropertyOp30
 70
     1
102
RTVSPropertyOp31
 70
     1
102
RTVSPropertyOp32
 70
     1
102
RTVSPropertyOp33
 70
     1
102
RTVSPropertyOp34
 70
     1
102
RTVSPropertyOp35
 70
     1
102
RTVSPropertyOp36
 70
     1
102
RTVSPropertyOp37
 70
     1
102
RTVSPropertyOp38
 70
     1
102
RTVSPropertyOp39
 70
     1
102
RTVSPropertyOp40
 70
     1
102
RTVSPropertyOp41
 70
     1
102
RTVSPropertyOp42
 70
     1
102
RTVSPropertyOp43
 70
     1
102
RTVSPropertyOp44
 70
     1
102
RTVSPropertyOp45
 70
     1
102
RTVSPropertyOp46
 70
     1
102
RTVSPropertyOp47
 70
     1
102
RTVSPropertyOp48
 70
     1
102
RTVSPropertyOp49
 70
     1
102
RTVSPropertyOp50
 70
     1
102
RTVSPropertyOp51
 70
     0
102
RTVSPropertyOp52
 70
     0
102
RTVSPropertyOp53
 70
     1
102
RTVSPropertyOp54
 70
     1
102
RTVSPropertyOp55
 70
     1
102
RTVSPropertyOp56
 70
     1
102
RTVSPropertyOp57
 70
     1
102
RTVSPost2010Prop28
280
     0
102
RTVSPost2010PropOp28
 70
     1
102
RTVSPost2010Prop29
280
     1
102
RTVSPost2010PropOp29
 70
     1
102
RTVSPost2010Prop30
280
     1
102
RTVSPost2010PropOp30
 70
     1
102
RTVSPost2010Prop31
280
     0
102
RTVSPost2010PropOp31
 70
     1
102
RTVSPost2010Prop32
280
     0
102
RTVSPost2010PropOp32
 70
     1
102
RTVSPost2010Prop33
280
     0
102
RTVSPost2010PropOp33
 70
     1
102
RTVSPost2010Prop34
280
     0
102
RTVSPost2010PropOp34
 70
     1
102
RTVSPost2010Prop35
280
     0
102
RTVSPost2010PropOp35
 70
     1
102
RTVSPost2010Prop36
280
     0
102
RTVSPost2010PropOp36
 70
     1
102
RTVSPost2010Prop37
 90
       50
102
RTVSPost2010PropOp37
 70
     1
102
RTVSPost2010Prop38
140
0.0
102
RTVSPost2010PropOp38
 70
     1
102
RTVSPost2010Prop39
140
1.0
102
RTVSPost2010PropOp39
 70
     1
102
RTVSPost2010Prop40
 90
        0
102
RTVSPost2010PropOp40
 70
     1
102
RTVSPost2010Prop41ColorIndex
 90
       18
102
RTVSPost2010Prop41ColorRGB
 90
        0
102
RTVSPost2010PropOp41
 70
     1
102
RTVSPost2010Prop42
 90
       50
102
RTVSPost2010PropOp42
 70
     1
102
RTVSPost2010Prop43
 90
        3
102
RTVSPost2010PropOp43
 70
     1
102
RTVSPost2010Prop44ColorIndex
 90
        5
102
RTVSPost2010Prop44ColorRGB
 90
      255
102
RTVSPost2010PropOp44
 70
     1
102
RTVSPost2010Prop45
280
     0
102
RTVSPost2010PropOp45
 70
     1
102
RTVSPost2010Prop46
 90
       50
102
RTVSPost2010PropOp46
 70
     1
102
RTVSPost2010Prop47
 90
       50
102
RTVSPost2010PropOp47
 70
     1
102
RTVSPost2010Prop48
 90
       50
102
RTVSPost2010PropOp48
 70
     1
102
RTVSPost2010Prop49
280
     0
102
RTVSPost2010PropOp49
 70
     1
102
RTVSPost2010Prop50
 90
       50
102
RTVSPost2010PropOp50
 70
     1
102
RTVSPost2010Prop51ColorIndex
 90
      256
102
RTVSPost2010Prop51ColorRGB
 90
-16777216
102
RTVSPost2010PropOp51
 70
     0
102
RTVSPost2010Prop52
140
1.0
102
RTVSPost2010PropOp52
 70
     0
102
RTVSPost2010Prop53
 90
        2
102
RTVSPost2010PropOp53
 70
     1
102
RTVSPost2010Prop54
  1
strokes_ogs.tif
102
RTVSPost2010PropOp54
 70
     1
102
RTVSPost2010Prop55
280
     0
102
RTVSPost2010PropOp55
 70
     1
102
RTVSPost2010Prop56
140
1.0
102
RTVSPost2010PropOp56
 70
     1
102
RTVSPost2010Prop57
140
1.0
102
RTVSPost2010PropOp57
 70
     1
  0
XRECORD
  5
234
102
{ACAD_REACTORS
330
233
102
}
330
233
100
AcDbXrecord
280
     1
102
RTVSPropertyOp0
 70
     1
102
RTVSPropertyOp1
 70
     1
102
RTVSPropertyOp2
 70
     1
102
RTVSPropertyOp3
 70
     1
102
RTVSPropertyOp4
 70
     1
102
RTVSPropertyOp5
 70
     1
102
RTVSPropertyOp6
 70
     1
102
RTVSPropertyOp7
 70
     1
102
RTVSPropertyOp8
 70
     1
102
RTVSPropertyOp9
 70
     1
102
RTVSPropertyOp10
 70
     1
102
RTVSPropertyOp11
 70
     1
102
RTVSPropertyOp12
 70
     1
102
RTVSPropertyOp13
 70
     1
102
RTVSPropertyOp14
 70
     1
102
RTVSPropertyOp15
 70
     1
102
RTVSPropertyOp16
 70
     1
102
RTVSPropertyOp17
 70
     1
102
RTVSPropertyOp18
 70
     1
102
RTVSPropertyOp19
 70
     1
102
RTVSPropertyOp20
 70
     1
102
RTVSPropertyOp21
 70
     1
102
RTVSPropertyOp22
 70
     1
102
RTVSPropertyOp23
 70
     1
102
RTVSPropertyOp24
 70
     1
102
RTVSPropertyOp25
 70
     1
102
RTVSPropertyOp26
 70
     1
102
RTVSPropertyOp27
 70
     1
102
RTVSPropertyOp28
 70
     1
102
RTVSPropertyOp29
 70
     1
102
RTVSPropertyOp30
 70
     1
102
RTVSPropertyOp31
 70
     1
102
RTVSPropertyOp32
 70
     1
102
RTVSPropertyOp33
 70
     1
102
RTVSPropertyOp34
 70
     1
102
RTVSPropertyOp35
 70
     1
102
RTVSPropertyOp36
 70
     1
102
RTVSPropertyOp37
 70
     1
102
RTVSPropertyOp38
 70
     1
102
RTVSPropertyOp39
 70
     1
102
RTVSPropertyOp40
 70
     1
102
RTVSPropertyOp41
 70
     1
102
RTVSPropertyOp42
 70
     1
102
RTVSPropertyOp43
 70
     1
102
RTVSPropertyOp44
 70
     1
102
RTVSPropertyOp45
 70
     1
102
RTVSPropertyOp46
 70
     1
102
RTVSPropertyOp47
 70
     1
102
RTVSPropertyOp48
 70
     1
102
RTVSPropertyOp49
 70
     1
102
RTVSPropertyOp50
 70
     1
102
RTVSPropertyOp51
 70
     0
102
RTVSPropertyOp52
 70
     0
102
RTVSPropertyOp53
 70
     1
102
RTVSPropertyOp54
 70
     1
102
RTVSPropertyOp55
 70
     1
102
RTVSPropertyOp56
 70
     1
102
RTVSPropertyOp57
 70
     1
102
RTVSPost2010Prop28
280
     0
102
RTVSPost2010PropOp28
 70
     1
102
RTVSPost2010Prop29
280
     1
102
RTVSPost2010PropOp29
 70
     1
102
RTVSPost2010Prop30
280
     1
102
RTVSPost2010PropOp30
 70
     1
102
RTVSPost2010Prop31
280
     0
102
RTVSPost2010PropOp31
 70
     1
102
RTVSPost2010Prop32
280
     0
102
RTVSPost2010PropOp32
 70
     1
102
RTVSPost2010Prop33
280
     0
102
RTVSPost2010PropOp33
 70
     1
102
RTVSPost2010Prop34
280
     0
102
RTVSPost2010PropOp34
 70
     1
102
RTVSPost2010Prop35
280
     0
102
RTVSPost2010PropOp35
 70
     1
102
RTVSPost2010Prop36
280
     0
102
RTVSPost2010PropOp36
 70
     1
102
RTVSPost2010Prop37
 90
       50
102
RTVSPost2010PropOp37
 70
     1
102
RTVSPost2010Prop38
140
0.0
102
RTVSPost2010PropOp38
 70
     1
102
RTVSPost2010Prop39
140
1.0
102
RTVSPost2010PropOp39
 70
     1
102
RTVSPost2010Prop40
 90
        0
102
RTVSPost2010PropOp40
 70
     1
102
RTVSPost2010Prop41ColorIndex
 90
       18
102
RTVSPost2010Prop41ColorRGB
 90
        0
102
RTVSPost2010PropOp41
 70
     1
102
RTVSPost2010Prop42
 90
       50
102
RTVSPost2010PropOp42
 70
     1
102
RTVSPost2010Prop43
 90
        3
102
RTVSPost2010PropOp43
 70
     1
102
RTVSPost2010Prop44ColorIndex
 90
        5
102
RTVSPost2010Prop44ColorRGB
 90
      255
102
RTVSPost2010PropOp44
 70
     1
102
RTVSPost2010Prop45
280
     0
102
RTVSPost2010PropOp45
 70
     1
102
RTVSPost2010Prop46
 90
       50
102
RTVSPost2010PropOp46
 70
     1
102
RTVSPost2010Prop47
 90
       50
102
RTVSPost2010PropOp47
 70
     1
102
RTVSPost2010Prop48
 90
       50
102
RTVSPost2010PropOp48
 70
     1
102
RTVSPost2010Prop49
280
     0
102
RTVSPost2010PropOp49
 70
     1
102
RTVSPost2010Prop50
 90
       50
102
RTVSPost2010PropOp50
 70
     1
102
RTVSPost2010Prop51ColorIndex
 90
      256
102
RTVSPost2010Prop51ColorRGB
 90
-16777216
102
RTVSPost2010PropOp51
 70
     0
102
RTVSPost2010Prop52
140
1.0
102
RTVSPost2010PropOp52
 70
     0
102
RTVSPost2010Prop53
 90
        2
102
RTVSPost2010PropOp53
 70
     1
102
RTVSPost2010Prop54
  1
strokes_ogs.tif
102
RTVSPost2010PropOp54
 70
     1
102
RTVSPost2010Prop55
280
     0
102
RTVSPost2010PropOp55
 70
     1
102
RTVSPost2010Prop56
140
1.0
102
RTVSPost2010PropOp56
 70
     1
102
RTVSPost2010Prop57
140
1.0
102
RTVSPost2010PropOp57
 70
     1
  0
XRECORD
  5
22E
102
{ACAD_REACTORS
330
22D
102
}
330
22D
100
AcDbXrecord
280
     1
102
RTVSPropertyOp0
 70
     1
102
RTVSPropertyOp1
 70
     1
102
RTVSPropertyOp2
 70
     1
102
RTVSPropertyOp3
 70
     1
102
RTVSPropertyOp4
 70
     1
102
RTVSPropertyOp5
 70
     1
102
RTVSPropertyOp6
 70
     1
102
RTVSPropertyOp7
 70
     1
102
RTVSPropertyOp8
 70
     1
102
RTVSPropertyOp9
 70
     1
102
RTVSPropertyOp10
 70
     1
102
RTVSPropertyOp11
 70
     1
102
RTVSPropertyOp12
 70
     1
102
RTVSPropertyOp13
 70
     1
102
RTVSPropertyOp14
 70
     1
102
RTVSPropertyOp15
 70
     1
102
RTVSPropertyOp16
 70
     1
102
RTVSPropertyOp17
 70
     1
102
RTVSPropertyOp18
 70
     1
102
RTVSPropertyOp19
 70
     1
102
RTVSPropertyOp20
 70
     1
102
RTVSPropertyOp21
 70
     1
102
RTVSPropertyOp22
 70
     1
102
RTVSPropertyOp23
 70
     1
102
RTVSPropertyOp24
 70
     1
102
RTVSPropertyOp25
 70
     1
102
RTVSPropertyOp26
 70
     1
102
RTVSPropertyOp27
 70
     1
102
RTVSPropertyOp28
 70
     1
102
RTVSPropertyOp29
 70
     1
102
RTVSPropertyOp30
 70
     1
102
RTVSPropertyOp31
 70
     1
102
RTVSPropertyOp32
 70
     1
102
RTVSPropertyOp33
 70
     1
102
RTVSPropertyOp34
 70
     1
102
RTVSPropertyOp35
 70
     1
102
RTVSPropertyOp36
 70
     1
102
RTVSPropertyOp37
 70
     1
102
RTVSPropertyOp38
 70
     1
102
RTVSPropertyOp39
 70
     1
102
RTVSPropertyOp40
 70
     1
102
RTVSPropertyOp41
 70
     1
102
RTVSPropertyOp42
 70
     1
102
RTVSPropertyOp43
 70
     1
102
RTVSPropertyOp44
 70
     1
102
RTVSPropertyOp45
 70
     1
102
RTVSPropertyOp46
 70
     1
102
RTVSPropertyOp47
 70
     1
102
RTVSPropertyOp48
 70
     1
102
RTVSPropertyOp49
 70
     1
102
RTVSPropertyOp50
 70
     1
102
RTVSPropertyOp51
 70
     0
102
RTVSPropertyOp52
 70
     0
102
RTVSPropertyOp53
 70
     1
102
RTVSPropertyOp54
 70
     1
102
RTVSPropertyOp55
 70
     1
102
RTVSPropertyOp56
 70
     1
102
RTVSPropertyOp57
 70
     1
102
RTVSPost2010Prop28
280
     0
102
RTVSPost2010PropOp28
 70
     1
102
RTVSPost2010Prop29
280
     1
102
RTVSPost2010PropOp29
 70
     1
102
RTVSPost2010Prop30
280
     1
102
RTVSPost2010PropOp30
 70
     1
102
RTVSPost2010Prop31
280
     0
102
RTVSPost2010PropOp31
 70
     1
102
RTVSPost2010Prop32
280
     0
102
RTVSPost2010PropOp32
 70
     1
102
RTVSPost2010Prop33
280
     0
102
RTVSPost2010PropOp33
 70
     1
102
RTVSPost2010Prop34
280
     0
102
RTVSPost2010PropOp34
 70
     1
102
RTVSPost2010Prop35
280
     0
102
RTVSPost2010PropOp35
 70
     1
102
RTVSPost2010Prop36
280
     0
102
RTVSPost2010PropOp36
 70
     1
102
RTVSPost2010Prop37
 90
       50
102
RTVSPost2010PropOp37
 70
     1
102
RTVSPost2010Prop38
140
0.0
102
RTVSPost2010PropOp38
 70
     1
102
RTVSPost2010Prop39
140
1.0
102
RTVSPost2010PropOp39
 70
     1
102
RTVSPost2010Prop40
 90
        0
102
RTVSPost2010PropOp40
 70
     1
102
RTVSPost2010Prop41ColorIndex
 90
       18
102
RTVSPost2010Prop41ColorRGB
 90
        0
102
RTVSPost2010PropOp41
 70
     1
102
RTVSPost2010Prop42
 90
       50
102
RTVSPost2010PropOp42
 70
     1
102
RTVSPost2010Prop43
 90
        3
102
RTVSPost2010PropOp43
 70
     1
102
RTVSPost2010Prop44ColorIndex
 90
        5
102
RTVSPost2010Prop44ColorRGB
 90
      255
102
RTVSPost2010PropOp44
 70
     1
102
RTVSPost2010Prop45
280
     0
102
RTVSPost2010PropOp45
 70
     1
102
RTVSPost2010Prop46
 90
       50
102
RTVSPost2010PropOp46
 70
     1
102
RTVSPost2010Prop47
 90
       50
102
RTVSPost2010PropOp47
 70
     1
102
RTVSPost2010Prop48
 90
       50
102
RTVSPost2010PropOp48
 70
     1
102
RTVSPost2010Prop49
280
     0
102
RTVSPost2010PropOp49
 70
     1
102
RTVSPost2010Prop50
 90
       50
102
RTVSPost2010PropOp50
 70
     1
102
RTVSPost2010Prop51ColorIndex
 90
      256
102
RTVSPost2010Prop51ColorRGB
 90
-16777216
102
RTVSPost2010PropOp51
 70
     0
102
RTVSPost2010Prop52
140
1.0
102
RTVSPost2010PropOp52
 70
     0
102
RTVSPost2010Prop53
 90
        2
102
RTVSPost2010PropOp53
 70
     1
102
RTVSPost2010Prop54
  1
strokes_ogs.tif
102
RTVSPost2010PropOp54
 70
     1
102
RTVSPost2010Prop55
280
     0
102
RTVSPost2010PropOp55
 70
     1
102
RTVSPost2010Prop56
140
1.0
102
RTVSPost2010PropOp56
 70
     1
102
RTVSPost2010Prop57
140
1.0
102
RTVSPost2010PropOp57
 70
     1
  0
XRECORD
  5
230
102
{ACAD_REACTORS
330
22F
102
}
330
22F
100
AcDbXrecord
280
     1
102
RTVSPropertyOp0
 70
     1
102
RTVSPropertyOp1
 70
     1
102
RTVSPropertyOp2
 70
     1
102
RTVSPropertyOp3
 70
     1
102
RTVSPropertyOp4
 70
     1
102
RTVSPropertyOp5
 70
     1
102
RTVSPropertyOp6
 70
     1
102
RTVSPropertyOp7
 70
     1
102
RTVSPropertyOp8
 70
     1
102
RTVSPropertyOp9
 70
     1
102
RTVSPropertyOp10
 70
     1
102
RTVSPropertyOp11
 70
     1
102
RTVSPropertyOp12
 70
     1
102
RTVSPropertyOp13
 70
     1
102
RTVSPropertyOp14
 70
     1
102
RTVSPropertyOp15
 70
     1
102
RTVSPropertyOp16
 70
     1
102
RTVSPropertyOp17
 70
     1
102
RTVSPropertyOp18
 70
     1
102
RTVSPropertyOp19
 70
     1
102
RTVSPropertyOp20
 70
     1
102
RTVSPropertyOp21
 70
     1
102
RTVSPropertyOp22
 70
     1
102
RTVSPropertyOp23
 70
     1
102
RTVSPropertyOp24
 70
     1
102
RTVSPropertyOp25
 70
     1
102
RTVSPropertyOp26
 70
     1
102
RTVSPropertyOp27
 70
     1
102
RTVSPropertyOp28
 70
     1
102
RTVSPropertyOp29
 70
     1
102
RTVSPropertyOp30
 70
     1
102
RTVSPropertyOp31
 70
     1
102
RTVSPropertyOp32
 70
     1
102
RTVSPropertyOp33
 70
     1
102
RTVSPropertyOp34
 70
     1
102
RTVSPropertyOp35
 70
     1
102
RTVSPropertyOp36
 70
     1
102
RTVSPropertyOp37
 70
     1
102
RTVSPropertyOp38
 70
     1
102
RTVSPropertyOp39
 70
     1
102
RTVSPropertyOp40
 70
     1
102
RTVSPropertyOp41
 70
     1
102
RTVSPropertyOp42
 70
     1
102
RTVSPropertyOp43
 70
     1
102
RTVSPropertyOp44
 70
     1
102
RTVSPropertyOp45
 70
     1
102
RTVSPropertyOp46
 70
     1
102
RTVSPropertyOp47
 70
     1
102
RTVSPropertyOp48
 70
     1
102
RTVSPropertyOp49
 70
     1
102
RTVSPropertyOp50
 70
     1
102
RTVSPropertyOp51
 70
     0
102
RTVSPropertyOp52
 70
     0
102
RTVSPropertyOp53
 70
     1
102
RTVSPropertyOp54
 70
     1
102
RTVSPropertyOp55
 70
     1
102
RTVSPropertyOp56
 70
     1
102
RTVSPropertyOp57
 70
     1
102
RTVSPost2010Prop28
280
     0
102
RTVSPost2010PropOp28
 70
     1
102
RTVSPost2010Prop29
280
     1
102
RTVSPost2010PropOp29
 70
     1
102
RTVSPost2010Prop30
280
     1
102
RTVSPost2010PropOp30
 70
     1
102
RTVSPost2010Prop31
280
     0
102
RTVSPost2010PropOp31
 70
     1
102
RTVSPost2010Prop32
280
     0
102
RTVSPost2010PropOp32
 70
     1
102
RTVSPost2010Prop33
280
     0
102
RTVSPost2010PropOp33
 70
     1
102
RTVSPost2010Prop34
280
     0
102
RTVSPost2010PropOp34
 70
     1
102
RTVSPost2010Prop35
280
     0
102
RTVSPost2010PropOp35
 70
     1
102
RTVSPost2010Prop36
280
     0
102
RTVSPost2010PropOp36
 70
     1
102
RTVSPost2010Prop37
 90
       50
102
RTVSPost2010PropOp37
 70
     1
102
RTVSPost2010Prop38
140
0.0
102
RTVSPost2010PropOp38
 70
     1
102
RTVSPost2010Prop39
140
1.0
102
RTVSPost2010PropOp39
 70
     1
102
RTVSPost2010Prop40
 90
        0
102
RTVSPost2010PropOp40
 70
     1
102
RTVSPost2010Prop41ColorIndex
 90
       18
102
RTVSPost2010Prop41ColorRGB
 90
        0
102
RTVSPost2010PropOp41
 70
     1
102
RTVSPost2010Prop42
 90
       50
102
RTVSPost2010PropOp42
 70
     1
102
RTVSPost2010Prop43
 90
        3
102
RTVSPost2010PropOp43
 70
     1
102
RTVSPost2010Prop44ColorIndex
 90
        5
102
RTVSPost2010Prop44ColorRGB
 90
      255
102
RTVSPost2010PropOp44
 70
     1
102
RTVSPost2010Prop45
280
     0
102
RTVSPost2010PropOp45
 70
     1
102
RTVSPost2010Prop46
 90
       50
102
RTVSPost2010PropOp46
 70
     1
102
RTVSPost2010Prop47
 90
       50
102
RTVSPost2010PropOp47
 70
     1
102
RTVSPost2010Prop48
 90
       50
102
RTVSPost2010PropOp48
 70
     1
102
RTVSPost2010Prop49
280
     0
102
RTVSPost2010PropOp49
 70
     1
102
RTVSPost2010Prop50
 90
       50
102
RTVSPost2010PropOp50
 70
     1
102
RTVSPost2010Prop51ColorIndex
 90
      256
102
RTVSPost2010Prop51ColorRGB
 90
-16777216
102
RTVSPost2010PropOp51
 70
     0
102
RTVSPost2010Prop52
140
1.0
102
RTVSPost2010PropOp52
 70
     0
102
RTVSPost2010Prop53
 90
        2
102
RTVSPost2010PropOp53
 70
     1
102
RTVSPost2010Prop54
  1
strokes_ogs.tif
102
RTVSPost2010PropOp54
 70
     1
102
RTVSPost2010Prop55
280
     0
102
RTVSPost2010PropOp55
 70
     1
102
RTVSPost2010Prop56
140
1.0
102
RTVSPost2010PropOp56
 70
     1
102
RTVSPost2010Prop57
140
1.0
102
RTVSPost2010PropOp57
 70
     1
  0
XRECORD
  5
220
102
{ACAD_REACTORS
330
21F
102
}
330
21F
100
AcDbXrecord
280
     1
102
RTVSPropertyOp0
 70
     1
102
RTVSPropertyOp1
 70
     1
102
RTVSPropertyOp2
 70
     1
102
RTVSPropertyOp3
 70
     1
102
RTVSPropertyOp4
 70
     1
102
RTVSPropertyOp5
 70
     1
102
RTVSPropertyOp6
 70
     1
102
RTVSPropertyOp7
 70
     1
102
RTVSPropertyOp8
 70
     1
102
RTVSPropertyOp9
 70
     1
102
RTVSPropertyOp10
 70
     1
102
RTVSPropertyOp11
 70
     1
102
RTVSPropertyOp12
 70
     1
102
RTVSPropertyOp13
 70
     1
102
RTVSPropertyOp14
 70
     1
102
RTVSPropertyOp15
 70
     1
102
RTVSPropertyOp16
 70
     1
102
RTVSPropertyOp17
 70
     1
102
RTVSPropertyOp18
 70
     1
102
RTVSPropertyOp19
 70
     1
102
RTVSPropertyOp20
 70
     1
102
RTVSPropertyOp21
 70
     1
102
RTVSPropertyOp22
 70
     1
102
RTVSPropertyOp23
 70
     1
102
RTVSPropertyOp24
 70
     1
102
RTVSPropertyOp25
 70
     1
102
RTVSPropertyOp26
 70
     1
102
RTVSPropertyOp27
 70
     1
102
RTVSPropertyOp28
 70
     1
102
RTVSPropertyOp29
 70
     1
102
RTVSPropertyOp30
 70
     1
102
RTVSPropertyOp31
 70
     1
102
RTVSPropertyOp32
 70
     1
102
RTVSPropertyOp33
 70
     1
102
RTVSPropertyOp34
 70
     1
102
RTVSPropertyOp35
 70
     1
102
RTVSPropertyOp36
 70
     1
102
RTVSPropertyOp37
 70
     1
102
RTVSPropertyOp38
 70
     1
102
RTVSPropertyOp39
 70
     1
102
RTVSPropertyOp40
 70
     1
102
RTVSPropertyOp41
 70
     1
102
RTVSPropertyOp42
 70
     1
102
RTVSPropertyOp43
 70
     1
102
RTVSPropertyOp44
 70
     1
102
RTVSPropertyOp45
 70
     1
102
RTVSPropertyOp46
 70
     1
102
RTVSPropertyOp47
 70
     1
102
RTVSPropertyOp48
 70
     1
102
RTVSPropertyOp49
 70
     1
102
RTVSPropertyOp50
 70
     1
102
RTVSPropertyOp51
 70
     0
102
RTVSPropertyOp52
 70
     0
102
RTVSPropertyOp53
 70
     1
102
RTVSPropertyOp54
 70
     1
102
RTVSPropertyOp55
 70
     1
102
RTVSPropertyOp56
 70
     1
102
RTVSPropertyOp57
 70
     1
102
RTVSPost2010Prop28
280
     0
102
RTVSPost2010PropOp28
 70
     1
102
RTVSPost2010Prop29
280
     1
102
RTVSPost2010PropOp29
 70
     1
102
RTVSPost2010Prop30
280
     1
102
RTVSPost2010PropOp30
 70
     1
102
RTVSPost2010Prop31
280
     0
102
RTVSPost2010PropOp31
 70
     1
102
RTVSPost2010Prop32
280
     0
102
RTVSPost2010PropOp32
 70
     1
102
RTVSPost2010Prop33
280
     0
102
RTVSPost2010PropOp33
 70
     1
102
RTVSPost2010Prop34
280
     0
102
RTVSPost2010PropOp34
 70
     1
102
RTVSPost2010Prop35
280
     0
102
RTVSPost2010PropOp35
 70
     1
102
RTVSPost2010Prop36
280
     0
102
RTVSPost2010PropOp36
 70
     1
102
RTVSPost2010Prop37
 90
       50
102
RTVSPost2010PropOp37
 70
     1
102
RTVSPost2010Prop38
140
0.0
102
RTVSPost2010PropOp38
 70
     1
102
RTVSPost2010Prop39
140
1.0
102
RTVSPost2010PropOp39
 70
     1
102
RTVSPost2010Prop40
 90
        0
102
RTVSPost2010PropOp40
 70
     1
102
RTVSPost2010Prop41ColorIndex
 90
       18
102
RTVSPost2010Prop41ColorRGB
 90
        0
102
RTVSPost2010PropOp41
 70
     1
102
RTVSPost2010Prop42
 90
       50
102
RTVSPost2010PropOp42
 70
     1
102
RTVSPost2010Prop43
 90
        3
102
RTVSPost2010PropOp43
 70
     1
102
RTVSPost2010Prop44ColorIndex
 90
        5
102
RTVSPost2010Prop44ColorRGB
 90
      255
102
RTVSPost2010PropOp44
 70
     1
102
RTVSPost2010Prop45
280
     0
102
RTVSPost2010PropOp45
 70
     1
102
RTVSPost2010Prop46
 90
       50
102
RTVSPost2010PropOp46
 70
     1
102
RTVSPost2010Prop47
 90
       50
102
RTVSPost2010PropOp47
 70
     1
102
RTVSPost2010Prop48
 90
       50
102
RTVSPost2010PropOp48
 70
     1
102
RTVSPost2010Prop49
280
     0
102
RTVSPost2010PropOp49
 70
     1
102
RTVSPost2010Prop50
 90
       50
102
RTVSPost2010PropOp50
 70
     1
102
RTVSPost2010Prop51ColorIndex
 90
      256
102
RTVSPost2010Prop51ColorRGB
 90
-16777216
102
RTVSPost2010PropOp51
 70
     0
102
RTVSPost2010Prop52
140
1.0
102
RTVSPost2010PropOp52
 70
     0
102
RTVSPost2010Prop53
 90
        2
102
RTVSPost2010PropOp53
 70
     1
102
RTVSPost2010Prop54
  1
strokes_ogs.tif
102
RTVSPost2010PropOp54
 70
     1
102
RTVSPost2010Prop55
280
     0
102
RTVSPost2010PropOp55
 70
     1
102
RTVSPost2010Prop56
140
1.0
102
RTVSPost2010PropOp56
 70
     1
102
RTVSPost2010Prop57
140
1.0
102
RTVSPost2010PropOp57
 70
     1
  0
XRECORD
  5
212
102
{ACAD_REACTORS
330
211
102
}
330
211
100
AcDbXrecord
280
     1
102
RTVSPropertyOp0
 70
     1
102
RTVSPropertyOp1
 70
     1
102
RTVSPropertyOp2
 70
     1
102
RTVSPropertyOp3
 70
     1
102
RTVSPropertyOp4
 70
     1
102
RTVSPropertyOp5
 70
     1
102
RTVSPropertyOp6
 70
     1
102
RTVSPropertyOp7
 70
     1
102
RTVSPropertyOp8
 70
     1
102
RTVSPropertyOp9
 70
     1
102
RTVSPropertyOp10
 70
     1
102
RTVSPropertyOp11
 70
     1
102
RTVSPropertyOp12
 70
     1
102
RTVSPropertyOp13
 70
     1
102
RTVSPropertyOp14
 70
     1
102
RTVSPropertyOp15
 70
     1
102
RTVSPropertyOp16
 70
     1
102
RTVSPropertyOp17
 70
     1
102
RTVSPropertyOp18
 70
     1
102
RTVSPropertyOp19
 70
     1
102
RTVSPropertyOp20
 70
     1
102
RTVSPropertyOp21
 70
     1
102
RTVSPropertyOp22
 70
     1
102
RTVSPropertyOp23
 70
     1
102
RTVSPropertyOp24
 70
     1
102
RTVSPropertyOp25
 70
     1
102
RTVSPropertyOp26
 70
     1
102
RTVSPropertyOp27
 70
     1
102
RTVSPropertyOp28
 70
     1
102
RTVSPropertyOp29
 70
     1
102
RTVSPropertyOp30
 70
     1
102
RTVSPropertyOp31
 70
     1
102
RTVSPropertyOp32
 70
     1
102
RTVSPropertyOp33
 70
     1
102
RTVSPropertyOp34
 70
     1
102
RTVSPropertyOp35
 70
     1
102
RTVSPropertyOp36
 70
     1
102
RTVSPropertyOp37
 70
     1
102
RTVSPropertyOp38
 70
     1
102
RTVSPropertyOp39
 70
     1
102
RTVSPropertyOp40
 70
     1
102
RTVSPropertyOp41
 70
     1
102
RTVSPropertyOp42
 70
     1
102
RTVSPropertyOp43
 70
     1
102
RTVSPropertyOp44
 70
     1
102
RTVSPropertyOp45
 70
     1
102
RTVSPropertyOp46
 70
     1
102
RTVSPropertyOp47
 70
     1
102
RTVSPropertyOp48
 70
     1
102
RTVSPropertyOp49
 70
     1
102
RTVSPropertyOp50
 70
     1
102
RTVSPropertyOp51
 70
     0
102
RTVSPropertyOp52
 70
     0
102
RTVSPropertyOp53
 70
     1
102
RTVSPropertyOp54
 70
     1
102
RTVSPropertyOp55
 70
     1
102
RTVSPropertyOp56
 70
     1
102
RTVSPropertyOp57
 70
     1
102
RTVSPost2010Prop28
280
     0
102
RTVSPost2010PropOp28
 70
     1
102
RTVSPost2010Prop29
280
     1
102
RTVSPost2010PropOp29
 70
     1
102
RTVSPost2010Prop30
280
     1
102
RTVSPost2010PropOp30
 70
     1
102
RTVSPost2010Prop31
280
     0
102
RTVSPost2010PropOp31
 70
     1
102
RTVSPost2010Prop32
280
     0
102
RTVSPost2010PropOp32
 70
     1
102
RTVSPost2010Prop33
280
     0
102
RTVSPost2010PropOp33
 70
     1
102
RTVSPost2010Prop34
280
     0
102
RTVSPost2010PropOp34
 70
     1
102
RTVSPost2010Prop35
280
     0
102
RTVSPost2010PropOp35
 70
     1
102
RTVSPost2010Prop36
280
     0
102
RTVSPost2010PropOp36
 70
     1
102
RTVSPost2010Prop37
 90
       50
102
RTVSPost2010PropOp37
 70
     1
102
RTVSPost2010Prop38
140
0.0
102
RTVSPost2010PropOp38
 70
     1
102
RTVSPost2010Prop39
140
1.0
102
RTVSPost2010PropOp39
 70
     1
102
RTVSPost2010Prop40
 90
        0
102
RTVSPost2010PropOp40
 70
     1
102
RTVSPost2010Prop41ColorIndex
 90
       18
102
RTVSPost2010Prop41ColorRGB
 90
        0
102
RTVSPost2010PropOp41
 70
     1
102
RTVSPost2010Prop42
 90
       50
102
RTVSPost2010PropOp42
 70
     1
102
RTVSPost2010Prop43
 90
        3
102
RTVSPost2010PropOp43
 70
     1
102
RTVSPost2010Prop44ColorIndex
 90
        5
102
RTVSPost2010Prop44ColorRGB
 90
      255
102
RTVSPost2010PropOp44
 70
     1
102
RTVSPost2010Prop45
280
     0
102
RTVSPost2010PropOp45
 70
     1
102
RTVSPost2010Prop46
 90
       50
102
RTVSPost2010PropOp46
 70
     1
102
RTVSPost2010Prop47
 90
       50
102
RTVSPost2010PropOp47
 70
     1
102
RTVSPost2010Prop48
 90
       50
102
RTVSPost2010PropOp48
 70
     1
102
RTVSPost2010Prop49
280
     0
102
RTVSPost2010PropOp49
 70
     1
102
RTVSPost2010Prop50
 90
       50
102
RTVSPost2010PropOp50
 70
     1
102
RTVSPost2010Prop51ColorIndex
 90
      256
102
RTVSPost2010Prop51ColorRGB
 90
-16777216
102
RTVSPost2010PropOp51
 70
     0
102
RTVSPost2010Prop52
140
1.0
102
RTVSPost2010PropOp52
 70
     0
102
RTVSPost2010Prop53
 90
        2
102
RTVSPost2010PropOp53
 70
     1
102
RTVSPost2010Prop54
  1
strokes_ogs.tif
102
RTVSPost2010PropOp54
 70
     1
102
RTVSPost2010Prop55
280
     0
102
RTVSPost2010PropOp55
 70
     1
102
RTVSPost2010Prop56
140
1.0
102
RTVSPost2010PropOp56
 70
     1
102
RTVSPost2010Prop57
140
1.0
102
RTVSPost2010PropOp57
 70
     1
  0
XRECORD
  5
232
102
{ACAD_REACTORS
330
231
102
}
330
231
100
AcDbXrecord
280
     1
102
RTVSPropertyOp0
 70
     1
102
RTVSPropertyOp1
 70
     1
102
RTVSPropertyOp2
 70
     1
102
RTVSPropertyOp3
 70
     1
102
RTVSPropertyOp4
 70
     1
102
RTVSPropertyOp5
 70
     1
102
RTVSPropertyOp6
 70
     1
102
RTVSPropertyOp7
 70
     1
102
RTVSPropertyOp8
 70
     1
102
RTVSPropertyOp9
 70
     1
102
RTVSPropertyOp10
 70
     1
102
RTVSPropertyOp11
 70
     1
102
RTVSPropertyOp12
 70
     1
102
RTVSPropertyOp13
 70
     1
102
RTVSPropertyOp14
 70
     1
102
RTVSPropertyOp15
 70
     1
102
RTVSPropertyOp16
 70
     1
102
RTVSPropertyOp17
 70
     1
102
RTVSPropertyOp18
 70
     1
102
RTVSPropertyOp19
 70
     1
102
RTVSPropertyOp20
 70
     1
102
RTVSPropertyOp21
 70
     1
102
RTVSPropertyOp22
 70
     1
102
RTVSPropertyOp23
 70
     1
102
RTVSPropertyOp24
 70
     1
102
RTVSPropertyOp25
 70
     1
102
RTVSPropertyOp26
 70
     1
102
RTVSPropertyOp27
 70
     1
102
RTVSPropertyOp28
 70
     1
102
RTVSPropertyOp29
 70
     1
102
RTVSPropertyOp30
 70
     1
102
RTVSPropertyOp31
 70
     1
102
RTVSPropertyOp32
 70
     1
102
RTVSPropertyOp33
 70
     1
102
RTVSPropertyOp34
 70
     1
102
RTVSPropertyOp35
 70
     1
102
RTVSPropertyOp36
 70
     1
102
RTVSPropertyOp37
 70
     1
102
RTVSPropertyOp38
 70
     1
102
RTVSPropertyOp39
 70
     1
102
RTVSPropertyOp40
 70
     1
102
RTVSPropertyOp41
 70
     1
102
RTVSPropertyOp42
 70
     1
102
RTVSPropertyOp43
 70
     1
102
RTVSPropertyOp44
 70
     1
102
RTVSPropertyOp45
 70
     1
102
RTVSPropertyOp46
 70
     1
102
RTVSPropertyOp47
 70
     1
102
RTVSPropertyOp48
 70
     1
102
RTVSPropertyOp49
 70
     1
102
RTVSPropertyOp50
 70
     1
102
RTVSPropertyOp51
 70
     0
102
RTVSPropertyOp52
 70
     0
102
RTVSPropertyOp53
 70
     1
102
RTVSPropertyOp54
 70
     1
102
RTVSPropertyOp55
 70
     1
102
RTVSPropertyOp56
 70
     1
102
RTVSPropertyOp57
 70
     1
102
RTVSPost2010Prop28
280
     0
102
RTVSPost2010PropOp28
 70
     1
102
RTVSPost2010Prop29
280
     1
102
RTVSPost2010PropOp29
 70
     1
102
RTVSPost2010Prop30
280
     1
102
RTVSPost2010PropOp30
 70
     1
102
RTVSPost2010Prop31
280
     0
102
RTVSPost2010PropOp31
 70
     1
102
RTVSPost2010Prop32
280
     0
102
RTVSPost2010PropOp32
 70
     1
102
RTVSPost2010Prop33
280
     0
102
RTVSPost2010PropOp33
 70
     1
102
RTVSPost2010Prop34
280
     0
102
RTVSPost2010PropOp34
 70
     1
102
RTVSPost2010Prop35
280
     0
102
RTVSPost2010PropOp35
 70
     1
102
RTVSPost2010Prop36
280
     0
102
RTVSPost2010PropOp36
 70
     1
102
RTVSPost2010Prop37
 90
       50
102
RTVSPost2010PropOp37
 70
     1
102
RTVSPost2010Prop38
140
0.0
102
RTVSPost2010PropOp38
 70
     1
102
RTVSPost2010Prop39
140
1.0
102
RTVSPost2010PropOp39
 70
     1
102
RTVSPost2010Prop40
 90
        0
102
RTVSPost2010PropOp40
 70
     1
102
RTVSPost2010Prop41ColorIndex
 90
       18
102
RTVSPost2010Prop41ColorRGB
 90
        0
102
RTVSPost2010PropOp41
 70
     1
102
RTVSPost2010Prop42
 90
       50
102
RTVSPost2010PropOp42
 70
     1
102
RTVSPost2010Prop43
 90
        3
102
RTVSPost2010PropOp43
 70
     1
102
RTVSPost2010Prop44ColorIndex
 90
        5
102
RTVSPost2010Prop44ColorRGB
 90
      255
102
RTVSPost2010PropOp44
 70
     1
102
RTVSPost2010Prop45
280
     0
102
RTVSPost2010PropOp45
 70
     1
102
RTVSPost2010Prop46
 90
       50
102
RTVSPost2010PropOp46
 70
     1
102
RTVSPost2010Prop47
 90
       50
102
RTVSPost2010PropOp47
 70
     1
102
RTVSPost2010Prop48
 90
       50
102
RTVSPost2010PropOp48
 70
     1
102
RTVSPost2010Prop49
280
     0
102
RTVSPost2010PropOp49
 70
     1
102
RTVSPost2010Prop50
 90
       50
102
RTVSPost2010PropOp50
 70
     1
102
RTVSPost2010Prop51ColorIndex
 90
      256
102
RTVSPost2010Prop51ColorRGB
 90
-16777216
102
RTVSPost2010PropOp51
 70
     0
102
RTVSPost2010Prop52
140
1.0
102
RTVSPost2010PropOp52
 70
     0
102
RTVSPost2010Prop53
 90
        2
102
RTVSPost2010PropOp53
 70
     1
102
RTVSPost2010Prop54
  1
strokes_ogs.tif
102
RTVSPost2010PropOp54
 70
     1
102
RTVSPost2010Prop55
280
     0
102
RTVSPost2010PropOp55
 70
     1
102
RTVSPost2010Prop56
140
1.0
102
RTVSPost2010PropOp56
 70
     1
102
RTVSPost2010Prop57
140
1.0
102
RTVSPost2010PropOp57
 70
     1
  0
ENDSEC
  0
EOF
