  0
SECTION
  2
HEADER
  9
$ACADVER
  1
AC1021
  9
$ACADMAINTVER
 70
    25
  9
$DWGCODEPAGE
  3
ANSI_1252
  9
$LASTSAVEDBY
  1
challea
  9
$INSBASE
 10
0.0
 20
0.0
 30
0.0
  9
$EXTMIN
 10
1.000000000000000E+20
 20
1.000000000000000E+20
 30
1.000000000000000E+20
  9
$EXTMAX
 10
-1.000000000000000E+20
 20
-1.000000000000000E+20
 30
-1.000000000000000E+20
  9
$LIMMIN
 10
0.0
 20
0.0
  9
$LIMMAX
 10
12.0
 20
9.0
  9
$ORTHOMODE
 70
     0
  9
$REGENMODE
 70
     1
  9
$FILLMODE
 70
     1
  9
$QTEXTMODE
 70
     0
  9
$MIRRTEXT
 70
     1
  9
$LTSCALE
 40
23.1
  9
$ATTMODE
 70
     1
  9
$TEXTSIZE
 40
0.2
  9
$TRACEWID
 40
0.05
  9
$TEXTSTYLE
  7
Standard
  9
$CLAYER
  8
FISHER & PAYKEL
  9
$CELTYPE
  6
ByLayer
  9
$CECOLOR
 62
   256
  9
$CELTSCALE
 40
1.0
  9
$DISPSILH
 70
     0
  9
$DIMSCALE
 40
1.0
  9
$DIMASZ
 40
0.18
  9
$DIMEXO
 40
0.0625
  9
$DIMDLI
 40
0.38
  9
$DIMRND
 40
0.0
  9
$DIMDLE
 40
0.0
  9
$DIMEXE
 40
0.18
  9
$DIMTP
 40
0.0
  9
$DIMTM
 40
0.0
  9
$DIMTXT
 40
0.18
  9
$DIMCEN
 40
0.09
  9
$DIMTSZ
 40
0.0
  9
$DIMTOL
 70
     0
  9
$DIMLIM
 70
     0
  9
$DIMTIH
 70
     1
  9
$DIMTOH
 70
     1
  9
$DIMSE1
 70
     0
  9
$DIMSE2
 70
     0
  9
$DIMTAD
 70
     0
  9
$DIMZIN
 70
     0
  9
$DIMBLK
  1

  9
$DIMASO
 70
     1
  9
$DIMSHO
 70
     1
  9
$DIMPOST
  1

  9
$DIMAPOST
  1

  9
$DIMALT
 70
     0
  9
$DIMALTD
 70
     2
  9
$DIMALTF
 40
25.4
  9
$DIMLFAC
 40
1.0
  9
$DIMTOFL
 70
     0
  9
$DIMTVP
 40
0.0
  9
$DIMTIX
 70
     0
  9
$DIMSOXD
 70
     0
  9
$DIMSAH
 70
     0
  9
$DIMBLK1
  1

  9
$DIMBLK2
  1

  9
$DIMSTYLE
  2
STANDARD_ACAD
  9
$DIMCLRD
 70
     0
  9
$DIMCLRE
 70
     0
  9
$DIMCLRT
 70
     0
  9
$DIMTFAC
 40
1.0
  9
$DIMGAP
 40
0.09
  9
$DIMJUST
 70
     0
  9
$DIMSD1
 70
     0
  9
$DIMSD2
 70
     0
  9
$DIMTOLJ
 70
     1
  9
$DIMTZIN
 70
     0
  9
$DIMALTZ
 70
     0
  9
$DIMALTTZ
 70
     0
  9
$DIMUPT
 70
     0
  9
$DIMDEC
 70
     4
  9
$DIMTDEC
 70
     4
  9
$DIMALTU
 70
     2
  9
$DIMALTTD
 70
     2
  9
$DIMTXSTY
  7
Standard
  9
$DIMAUNIT
 70
     0
  9
$DIMADEC
 70
     0
  9
$DIMALTRND
 40
0.0
  9
$DIMAZIN
 70
     0
  9
$DIMDSEP
 70
    46
  9
$DIMATFIT
 70
     3
  9
$DIMFRAC
 70
     0
  9
$DIMLDRBLK
  1

  9
$DIMLUNIT
 70
     2
  9
$DIMLWD
 70
    -2
  9
$DIMLWE
 70
    -2
  9
$DIMTMOVE
 70
     2
  9
$DIMFXL
 40
1.0
  9
$DIMFXLON
 70
     0
  9
$DIMJOGANG
 40
0.7853981633974483
  9
$DIMTFILL
 70
     0
  9
$DIMTFILLCLR
 70
     0
  9
$DIMARCSYM
 70
     0
  9
$DIMLTYPE
  6

  9
$DIMLTEX1
  6

  9
$DIMLTEX2
  6

  9
$LUNITS
 70
     2
  9
$LUPREC
 70
     3
  9
$SKETCHINC
 40
0.1
  9
$FILLETRAD
 40
0.0
  9
$AUNITS
 70
     0
  9
$AUPREC
 70
     0
  9
$MENU
  1
.
  9
$ELEVATION
 40
0.0
  9
$PELEVATION
 40
0.0
  9
$THICKNESS
 40
0.0
  9
$LIMCHECK
 70
     0
  9
$CHAMFERA
 40
0.0
  9
$CHAMFERB
 40
0.0
  9
$CHAMFERC
 40
0.0
  9
$CHAMFERD
 40
0.0
  9
$SKPOLY
 70
     0
  9
$TDCREATE
 40
2460286.423739051
  9
$TDUCREATE
 40
2460285.882072384
  9
$TDUPDATE
 40
2460286.423753819
  9
$TDUUPDATE
 40
2460285.882087153
  9
$TDINDWG
 40
0.0000000116
  9
$TDUSRTIMER
 40
0.0000000116
  9
$USRTIMER
 70
     1
  9
$ANGBASE
 50
0.0
  9
$ANGDIR
 70
     0
  9
$PDMODE
 70
     0
  9
$PDSIZE
 40
0.0
  9
$PLINEWID
 40
0.0
  9
$SPLFRAME
 70
     0
  9
$SPLINETYPE
 70
     6
  9
$SPLINESEGS
 70
     8
  9
$HANDSEED
  5
355
  9
$SURFTAB1
 70
     6
  9
$SURFTAB2
 70
     6
  9
$SURFTYPE
 70
     6
  9
$SURFU
 70
     6
  9
$SURFV
 70
     6
  9
$UCSBASE
  2

  9
$UCSNAME
  2

  9
$UCSORG
 10
0.0
 20
0.0
 30
0.0
  9
$UCSXDIR
 10
1.0
 20
0.0
 30
0.0
  9
$UCSYDIR
 10
0.0
 20
1.0
 30
0.0
  9
$UCSORTHOREF
  2

  9
$UCSORTHOVIEW
 70
     0
  9
$UCSORGTOP
 10
0.0
 20
0.0
 30
0.0
  9
$UCSORGBOTTOM
 10
0.0
 20
0.0
 30
0.0
  9
$UCSORGLEFT
 10
0.0
 20
0.0
 30
0.0
  9
$UCSORGRIGHT
 10
0.0
 20
0.0
 30
0.0
  9
$UCSORGFRONT
 10
0.0
 20
0.0
 30
0.0
  9
$UCSORGBACK
 10
0.0
 20
0.0
 30
0.0
  9
$PUCSBASE
  2

  9
$PUCSNAME
  2

  9
$PUCSORG
 10
0.0
 20
0.0
 30
0.0
  9
$PUCSXDIR
 10
1.0
 20
0.0
 30
0.0
  9
$PUCSYDIR
 10
0.0
 20
1.0
 30
0.0
  9
$PUCSORTHOREF
  2

  9
$PUCSORTHOVIEW
 70
     0
  9
$PUCSORGTOP
 10
0.0
 20
0.0
 30
0.0
  9
$PUCSORGBOTTOM
 10
0.0
 20
0.0
 30
0.0
  9
$PUCSORGLEFT
 10
0.0
 20
0.0
 30
0.0
  9
$PUCSORGRIGHT
 10
0.0
 20
0.0
 30
0.0
  9
$PUCSORGFRONT
 10
0.0
 20
0.0
 30
0.0
  9
$PUCSORGBACK
 10
0.0
 20
0.0
 30
0.0
  9
$USERI1
 70
     0
  9
$USERI2
 70
     0
  9
$USERI3
 70
     0
  9
$USERI4
 70
     0
  9
$USERI5
 70
     0
  9
$USERR1
 40
0.0
  9
$USERR2
 40
0.0
  9
$USERR3
 40
0.0
  9
$USERR4
 40
0.0
  9
$USERR5
 40
0.0
  9
$WORLDVIEW
 70
     1
  9
$SHADEDGE
 70
     3
  9
$SHADEDIF
 70
    70
  9
$TILEMODE
 70
     1
  9
$MAXACTVP
 70
    64
  9
$PINSBASE
 10
0.0
 20
0.0
 30
0.0
  9
$PLIMCHECK
 70
     0
  9
$PEXTMIN
 10
1.000000000000000E+20
 20
1.000000000000000E+20
 30
1.000000000000000E+20
  9
$PEXTMAX
 10
-1.000000000000000E+20
 20
-1.000000000000000E+20
 30
-1.000000000000000E+20
  9
$PLIMMIN
 10
0.0
 20
0.0
  9
$PLIMMAX
 10
12.0
 20
9.0
  9
$UNITMODE
 70
     0
  9
$VISRETAIN
 70
     1
  9
$PLINEGEN
 70
     0
  9
$PSLTSCALE
 70
     1
  9
$TREEDEPTH
 70
  3020
  9
$CMLSTYLE
  2
Standard
  9
$CMLJUST
 70
     0
  9
$CMLSCALE
 40
1.0
  9
$PROXYGRAPHICS
 70
     1
  9
$MEASUREMENT
 70
     1
  9
$CELWEIGHT
370
    -1
  9
$ENDCAPS
280
     0
  9
$JOINSTYLE
280
     0
  9
$LWDISPLAY
290
     0
  9
$INSUNITS
 70
     4
  9
$HYPERLINKBASE
  1

  9
$STYLESHEET
  1

  9
$XEDIT
290
     1
  9
$CEPSNTYPE
380
     0
  9
$PSTYLEMODE
290
     1
  9
$FINGERPRINTGUID
  2
{d15907e2-1101-42cc-880c-9cc38feb149a}
  9
$VERSIONGUID
  2
{FAEB1C32-E019-11D5-929B-00C0DF256EC4}
  9
$EXTNAMES
290
     1
  9
$PSVPSCALE
 40
0.0
  9
$OLESTARTUP
290
     0
  9
$SORTENTS
280
   127
  9
$INDEXCTL
280
     0
  9
$HIDETEXT
280
     1
  9
$XCLIPFRAME
290
     0
  9
$HALOGAP
280
     0
  9
$OBSCOLOR
 70
   257
  9
$OBSLTYPE
280
     0
  9
$INTERSECTIONDISPLAY
280
     0
  9
$INTERSECTIONCOLOR
 70
   257
  9
$DIMASSOC
280
     2
  9
$PROJECTNAME
  1

  9
$CAMERADISPLAY
290
     0
  9
$LENSLENGTH
 40
50.0
  9
$CAMERAHEIGHT
 40
0.0
  9
$STEPSPERSEC
 40
2.0
  9
$STEPSIZE
 40
6.0
  9
$3DDWFPREC
 40
2.0
  9
$PSOLWIDTH
 40
0.25
  9
$PSOLHEIGHT
 40
4.0
  9
$LOFTANG1
 40
1.570796326794897
  9
$LOFTANG2
 40
1.570796326794897
  9
$LOFTMAG1
 40
0.0
  9
$LOFTMAG2
 40
0.0
  9
$LOFTPARAM
 70
     7
  9
$LOFTNORMALS
280
     1
  9
$LATITUDE
 40
37.795
  9
$LONGITUDE
 40
-122.394
  9
$NORTHDIRECTION
 40
0.0
  9
$TIMEZONE
 70
 -8000
  9
$LIGHTGLYPHDISPLAY
280
     1
  9
$TILEMODELIGHTSYNCH
280
     1
  9
$CMATERIAL
347
44
  9
$SOLIDHIST
280
     0
  9
$SHOWHIST
280
     1
  9
$DWFFRAME
280
     2
  9
$DGNFRAME
280
     2
  9
$REALWORLDSCALE
290
     1
  9
$INTERFERECOLOR
 62
   256
  9
$CSHADOW
280
     0
  9
$SHADOWPLANELOCATION
 40
0.0
  0
ENDSEC
  0
SECTION
  2
CLASSES
  0
CLASS
  1
ACDBDICTIONARYWDFLT
  2
AcDbDictionaryWithDefault
  3
ObjectDBX Classes
 90
        0
 91
        3
280
     0
281
     0
  0
CLASS
  1
VISUALSTYLE
  2
AcDbVisualStyle
  3
ObjectDBX Classes
 90
     4095
 91
        3
280
     0
281
     0
  0
CLASS
  1
MATERIAL
  2
AcDbMaterial
  3
ObjectDBX Classes
 90
     1153
 91
        3
280
     0
281
     0
  0
CLASS
  1
SCALE
  2
AcDbScale
  3
ObjectDBX Classes
 90
     1153
 91
        3
280
     0
281
     0
  0
CLASS
  1
TABLESTYLE
  2
AcDbTableStyle
  3
ObjectDBX Classes
 90
     4095
 91
        3
280
     0
281
     0
  0
CLASS
  1
MLEADERSTYLE
  2
AcDbMLeaderStyle
  3
ACDB_MLEADERSTYLE_CLASS
 90
     4095
 91
        3
280
     0
281
     0
  0
CLASS
  1
SUN
  2
AcDbSun
  3
SCENEOE
 90
     1153
 91
        3
280
     0
281
     0
  0
CLASS
  1
DICTIONARYVAR
  2
AcDbDictionaryVar
  3
ObjectDBX Classes
 90
        0
 91
        3
280
     0
281
     0
  0
CLASS
  1
CELLSTYLEMAP
  2
AcDbCellStyleMap
  3
ObjectDBX Classes
 90
     1152
 91
        3
280
     0
281
     0
  0
ENDSEC
  0
SECTION
  2
TABLES
  0
TABLE
  2
VPORT
  5
8
330
0
100
AcDbSymbolTable
 70
     1
  0
VPORT
  5
29
330
8
100
AcDbSymbolTableRecord
100
AcDbViewportTableRecord
  2
*Active
 70
     0
 10
0.0
 20
0.0
 11
1.0
 21
1.0
 12
10.42990654205607
 22
4.5
 13
0.0
 23
0.0
 14
0.5
 24
0.5
 15
0.5
 25
0.5
 16
0.0
 26
0.0
 36
1.0
 17
0.0
 27
0.0
 37
0.0
 40
9.0
 41
1.972972972850329
 42
50.0
 43
0.0
 44
0.0
 50
0.0
 51
0.0
 71
     0
 72
   100
 73
     1
 74
     3
 75
     0
 76
     0
 77
     0
 78
     0
281
     0
 65
     1
110
0.0
120
0.0
130
0.0
111
1.0
121
0.0
131
0.0
112
0.0
122
1.0
132
0.0
 79
     0
146
0.0
348
2F
 60
     3
 61
     5
292
     1
282
     1
141
0.0
142
0.0
 63
   250
361
5D
  0
ENDTAB
  0
TABLE
  2
LTYPE
  5
5
330
0
100
AcDbSymbolTable
 70
     2
  0
LTYPE
  5
14
330
5
100
AcDbSymbolTableRecord
100
AcDbLinetypeTableRecord
  2
ByBlock
 70
     0
  3

 72
    65
 73
     0
 40
0.0
  0
LTYPE
  5
15
330
5
100
AcDbSymbolTableRecord
100
AcDbLinetypeTableRecord
  2
ByLayer
 70
     0
  3

 72
    65
 73
     0
 40
0.0
  0
LTYPE
  5
16
330
5
100
AcDbSymbolTableRecord
100
AcDbLinetypeTableRecord
  2
Continuous
 70
     0
  3
Solid line
 72
    65
 73
     0
 40
0.0
  0
LTYPE
  5
84
330
5
100
AcDbSymbolTableRecord
100
AcDbLinetypeTableRecord
  2
DASHED
 70
     0
  3

 72
    65
 73
     2
 40
0.2
 49
0.1
 74
     0
 49
-0.1
 74
     0
  0
ENDTAB
  0
TABLE
  2
LAYER
  5
2
330
0
100
AcDbSymbolTable
 70
     2
  0
LAYER
  5
10
330
2
100
AcDbSymbolTableRecord
100
AcDbLayerTableRecord
  2
0
 70
     0
 62
     7
  6
Continuous
370
    -3
390
F
347
46
  0
LAYER
  5
5F
330
2
100
AcDbSymbolTableRecord
100
AcDbLayerTableRecord
  2
FISHER & PAYKEL
 70
     0
 62
    18
420
        0
  6
Continuous
370
    -3
390
F
347
46
  0
ENDTAB
  0
TABLE
  2
STYLE
  5
3
330
0
100
AcDbSymbolTable
 70
     1
  0
STYLE
  5
11
330
3
100
AcDbSymbolTableRecord
100
AcDbTextStyleTableRecord
  2
Standard
 70
     0
 40
0.0
 41
1.0
 50
0.0
 71
     0
 42
0.2
  3
txt
  4

  0
ENDTAB
  0
TABLE
  2
VIEW
  5
6
330
0
100
AcDbSymbolTable
 70
     0
  0
ENDTAB
  0
TABLE
  2
UCS
  5
7
330
0
100
AcDbSymbolTable
 70
     0
  0
ENDTAB
  0
TABLE
  2
APPID
  5
9
330
0
100
AcDbSymbolTable
 70
     3
  0
APPID
  5
12
330
9
100
AcDbSymbolTableRecord
100
AcDbRegAppTableRecord
  2
ACAD
 70
     0
  0
APPID
  5
5E
330
9
100
AcDbSymbolTableRecord
100
AcDbRegAppTableRecord
  2
Rhino
 70
     0
  0
APPID
  5
34D
330
9
100
AcDbSymbolTableRecord
100
AcDbRegAppTableRecord
  2
ACAD_MLEADERVER
 70
     0
  0
ENDTAB
  0
TABLE
  2
DIMSTYLE
  5
A
330
0
100
AcDbSymbolTable
 70
     1
100
AcDbDimStyleTable
  0
DIMSTYLE
105
27
330
A
100
AcDbSymbolTableRecord
100
AcDbDimStyleTableRecord
  2
STANDARD_ACAD
 70
     0
178
     0
340
11
  0
ENDTAB
  0
TABLE
  2
BLOCK_RECORD
  5
1
330
0
100
AcDbSymbolTable
 70
     1
  0
BLOCK_RECORD
  5
1F
330
1
100
AcDbSymbolTableRecord
100
AcDbBlockTableRecord
  2
*Model_Space
340
22
 70
     0
280
     1
281
     0
  0
BLOCK_RECORD
  5
1B
330
1
100
AcDbSymbolTableRecord
100
AcDbBlockTableRecord
  2
*Paper_Space
340
1E
 70
     0
280
     1
281
     0
  0
BLOCK_RECORD
  5
23
330
1
100
AcDbSymbolTableRecord
100
AcDbBlockTableRecord
  2
*Paper_Space0
340
26
 70
     0
280
     1
281
     0
  0
ENDTAB
  0
ENDSEC
  0
SECTION
  2
BLOCKS
  0
BLOCK
  5
20
330
1F
100
AcDbEntity
  8
0
100
AcDbBlockBegin
  2
*Model_Space
 70
     0
 10
0.0
 20
0.0
 30
0.0
  3
*Model_Space
  1

  0
ENDBLK
  5
21
330
1F
100
AcDbEntity
  8
0
100
AcDbBlockEnd
  0
BLOCK
  5
1C
330
1B
100
AcDbEntity
 67
     1
  8
0
100
AcDbBlockBegin
  2
*Paper_Space
 70
     0
 10
0.0
 20
0.0
 30
0.0
  3
*Paper_Space
  1

  0
ENDBLK
  5
1D
330
1B
100
AcDbEntity
 67
     1
  8
0
100
AcDbBlockEnd
  0
BLOCK
  5
24
330
23
100
AcDbEntity
  8
0
100
AcDbBlockBegin
  2
*Paper_Space0
 70
     0
 10
0.0
 20
0.0
 30
0.0
  3
*Paper_Space0
  1

  0
ENDBLK
  5
25
330
23
100
AcDbEntity
  8
0
100
AcDbBlockEnd
  0
ENDSEC
  0
SECTION
  2
ENTITIES
  0
POLYLINE
  5
60
330
1F
100
AcDbEntity
  8
FISHER & PAYKEL
 62
     5
420
      255
100
AcDb2dPolyline
 66
     1
 10
0.0
 20
0.0
 30
54.20223358707929
210
0.0
220
1.0
230
0.0
  0
VERTEX
  5
61
330
60
100
AcDbEntity
  8
FISHER & PAYKEL
 62
     5
420
      255
100
AcDbVertex
100
AcDb2dVertex
 10
-1523.635867607954
 20
-0.6013476347426309
 30
54.20223358707929
  0
VERTEX
  5
62
330
60
100
AcDbEntity
  8
FISHER & PAYKEL
 62
     5
420
      255
100
AcDbVertex
100
AcDb2dVertex
 10
1181.964964552766
 20
0.0
 30
54.20223358707929
  0
SEQEND
  5
63
330
60
100
AcDbEntity
  8
FISHER & PAYKEL
 62
     5
420
      255
  0
POLYLINE
  5
64
330
1F
100
AcDbEntity
  8
FISHER & PAYKEL
 62
     5
420
      255
100
AcDb2dPolyline
 66
     1
 10
0.0
 20
0.0
 30
0.0
  0
VERTEX
  5
65
330
64
100
AcDbEntity
  8
FISHER & PAYKEL
 62
     5
420
      255
100
AcDbVertex
100
AcDb2dVertex
 10
1523.645395928851
 20
-795.7977664129207
 30
0.0
  0
VERTEX
  5
66
330
64
100
AcDbEntity
  8
FISHER & PAYKEL
 62
     5
420
      255
100
AcDbVertex
100
AcDb2dVertex
 10
-1181.964964552766
 20
-795.7977664129207
 30
0.0
  0
SEQEND
  5
67
330
64
100
AcDbEntity
  8
FISHER & PAYKEL
 62
     5
420
      255
  0
LINE
  5
68
330
1F
100
AcDbEntity
  8
FISHER & PAYKEL
  6
Continuous
 62
     1
420
 16711680
100
AcDbLine
 10
-1014.5743757704
 20
54.20223358707949
 30
0.0
 11
-414.5743757703999
 21
54.20223358707949
 31
0.0
  0
LINE
  5
69
330
1F
100
AcDbEntity
  8
FISHER & PAYKEL
  6
Continuous
 62
    18
420
        0
100
AcDbLine
 10
-995.0743757704
 20
54.20223358707949
 30
0.0
 11
-434.0743757703999
 21
54.20223358707949
 31
0.0
  0
LINE
  5
6A
330
1F
100
AcDbEntity
  8
FISHER & PAYKEL
  6
Continuous
 62
    18
420
        0
100
AcDbLine
 10
-1012.0743757704
 20
52.20223358707926
 30
0.0
 11
-417.0743757703999
 21
52.20223358707926
 31
0.0
  0
LINE
  5
6B
330
1F
100
AcDbEntity
  8
FISHER & PAYKEL
  6
Continuous
 62
    18
420
        0
100
AcDbLine
 10
-1012.0743757704
 20
51.20223358707949
 30
0.0
 11
-1013.0743757704
 21
51.20223358707949
 31
0.0
  0
LINE
  5
6C
330
1F
100
AcDbEntity
  8
FISHER & PAYKEL
  6
Continuous
 62
    18
420
        0
100
AcDbLine
 10
-416.0743757703999
 20
51.20223358707949
 30
0.0
 11
-417.0743757703999
 21
51.20223358707949
 31
0.0
  0
LINE
  5
6D
330
1F
100
AcDbEntity
  8
FISHER & PAYKEL
  6
Continuous
 62
     1
420
 16711680
100
AcDbLine
 10
-414.5743757703999
 20
54.20223358707949
 30
0.0
 11
-414.5743757703999
 21
-795.7977664129206
 31
0.0
  0
LINE
  5
6E
330
1F
100
AcDbEntity
  8
FISHER & PAYKEL
  6
Continuous
 62
    18
420
        0
100
AcDbLine
 10
-416.0743757703999
 20
-765.7977664129206
 30
0.0
 11
-416.0743757703999
 21
51.20223358707949
 31
0.0
  0
LINE
  5
6F
330
1F
100
AcDbEntity
  8
FISHER & PAYKEL
  6
Continuous
 62
    18
420
        0
100
AcDbLine
 10
-416.5743757703999
 20
-672.7777664129205
 30
0.0
 11
-416.5743757703999
 21
-795.7977664129206
 31
0.0
  0
LINE
  5
70
330
1F
100
AcDbEntity
  8
FISHER & PAYKEL
  6
Continuous
 62
    18
420
        0
100
AcDbLine
 10
-417.0743757703999
 20
52.20223358707926
 30
0.0
 11
-417.0743757703999
 21
-647.7977664129205
 31
0.0
  0
LINE
  5
71
330
1F
100
AcDbEntity
  8
FISHER & PAYKEL
  6
Continuous
 62
    18
420
        0
100
AcDbLine
 10
-434.0743757703999
 20
52.20223358707926
 30
0.0
 11
-434.0743757703999
 21
54.20223358707949
 31
0.0
  0
LINE
  5
72
330
1F
100
AcDbEntity
  8
FISHER & PAYKEL
  6
Continuous
 62
    18
420
        0
100
AcDbLine
 10
-764.5743757703999
 20
-653.7158845009205
 30
0.0
 11
-764.5743757703999
 21
-647.7977664129205
 31
0.0
  0
LINE
  5
73
330
1F
100
AcDbEntity
  8
FISHER & PAYKEL
  6
Continuous
 62
    18
420
        0
100
AcDbLine
 10
-1012.0743757704
 20
-597.0977664129206
 30
0.0
 11
-1013.0743757704
 21
-597.0977664129206
 31
0.0
  0
LINE
  5
74
330
1F
100
AcDbEntity
  8
FISHER & PAYKEL
  6
Continuous
 62
    18
420
        0
100
AcDbLine
 10
-416.0743757703999
 20
-597.0977664129206
 30
0.0
 11
-417.0743757703999
 21
-597.0977664129206
 31
0.0
  0
LINE
  5
75
330
1F
100
AcDbEntity
  8
FISHER & PAYKEL
  6
Continuous
 62
    18
420
        0
100
AcDbLine
 10
-1012.0743757704
 20
-628.0977664129206
 30
0.0
 11
-1013.0743757704
 21
-628.0977664129206
 31
0.0
  0
LINE
  5
76
330
1F
100
AcDbEntity
  8
FISHER & PAYKEL
  6
Continuous
 62
    18
420
        0
100
AcDbLine
 10
-416.0743757703999
 20
-628.0977664129206
 30
0.0
 11
-417.0743757703999
 21
-628.0977664129206
 31
0.0
  0
LINE
  5
77
330
1F
100
AcDbEntity
  8
FISHER & PAYKEL
  6
Continuous
 62
    18
420
        0
100
AcDbLine
 10
-1012.0743757704
 20
-647.7977664129205
 30
0.0
 11
-417.0743757703999
 21
-647.7977664129205
 31
0.0
  0
LINE
  5
78
330
1F
100
AcDbEntity
  8
FISHER & PAYKEL
  6
Continuous
 62
    18
420
        0
100
AcDbLine
 10
-942.5743757704
 20
-648.9977664129206
 30
0.0
 11
-764.5743757703999
 21
-648.9977664129206
 31
0.0
  0
LINE
  5
79
330
1F
100
AcDbEntity
  8
FISHER & PAYKEL
  6
Continuous
 62
    18
420
        0
100
AcDbLine
 10
-942.5743757704
 20
-653.7159959709206
 30
0.0
 11
-764.5743757703999
 21
-653.7159959709206
 31
0.0
  0
LINE
  5
7A
330
1F
100
AcDbEntity
  8
FISHER & PAYKEL
  6
Continuous
 62
    18
420
        0
100
AcDbLine
 10
-1012.5743757704
 20
-672.7777664129205
 30
0.0
 11
-416.5743757703999
 21
-672.7777664129205
 31
0.0
  0
LINE
  5
7B
330
1F
100
AcDbEntity
  8
FISHER & PAYKEL
  6
Continuous
 62
    18
420
        0
100
AcDbLine
 10
-942.5743757704
 20
-653.7158845009205
 30
0.0
 11
-942.5743757704
 21
-647.7977664129205
 31
0.0
  0
LINE
  5
7C
330
1F
100
AcDbEntity
  8
FISHER & PAYKEL
  6
Continuous
 62
    18
420
        0
100
AcDbLine
 10
-1012.5743757704
 20
-765.7977664129206
 30
0.0
 11
-1013.0743757704
 21
-765.7977664129206
 31
0.0
  0
LINE
  5
7D
330
1F
100
AcDbEntity
  8
FISHER & PAYKEL
  6
Continuous
 62
    18
420
        0
100
AcDbLine
 10
-416.0743757703999
 20
-765.7977664129206
 30
0.0
 11
-416.5743757703999
 21
-765.7977664129206
 31
0.0
  0
LINE
  5
7E
330
1F
100
AcDbEntity
  8
FISHER & PAYKEL
  6
Continuous
 62
    18
420
        0
100
AcDbLine
 10
-995.0743757704
 20
52.20223358707926
 30
0.0
 11
-995.0743757704
 21
54.20223358707949
 31
0.0
  0
LINE
  5
7F
330
1F
100
AcDbEntity
  8
FISHER & PAYKEL
  6
Continuous
 62
    18
420
        0
100
AcDbLine
 10
-1012.0743757704
 20
52.20223358707926
 30
0.0
 11
-1012.0743757704
 21
-647.7977664129205
 31
0.0
  0
LINE
  5
80
330
1F
100
AcDbEntity
  8
FISHER & PAYKEL
  6
Continuous
 62
    18
420
        0
100
AcDbLine
 10
-1012.5743757704
 20
-672.7777664129205
 30
0.0
 11
-1012.5743757704
 21
-795.7977664129206
 31
0.0
  0
LINE
  5
81
330
1F
100
AcDbEntity
  8
FISHER & PAYKEL
  6
Continuous
 62
    18
420
        0
100
AcDbLine
 10
-1013.0743757704
 20
-765.7977664129206
 30
0.0
 11
-1013.0743757704
 21
51.20223358707949
 31
0.0
  0
LINE
  5
82
330
1F
100
AcDbEntity
  8
FISHER & PAYKEL
  6
Continuous
 62
     1
420
 16711680
100
AcDbLine
 10
-1014.5743757704
 20
-795.7977664129206
 30
0.0
 11
-1014.5743757704
 21
54.20223358707949
 31
0.0
  0
LINE
  5
83
330
1F
100
AcDbEntity
  8
FISHER & PAYKEL
  6
Continuous
 62
    18
420
        0
100
AcDbLine
 10
-1012.5743757704
 20
-795.7977664129206
 30
0.0
 11
-416.5743757703999
 21
-795.7977664129206
 31
0.0
  0
LINE
  5
85
330
1F
100
AcDbEntity
  8
FISHER & PAYKEL
  6
DASHED
 62
     1
420
 16711680
100
AcDbLine
 10
-416.5743757703999
 20
-795.7977664129206
 30
0.0
 11
-414.5743757703999
 21
-795.7977664129206
 31
0.0
  0
LINE
  5
86
330
1F
100
AcDbEntity
  8
FISHER & PAYKEL
  6
DASHED
 62
     1
420
 16711680
100
AcDbLine
 10
-1014.5743757704
 20
-795.7977664129206
 30
0.0
 11
-1012.5743757704
 21
-795.7977664129206
 31
0.0
  0
POLYLINE
  5
87
330
1F
100
AcDbEntity
  8
FISHER & PAYKEL
 62
     9
420
 12500670
100
AcDb2dPolyline
 66
     1
 10
0.0
 20
0.0
 30
0.0
  0
VERTEX
  5
88
330
87
100
AcDbEntity
  8
FISHER & PAYKEL
 62
     9
420
 12500670
100
AcDbVertex
100
AcDb2dVertex
 10
-402.5743757703999
 20
1252.202233587079
 30
0.0
  0
VERTEX
  5
89
330
87
100
AcDbEntity
  8
FISHER & PAYKEL
 62
     9
420
 12500670
100
AcDbVertex
100
AcDb2dVertex
 10
-402.5743757703999
 20
594.2022335870793
 30
0.0
  0
SEQEND
  5
8A
330
87
100
AcDbEntity
  8
FISHER & PAYKEL
 62
     9
420
 12500670
  0
POLYLINE
  5
8B
330
1F
100
AcDbEntity
  8
FISHER & PAYKEL
 62
     9
420
 12500670
100
AcDb2dPolyline
 66
     1
 10
0.0
 20
0.0
 30
0.0
  0
VERTEX
  5
8C
330
8B
100
AcDbEntity
  8
FISHER & PAYKEL
 62
     9
420
 12500670
100
AcDbVertex
100
AcDb2dVertex
 10
-1023.5743757704
 20
1252.202233587079
 30
0.0
  0
VERTEX
  5
8D
330
8B
100
AcDbEntity
  8
FISHER & PAYKEL
 62
     9
420
 12500670
100
AcDbVertex
100
AcDb2dVertex
 10
-1024.085345752371
 20
594.2127256998034
 30
0.0
  0
SEQEND
  5
8E
330
8B
100
AcDbEntity
  8
FISHER & PAYKEL
 62
     9
420
 12500670
  0
LINE
  5
8F
330
1F
100
AcDbEntity
  8
FISHER & PAYKEL
 62
     6
420
 16711935
100
AcDbLine
 10
-415.5743757703999
 20
594.2022335870793
 30
0.0
 11
-1010.5743757704
 21
594.2022335870793
 31
0.0
  0
LINE
  5
90
330
1F
100
AcDbEntity
  8
FISHER & PAYKEL
 62
     6
420
 16711935
100
AcDbLine
 10
-415.5743757703999
 20
1233.202233587079
 30
0.0
 11
-415.5743757703999
 21
594.2022335870793
 31
0.0
  0
LINE
  5
91
330
1F
100
AcDbEntity
  8
FISHER & PAYKEL
 62
     6
420
 16711935
100
AcDbLine
 10
-1010.5743757704
 20
1233.202233587079
 30
0.0
 11
-1010.5743757704
 21
594.2022335870793
 31
0.0
  0
POLYLINE
  5
92
330
1F
100
AcDbEntity
  8
FISHER & PAYKEL
  6
Continuous
 62
     5
420
      255
100
AcDb2dPolyline
 66
     1
 10
0.0
 20
0.0
 30
0.0
  0
VERTEX
  5
93
330
92
100
AcDbEntity
  8
FISHER & PAYKEL
  6
Continuous
 62
     5
420
      255
100
AcDbVertex
100
AcDb2dVertex
 10
-260.7950034124779
 20
1252.202233587079
 30
0.0
  0
VERTEX
  5
94
330
92
100
AcDbEntity
  8
FISHER & PAYKEL
  6
Continuous
 62
     5
420
      255
100
AcDbVertex
100
AcDb2dVertex
 10
-1181.964964552766
 20
1252.202233587079
 30
0.0
  0
SEQEND
  5
95
330
92
100
AcDbEntity
  8
FISHER & PAYKEL
  6
Continuous
 62
     5
420
      255
  0
CIRCLE
  5
96
330
1F
100
AcDbEntity
  8
FISHER & PAYKEL
  6
Continuous
 62
    18
420
        0
100
AcDbCircle
 10
-438.2743757704
 20
1265.80223358708
 30
0.0
 40
5.300000000000001
  0
CIRCLE
  5
97
330
1F
100
AcDbEntity
  8
FISHER & PAYKEL
  6
Continuous
 62
    18
420
        0
100
AcDbCircle
 10
-478.6743757703998
 20
1265.80223358708
 30
0.0
 40
5.300000000000001
  0
CIRCLE
  5
98
330
1F
100
AcDbEntity
  8
FISHER & PAYKEL
  6
Continuous
 62
    18
420
        0
100
AcDbCircle
 10
-458.4743757704
 20
1267.202233587079
 30
0.0
 40
7.5
  0
LINE
  5
99
330
1F
100
AcDbEntity
  8
FISHER & PAYKEL
  6
Continuous
 62
     1
420
 16711680
100
AcDbLine
 10
-1013.0743757704
 20
1847.80223358708
 30
0.0
 11
-413.0743757703999
 21
1847.80223358708
 31
0.0
  0
LINE
  5
9A
330
1F
100
AcDbEntity
  8
FISHER & PAYKEL
  6
Continuous
 62
    18
420
        0
100
AcDbLine
 10
-725.5743757703999
 20
1843.30223358708
 30
0.0
 11
-700.5743757703999
 21
1843.30223358708
 31
0.0
  0
LINE
  5
9B
330
1F
100
AcDbEntity
  8
FISHER & PAYKEL
  6
Continuous
 62
    18
420
        0
100
AcDbLine
 10
-725.5743757703999
 20
1839.302233587079
 30
0.0
 11
-700.5743757703999
 21
1839.302233587079
 31
0.0
  0
LINE
  5
9C
330
1F
100
AcDbEntity
  8
FISHER & PAYKEL
  6
Continuous
 62
    18
420
        0
100
AcDbLine
 10
-725.5743757703999
 20
1819.302233587079
 30
0.0
 11
-700.5743757703999
 21
1819.302233587079
 31
0.0
  0
LINE
  5
9D
330
1F
100
AcDbEntity
  8
FISHER & PAYKEL
  6
Continuous
 62
    18
420
        0
100
AcDbLine
 10
-414.5743757703999
 20
1806.30223358708
 30
0.0
 11
-1011.5743757704
 21
1806.30223358708
 31
0.0
  0
LINE
  5
9E
330
1F
100
AcDbEntity
  8
FISHER & PAYKEL
  6
Continuous
 62
     1
420
 16711680
100
AcDbLine
 10
-413.0743757703999
 20
1847.80223358708
 30
0.0
 11
-413.0743757703999
 21
1280.80223358708
 31
0.0
  0
LINE
  5
9F
330
1F
100
AcDbEntity
  8
FISHER & PAYKEL
  6
Continuous
 62
    18
420
        0
100
AcDbLine
 10
-414.5743757703999
 20
1285.30223358708
 30
0.0
 11
-414.5743757703999
 21
1806.30223358708
 31
0.0
  0
LINE
  5
A0
330
1F
100
AcDbEntity
  8
FISHER & PAYKEL
  6
Continuous
 62
    18
420
        0
100
AcDbLine
 10
-415.5743757703999
 20
1252.202233587079
 30
0.0
 11
-415.5743757703999
 21
1233.202233587079
 31
0.0
  0
LINE
  5
A1
330
1F
100
AcDbEntity
  8
FISHER & PAYKEL
  6
Continuous
 62
    18
420
        0
100
AcDbLine
 10
-416.5743757703999
 20
1280.80223358708
 30
0.0
 11
-416.5743757703999
 21
1252.202233587079
 31
0.0
  0
LINE
  5
A2
330
1F
100
AcDbEntity
  8
FISHER & PAYKEL
  6
Continuous
 62
    18
420
        0
100
AcDbLine
 10
-423.0743757703999
 20
1285.30223358708
 30
0.0
 11
-423.0743757703999
 21
1280.80223358708
 31
0.0
  0
LINE
  5
A3
330
1F
100
AcDbEntity
  8
FISHER & PAYKEL
  6
Continuous
 62
    18
420
        0
100
AcDbLine
 10
-428.0743757703999
 20
1285.30223358708
 30
0.0
 11
-428.0743757703999
 21
1280.80223358708
 31
0.0
  0
LINE
  5
A4
330
1F
100
AcDbEntity
  8
FISHER & PAYKEL
  6
Continuous
 62
    18
420
        0
100
AcDbLine
 10
-432.5743757703999
 20
1288.30223358708
 30
0.0
 11
-432.5743757703999
 21
1469.30223358708
 31
0.0
  0
LINE
  5
A5
330
1F
100
AcDbEntity
  8
FISHER & PAYKEL
  6
Continuous
 62
    18
420
        0
100
AcDbLine
 10
-440.0743757703999
 20
1285.30223358708
 30
0.0
 11
-440.0743757703999
 21
1280.80223358708
 31
0.0
  0
LINE
  5
A6
330
1F
100
AcDbEntity
  8
FISHER & PAYKEL
  6
Continuous
 62
    18
420
        0
100
AcDbLine
 10
-432.5743757703999
 20
1469.30223358708
 30
0.0
 11
-993.5743757703999
 21
1469.30223358708
 31
0.0
  0
LINE
  5
A7
330
1F
100
AcDbEntity
  8
FISHER & PAYKEL
  6
Continuous
 62
    18
420
        0
100
AcDbLine
 10
-700.5743757703999
 20
1843.30223358708
 30
0.0
 11
-700.5743757703999
 21
1806.30223358708
 31
0.0
  0
LINE
  5
A8
330
1F
100
AcDbEntity
  8
FISHER & PAYKEL
  6
Continuous
 62
    18
420
        0
100
AcDbLine
 10
-993.5743757703999
 20
1288.30223358708
 30
0.0
 11
-432.5743757703999
 21
1288.30223358708
 31
0.0
  0
LINE
  5
A9
330
1F
100
AcDbEntity
  8
FISHER & PAYKEL
  6
Continuous
 62
    18
420
        0
100
AcDbLine
 10
-414.5743757703999
 20
1285.30223358708
 30
0.0
 11
-1011.5743757704
 21
1285.30223358708
 31
0.0
  0
LINE
  5
AA
330
1F
100
AcDbEntity
  8
FISHER & PAYKEL
  6
Continuous
 62
    18
420
        0
100
AcDbLine
 10
-428.0743757703999
 20
1281.402233587079
 30
0.0
 11
-423.0743757703999
 21
1281.402233587079
 31
0.0
  0
LINE
  5
AB
330
1F
100
AcDbEntity
  8
FISHER & PAYKEL
  6
Continuous
 62
    18
420
        0
100
AcDbLine
 10
-998.0743757703999
 20
1281.402233587079
 30
0.0
 11
-1003.0743757704
 21
1281.402233587079
 31
0.0
  0
LINE
  5
AC
330
1F
100
AcDbEntity
  8
FISHER & PAYKEL
  6
Continuous
 62
    18
420
        0
100
AcDbLine
 10
-1009.5743757704
 20
1280.80223358708
 30
0.0
 11
-416.5743757703999
 21
1280.80223358708
 31
0.0
  0
LINE
  5
AD
330
1F
100
AcDbEntity
  8
FISHER & PAYKEL
  6
DASHED
 62
     1
420
 16711680
100
AcDbLine
 10
-416.5743757703999
 20
1280.80223358708
 30
0.0
 11
-413.0743757703999
 21
1280.80223358708
 31
0.0
  0
LINE
  5
AE
330
1F
100
AcDbEntity
  8
FISHER & PAYKEL
  6
DASHED
 62
     1
420
 16711680
100
AcDbLine
 10
-1013.0743757704
 20
1280.80223358708
 30
0.0
 11
-1009.5743757704
 21
1280.80223358708
 31
0.0
  0
LINE
  5
AF
330
1F
100
AcDbEntity
  8
FISHER & PAYKEL
  6
Continuous
 62
    18
420
        0
100
AcDbLine
 10
-725.5743757703999
 20
1843.30223358708
 30
0.0
 11
-725.5743757703999
 21
1806.30223358708
 31
0.0
  0
LINE
  5
B0
330
1F
100
AcDbEntity
  8
FISHER & PAYKEL
  6
Continuous
 62
    18
420
        0
100
AcDbLine
 10
-1010.5743757704
 20
1252.202233587079
 30
0.0
 11
-415.5743757703999
 21
1252.202233587079
 31
0.0
  0
LINE
  5
B1
330
1F
100
AcDbEntity
  8
FISHER & PAYKEL
  6
Continuous
 62
    18
420
        0
100
AcDbLine
 10
-1010.5743757704
 20
1233.202233587079
 30
0.0
 11
-415.5743757703999
 21
1233.202233587079
 31
0.0
  0
LINE
  5
B2
330
1F
100
AcDbEntity
  8
FISHER & PAYKEL
  6
Continuous
 62
    18
420
        0
100
AcDbLine
 10
-986.0743757703999
 20
1285.30223358708
 30
0.0
 11
-986.0743757703999
 21
1280.80223358708
 31
0.0
  0
LINE
  5
B3
330
1F
100
AcDbEntity
  8
FISHER & PAYKEL
  6
Continuous
 62
    18
420
        0
100
AcDbLine
 10
-993.5743757703999
 20
1469.30223358708
 30
0.0
 11
-993.5743757703999
 21
1288.30223358708
 31
0.0
  0
LINE
  5
B4
330
1F
100
AcDbEntity
  8
FISHER & PAYKEL
  6
Continuous
 62
    18
420
        0
100
AcDbLine
 10
-998.0743757703999
 20
1285.30223358708
 30
0.0
 11
-998.0743757703999
 21
1280.80223358708
 31
0.0
  0
LINE
  5
B5
330
1F
100
AcDbEntity
  8
FISHER & PAYKEL
  6
Continuous
 62
    18
420
        0
100
AcDbLine
 10
-1003.0743757704
 20
1285.30223358708
 30
0.0
 11
-1003.0743757704
 21
1280.80223358708
 31
0.0
  0
LINE
  5
B6
330
1F
100
AcDbEntity
  8
FISHER & PAYKEL
  6
Continuous
 62
    18
420
        0
100
AcDbLine
 10
-1009.5743757704
 20
1280.80223358708
 30
0.0
 11
-1009.5743757704
 21
1252.202233587079
 31
0.0
  0
LINE
  5
B7
330
1F
100
AcDbEntity
  8
FISHER & PAYKEL
  6
Continuous
 62
    18
420
        0
100
AcDbLine
 10
-1010.5743757704
 20
1252.202233587079
 30
0.0
 11
-1010.5743757704
 21
1233.202233587079
 31
0.0
  0
LINE
  5
B8
330
1F
100
AcDbEntity
  8
FISHER & PAYKEL
  6
Continuous
 62
    18
420
        0
100
AcDbLine
 10
-1011.5743757704
 20
1285.30223358708
 30
0.0
 11
-1011.5743757704
 21
1806.30223358708
 31
0.0
  0
LINE
  5
B9
330
1F
100
AcDbEntity
  8
FISHER & PAYKEL
  6
Continuous
 62
     1
420
 16711680
100
AcDbLine
 10
-1013.0743757704
 20
1280.80223358708
 30
0.0
 11
-1013.0743757704
 21
1847.80223358708
 31
0.0
  0
ARC
  5
BA
330
1F
100
AcDbEntity
  8
FISHER & PAYKEL
  6
Continuous
 62
    18
420
        0
100
AcDbCircle
 10
813.1894005910192
 20
-600.0977664129207
 30
0.0
 40
3.0
100
AcDbArc
 50
0.0
 51
90.0
  0
ARC
  5
BB
330
1F
100
AcDbEntity
  8
FISHER & PAYKEL
  6
Continuous
 62
    18
420
        0
100
AcDbCircle
 10
1325.389400591019
 20
-187.9977664129207
 30
0.0
 40
4.5
100
AcDbArc
 50
180.0
 51
0.0
  0
ARC
  5
BC
330
1F
100
AcDbEntity
  8
FISHER & PAYKEL
  6
Continuous
 62
    18
420
        0
100
AcDbCircle
 10
791.2894005910196
 20
-613.6977664129207
 30
0.0
 40
6.000000000000001
100
AcDbArc
 50
303.3670129691999
 51
56.63298703080006
  0
ARC
  5
BD
330
1F
100
AcDbEntity
  8
FISHER & PAYKEL
  6
Continuous
 62
    18
420
        0
100
AcDbCircle
 10
1341.089400591019
 20
-31.69776641292071
 30
0.0
 40
6.0
100
AcDbArc
 50
270.0
 51
0.0
  0
ARC
  5
BE
330
1F
100
AcDbEntity
  8
FISHER & PAYKEL
  6
Continuous
 62
    18
420
        0
100
AcDbCircle
 10
1341.089400591019
 20
-65.69776641292071
 30
0.0
 40
6.0
100
AcDbArc
 50
0.0
 51
90.0
  0
ARC
  5
BF
330
1F
100
AcDbEntity
  8
FISHER & PAYKEL
  6
Continuous
 62
    18
420
        0
100
AcDbCircle
 10
1341.089400591019
 20
-71.4977664129209
 30
0.0
 40
6.0
100
AcDbArc
 50
270.0
 51
0.0
  0
ARC
  5
C0
330
1F
100
AcDbEntity
  8
FISHER & PAYKEL
  6
Continuous
 62
    18
420
        0
100
AcDbCircle
 10
1341.089400591019
 20
-105.4977664129207
 30
0.0
 40
6.0
100
AcDbArc
 50
0.0
 51
90.0
  0
ARC
  5
C1
330
1F
100
AcDbEntity
  8
FISHER & PAYKEL
  6
Continuous
 62
    18
420
        0
100
AcDbCircle
 10
1341.089400591019
 20
-109.6977664129207
 30
0.0
 40
6.0
100
AcDbArc
 50
270.0
 51
0.0
  0
ARC
  5
C2
330
1F
100
AcDbEntity
  8
FISHER & PAYKEL
  6
Continuous
 62
    18
420
        0
100
AcDbCircle
 10
1330.589400591019
 20
-191.4977664129209
 30
0.0
 40
6.0
100
AcDbArc
 50
270.0
 51
0.0
  0
ARC
  5
C3
330
1F
100
AcDbEntity
  8
FISHER & PAYKEL
  6
Continuous
 62
    18
420
        0
100
AcDbCircle
 10
1328.589400591019
 20
-203.4977664129207
 30
0.0
 40
6.0
100
AcDbArc
 50
90.0
 51
180.0
  0
ARC
  5
C4
330
1F
100
AcDbEntity
  8
FISHER & PAYKEL
  6
Continuous
 62
    18
420
        0
100
AcDbCircle
 10
1326.889400591019
 20
-142.0977664129206
 30
0.0
 40
6.0
100
AcDbArc
 50
90.0
 51
180.0
  0
ARC
  5
C5
330
1F
100
AcDbEntity
  8
FISHER & PAYKEL
  6
Continuous
 62
    18
420
        0
100
AcDbCircle
 10
1353.089400591019
 20
-26.4977664129209
 30
0.0
 40
6.0
100
AcDbArc
 50
90.0
 51
180.0
  0
ARC
  5
C6
330
1F
100
AcDbEntity
  8
FISHER & PAYKEL
  6
Continuous
 62
    18
420
        0
100
AcDbCircle
 10
806.0894005910193
 20
-590.0977664129207
 30
0.0
 40
7.0
100
AcDbArc
 50
180.0
 51
270.0
  0
ARC
  5
C7
330
1F
100
AcDbEntity
  8
FISHER & PAYKEL
  6
Continuous
 62
    18
420
        0
100
AcDbCircle
 10
1281.269093440019
 20
-650.4959402469208
 30
0.0
 40
7.0
100
AcDbArc
 50
99.99999999999753
 51
179.9999999999991
  0
ARC
  5
C8
330
1F
100
AcDbEntity
  8
FISHER & PAYKEL
  6
Continuous
 62
    18
420
        0
100
AcDbCircle
 10
1329.089400591019
 20
-123.7977664129206
 30
0.0
 40
8.100000000000001
100
AcDbArc
 50
90.0
 51
270.0
  0
ARC
  5
C9
330
1F
100
AcDbEntity
  8
FISHER & PAYKEL
  6
Continuous
 62
    18
420
        0
100
AcDbCircle
 10
824.5894005910193
 20
-619.6977664129207
 30
0.0
 40
8.4
100
AcDbArc
 50
180.0
 51
270.0
  0
ARC
  5
CA
330
1F
100
AcDbEntity
  8
FISHER & PAYKEL
  6
Continuous
 62
    18
420
        0
100
AcDbCircle
 10
889.2766492830194
 20
-635.6109207599208
 30
0.0
 40
10.0
100
AcDbArc
 50
207.4112672715003
 51
272.939137448
  0
ARC
  5
CB
330
1F
100
AcDbEntity
  8
FISHER & PAYKEL
  6
Continuous
 62
    18
420
        0
100
AcDbCircle
 10
1343.089400591019
 20
-8.997766412920896
 30
0.0
 40
10.0
100
AcDbArc
 50
180.0
 51
0.0
  0
ARC
  5
CC
330
1F
100
AcDbEntity
  8
FISHER & PAYKEL
  6
Continuous
 62
    18
420
        0
100
AcDbCircle
 10
1333.089400591019
 20
-48.69776641292071
 30
0.0
 40
11.0
100
AcDbArc
 50
90.0
 51
270.0
  0
ARC
  5
CD
330
1F
100
AcDbEntity
  8
FISHER & PAYKEL
  6
Continuous
 62
    18
420
        0
100
AcDbCircle
 10
1333.089400591019
 20
-88.49776641292067
 30
0.0
 40
11.0
100
AcDbArc
 50
90.0
 51
270.0
  0
ARC
  5
CE
330
1F
100
AcDbEntity
  8
FISHER & PAYKEL
  6
Continuous
 62
    18
420
        0
100
AcDbCircle
 10
765.9894005910194
 20
-641.5977664129208
 30
0.0
 40
12.118229558
100
AcDbArc
 50
250.0000000000001
 51
354.9999999999993
  0
ARC
  5
CF
330
1F
100
AcDbEntity
  8
FISHER & PAYKEL
  6
Continuous
 62
     6
420
 16711935
100
AcDbCircle
 10
791.2894005910196
 20
-613.6977664129207
 30
0.0
 40
667.3719352800002
100
AcDbArc
 50
93.80607964939998
 51
179.716684456
  0
LINE
  5
D0
330
1F
100
AcDbEntity
  8
FISHER & PAYKEL
  6
Continuous
 62
    18
420
        0
100
AcDbLine
 10
802.0894005910193
 20
54.20223358707938
 30
0.0
 11
983.0894005910193
 21
54.20223358707938
 31
0.0
  0
LINE
  5
D1
330
1F
100
AcDbEntity
  8
FISHER & PAYKEL
  6
Continuous
 62
    18
420
        0
100
AcDbLine
 10
765.9894005910194
 20
52.20223358707915
 30
0.0
 11
746.9894005910194
 21
52.20223358707915
 31
0.0
  0
LINE
  5
D2
330
1F
100
AcDbEntity
  8
FISHER & PAYKEL
  6
Continuous
 62
    18
420
        0
100
AcDbLine
 10
799.0894005910193
 20
51.20223358707938
 30
0.0
 11
1320.089400591019
 21
51.20223358707938
 31
0.0
  0
LINE
  5
D3
330
1F
100
AcDbEntity
  8
FISHER & PAYKEL
  6
Continuous
 62
    18
420
        0
100
AcDbLine
 10
1333.089400591019
 20
50.0022335870791
 30
0.0
 11
1320.089400591019
 21
50.0022335870791
 31
0.0
  0
LINE
  5
D4
330
1F
100
AcDbEntity
  8
FISHER & PAYKEL
  6
Continuous
 62
    18
420
        0
100
AcDbLine
 10
773.4894005910194
 20
48.00223358707933
 30
0.0
 11
788.4894005910194
 21
48.00223358707933
 31
0.0
  0
LINE
  5
D5
330
1F
100
AcDbEntity
  8
FISHER & PAYKEL
  6
Continuous
 62
    18
420
        0
100
AcDbLine
 10
794.5894005910193
 20
47.90223358707942
 30
0.0
 11
765.9894005910194
 21
47.90223358707942
 31
0.0
  0
LINE
  5
D6
330
1F
100
AcDbEntity
  8
FISHER & PAYKEL
  6
Continuous
 62
    18
420
        0
100
AcDbLine
 10
799.0894005910193
 20
27.90223358707942
 30
0.0
 11
794.5894005910193
 21
27.90223358707942
 31
0.0
  0
LINE
  5
D7
330
1F
100
AcDbEntity
  8
FISHER & PAYKEL
  6
Continuous
 62
    18
420
        0
100
AcDbLine
 10
1357.08940059102
 20
2.202233587079149
 30
0.0
 11
1353.089400591019
 21
2.202233587079149
 31
0.0
  0
LINE
  5
D8
330
1F
100
AcDbEntity
  8
FISHER & PAYKEL
  6
Continuous
 62
    18
420
        0
100
AcDbLine
 10
1357.08940059102
 20
-20.49776641292067
 30
0.0
 11
1357.08940059102
 21
2.202233587079149
 31
0.0
  0
LINE
  5
D9
330
1F
100
AcDbEntity
  8
FISHER & PAYKEL
  6
Continuous
 62
    18
420
        0
100
AcDbLine
 10
1353.089400591019
 20
2.202233587079149
 30
0.0
 11
1353.089400591019
 21
-8.997766412920896
 31
0.0
  0
LINE
  5
DA
330
1F
100
AcDbEntity
  8
FISHER & PAYKEL
  6
Continuous
 62
    18
420
        0
100
AcDbLine
 10
1347.08940059102
 20
-31.69776641292071
 30
0.0
 11
1347.08940059102
 21
-26.4977664129209
 31
0.0
  0
LINE
  5
DB
330
1F
100
AcDbEntity
  8
FISHER & PAYKEL
  6
Continuous
 62
    18
420
        0
100
AcDbLine
 10
1347.08940059102
 20
-71.4977664129209
 30
0.0
 11
1347.08940059102
 21
-65.69776641292071
 31
0.0
  0
LINE
  5
DC
330
1F
100
AcDbEntity
  8
FISHER & PAYKEL
  6
Continuous
 62
    18
420
        0
100
AcDbLine
 10
1347.08940059102
 20
-109.6977664129207
 30
0.0
 11
1347.08940059102
 21
-105.4977664129207
 31
0.0
  0
LINE
  5
DD
330
1F
100
AcDbEntity
  8
FISHER & PAYKEL
  6
Continuous
 62
    18
420
        0
100
AcDbLine
 10
1347.08940059102
 20
-136.0977664129206
 30
0.0
 11
1347.08940059102
 21
-131.8977664129208
 31
0.0
  0
LINE
  5
DE
330
1F
100
AcDbEntity
  8
FISHER & PAYKEL
  6
Continuous
 62
    18
420
        0
100
AcDbLine
 10
1336.589400591019
 20
-191.4977664129209
 30
0.0
 11
1336.589400591019
 21
-165.2977664129209
 31
0.0
  0
LINE
  5
DF
330
1F
100
AcDbEntity
  8
FISHER & PAYKEL
  6
Continuous
 62
    18
420
        0
100
AcDbLine
 10
1333.089400591019
 20
-8.997766412920896
 30
0.0
 11
1333.089400591019
 21
50.0022335870791
 31
0.0
  0
LINE
  5
E0
330
1F
100
AcDbEntity
  8
FISHER & PAYKEL
  6
Continuous
 62
    18
420
        0
100
AcDbLine
 10
1329.889400591019
 20
-165.2977664129209
 30
0.0
 11
1329.889400591019
 21
-187.9977664129207
 31
0.0
  0
LINE
  5
E1
330
1F
100
AcDbEntity
  8
FISHER & PAYKEL
  6
Continuous
 62
    18
420
        0
100
AcDbLine
 10
1322.589400591019
 20
-208.9977664129209
 30
0.0
 11
1322.589400591019
 21
-203.4977664129207
 31
0.0
  0
LINE
  5
E2
330
1F
100
AcDbEntity
  8
FISHER & PAYKEL
  6
Continuous
 62
    18
420
        0
100
AcDbLine
 10
1320.889400591019
 20
-187.9977664129207
 30
0.0
 11
1320.889400591019
 21
-142.0977664129206
 31
0.0
  0
LINE
  5
E3
330
1F
100
AcDbEntity
  8
FISHER & PAYKEL
  6
Continuous
 62
    18
420
        0
100
AcDbLine
 10
1320.089400591019
 20
51.20223358707938
 30
0.0
 11
1320.089400591019
 21
-664.1959402469207
 31
0.0
  0
LINE
  5
E4
330
1F
100
AcDbEntity
  8
FISHER & PAYKEL
  6
Continuous
 62
    18
420
        0
100
AcDbLine
 10
1353.089400591019
 20
-20.49776641292067
 30
0.0
 11
1357.08940059102
 21
-20.49776641292067
 31
0.0
  0
LINE
  5
E5
330
1F
100
AcDbEntity
  8
FISHER & PAYKEL
  6
Continuous
 62
    18
420
        0
100
AcDbLine
 10
1333.089400591019
 20
-37.69776641292071
 30
0.0
 11
1341.089400591019
 21
-37.69776641292071
 31
0.0
  0
LINE
  5
E6
330
1F
100
AcDbEntity
  8
FISHER & PAYKEL
  6
Continuous
 62
    18
420
        0
100
AcDbLine
 10
1341.089400591019
 20
-59.69776641292071
 30
0.0
 11
1333.089400591019
 21
-59.69776641292071
 31
0.0
  0
LINE
  5
E7
330
1F
100
AcDbEntity
  8
FISHER & PAYKEL
  6
Continuous
 62
    18
420
        0
100
AcDbLine
 10
1333.089400591019
 20
-77.4977664129209
 30
0.0
 11
1341.089400591019
 21
-77.4977664129209
 31
0.0
  0
LINE
  5
E8
330
1F
100
AcDbEntity
  8
FISHER & PAYKEL
  6
Continuous
 62
    18
420
        0
100
AcDbLine
 10
1293.089400591019
 20
-668.8976573849206
 30
0.0
 11
1293.089400591019
 21
-660.8978754409206
 31
0.0
  0
LINE
  5
E9
330
1F
100
AcDbEntity
  8
FISHER & PAYKEL
  6
Continuous
 62
    18
420
        0
100
AcDbLine
 10
1293.089400591019
 20
-700.6275005619207
 30
0.0
 11
1293.089400591019
 21
-695.7977664129207
 31
0.0
  0
LINE
  5
EA
330
1F
100
AcDbEntity
  8
FISHER & PAYKEL
  6
Continuous
 62
    18
420
        0
100
AcDbLine
 10
1293.089400591019
 20
-723.7977664129207
 30
0.0
 11
1293.089400591019
 21
-700.7977664129207
 31
0.0
  0
LINE
  5
EB
330
1F
100
AcDbEntity
  8
FISHER & PAYKEL
  6
Continuous
 62
    18
420
        0
100
AcDbLine
 10
1274.26909344002
 20
-650.4959402469208
 30
0.0
 11
1274.26909344002
 21
-765.7977664129207
 31
0.0
  0
LINE
  5
EC
330
1F
100
AcDbEntity
  8
FISHER & PAYKEL
  6
Continuous
 62
    18
420
        0
100
AcDbLine
 10
1266.689400591019
 20
-795.7977664129207
 30
0.0
 11
1266.689400591019
 21
-782.7977664129206
 31
0.0
  0
LINE
  5
ED
330
1F
100
AcDbEntity
  8
FISHER & PAYKEL
  6
Continuous
 62
    18
420
        0
100
AcDbLine
 10
1261.689400591019
 20
-765.7977664129207
 30
0.0
 11
1261.689400591019
 21
-782.7977664129206
 31
0.0
  0
LINE
  5
EE
330
1F
100
AcDbEntity
  8
FISHER & PAYKEL
  6
Continuous
 62
    18
420
        0
100
AcDbLine
 10
1259.189400591019
 20
-795.7977664129207
 30
0.0
 11
1259.189400591019
 21
-782.7977664129206
 31
0.0
  0
LINE
  5
EF
330
1F
100
AcDbEntity
  8
FISHER & PAYKEL
  6
Continuous
 62
    18
420
        0
100
AcDbLine
 10
1244.189400591019
 20
-795.7977664129207
 30
0.0
 11
1244.189400591019
 21
-782.7977664129206
 31
0.0
  0
LINE
  5
F0
330
1F
100
AcDbEntity
  8
FISHER & PAYKEL
  6
Continuous
 62
    18
420
        0
100
AcDbLine
 10
1241.689400591019
 20
-765.7977664129207
 30
0.0
 11
1241.689400591019
 21
-782.7977664129206
 31
0.0
  0
LINE
  5
F1
330
1F
100
AcDbEntity
  8
FISHER & PAYKEL
  6
Continuous
 62
    18
420
        0
100
AcDbLine
 10
1240.089400591019
 20
-765.7977664129207
 30
0.0
 11
1240.089400591019
 21
-782.7977664129206
 31
0.0
  0
LINE
  5
F2
330
1F
100
AcDbEntity
  8
FISHER & PAYKEL
  6
Continuous
 62
    18
420
        0
100
AcDbLine
 10
1236.689400591019
 20
-795.7977664129207
 30
0.0
 11
1236.689400591019
 21
-782.7977664129206
 31
0.0
  0
LINE
  5
F3
330
1F
100
AcDbEntity
  8
FISHER & PAYKEL
  6
Continuous
 62
    18
420
        0
100
AcDbLine
 10
1341.089400591019
 20
-99.49776641292067
 30
0.0
 11
1333.089400591019
 21
-99.49776641292067
 31
0.0
  0
LINE
  5
F4
330
1F
100
AcDbEntity
  8
FISHER & PAYKEL
  6
Continuous
 62
    18
420
        0
100
AcDbLine
 10
1329.089400591019
 20
-115.6977664129207
 30
0.0
 11
1341.089400591019
 21
-115.6977664129207
 31
0.0
  0
LINE
  5
F5
330
1F
100
AcDbEntity
  8
FISHER & PAYKEL
  6
Continuous
 62
    18
420
        0
100
AcDbLine
 10
1347.08940059102
 20
-131.8977664129208
 30
0.0
 11
1329.089400591019
 21
-131.8977664129208
 31
0.0
  0
LINE
  5
F6
330
1F
100
AcDbEntity
  8
FISHER & PAYKEL
  6
Continuous
 62
    18
420
        0
100
AcDbLine
 10
1326.889400591019
 20
-136.0977664129206
 30
0.0
 11
1347.08940059102
 21
-136.0977664129206
 31
0.0
  0
LINE
  5
F7
330
1F
100
AcDbEntity
  8
FISHER & PAYKEL
  6
Continuous
 62
    18
420
        0
100
AcDbLine
 10
1336.589400591019
 20
-165.2977664129209
 30
0.0
 11
1329.889400591019
 21
-165.2977664129209
 31
0.0
  0
LINE
  5
F8
330
1F
100
AcDbEntity
  8
FISHER & PAYKEL
  6
Continuous
 62
    18
420
        0
100
AcDbLine
 10
1328.589400591019
 20
-197.4977664129209
 30
0.0
 11
1330.589400591019
 21
-197.4977664129209
 31
0.0
  0
LINE
  5
F9
330
1F
100
AcDbEntity
  8
FISHER & PAYKEL
  6
Continuous
 62
    18
420
        0
100
AcDbLine
 10
1320.089400591019
 20
-208.9977664129209
 30
0.0
 11
1322.589400591019
 21
-208.9977664129209
 31
0.0
  0
LINE
  5
FA
330
1F
100
AcDbEntity
  8
FISHER & PAYKEL
  6
Continuous
 62
    18
420
        0
100
AcDbLine
 10
857.9722847810192
 20
-647.7777664129206
 30
0.0
 11
865.1494005910192
 21
-640.2146644169208
 31
0.0
  0
LINE
  5
FB
330
1F
100
AcDbEntity
  8
FISHER & PAYKEL
  6
Continuous
 62
    18
420
        0
100
AcDbLine
 10
983.0894005910193
 20
51.20223358707938
 30
0.0
 11
983.0894005910193
 21
54.20223358707938
 31
0.0
  0
LINE
  5
FC
330
1F
100
AcDbEntity
  8
FISHER & PAYKEL
  6
Continuous
 62
    18
420
        0
100
AcDbLine
 10
924.9894005910194
 20
-795.7977664129207
 30
0.0
 11
924.9894005910194
 21
-782.7977664129206
 31
0.0
  0
LINE
  5
FD
330
1F
100
AcDbEntity
  8
FISHER & PAYKEL
  6
Continuous
 62
    18
420
        0
100
AcDbLine
 10
919.9894005910194
 20
-765.7977664129207
 30
0.0
 11
919.9894005910194
 21
-782.7977664129206
 31
0.0
  0
LINE
  5
FE
330
1F
100
AcDbEntity
  8
FISHER & PAYKEL
  6
Continuous
 62
    18
420
        0
100
AcDbLine
 10
917.4894005910194
 20
-795.7977664129207
 30
0.0
 11
917.4894005910194
 21
-782.7977664129206
 31
0.0
  0
LINE
  5
FF
330
1F
100
AcDbEntity
  8
FISHER & PAYKEL
  6
Continuous
 62
    18
420
        0
100
AcDbLine
 10
902.4894005910194
 20
-795.7977664129207
 30
0.0
 11
902.4894005910194
 21
-782.7977664129206
 31
0.0
  0
LINE
  5
100
330
1F
100
AcDbEntity
  8
FISHER & PAYKEL
  6
Continuous
 62
    18
420
        0
100
AcDbLine
 10
899.9894005910194
 20
-765.7977664129207
 30
0.0
 11
899.9894005910194
 21
-782.7977664129206
 31
0.0
  0
LINE
  5
101
330
1F
100
AcDbEntity
  8
FISHER & PAYKEL
  6
Continuous
 62
    18
420
        0
100
AcDbLine
 10
894.9894005910194
 20
-795.7977664129207
 30
0.0
 11
894.9894005910194
 21
-782.7977664129206
 31
0.0
  0
LINE
  5
102
330
1F
100
AcDbEntity
  8
FISHER & PAYKEL
  6
Continuous
 62
    18
420
        0
100
AcDbLine
 10
889.7894005910196
 20
-765.7977664129207
 30
0.0
 11
889.7894005910196
 21
-628.0977664129207
 31
0.0
  0
LINE
  5
103
330
1F
100
AcDbEntity
  8
FISHER & PAYKEL
  6
Continuous
 62
    18
420
        0
100
AcDbLine
 10
856.5894005910193
 20
-727.4977664129207
 30
0.0
 11
856.5894005910193
 21
-718.3977664129206
 31
0.0
  0
LINE
  5
104
330
1F
100
AcDbEntity
  8
FISHER & PAYKEL
  6
Continuous
 62
    18
420
        0
100
AcDbLine
 10
856.5894005910193
 20
-751.9977664129207
 30
0.0
 11
856.5894005910193
 21
-742.8977664129208
 31
0.0
  0
LINE
  5
105
330
1F
100
AcDbEntity
  8
FISHER & PAYKEL
  6
Continuous
 62
    18
420
        0
100
AcDbLine
 10
855.5894005910193
 20
-795.7977664129207
 30
0.0
 11
855.5894005910193
 21
-672.7777664129206
 31
0.0
  0
LINE
  5
106
330
1F
100
AcDbEntity
  8
FISHER & PAYKEL
  6
Continuous
 62
    18
420
        0
100
AcDbLine
 10
839.5894005910193
 20
-672.7777664129206
 30
0.0
 11
839.5894005910193
 21
-795.7977664129207
 31
0.0
  0
LINE
  5
107
330
1F
100
AcDbEntity
  8
FISHER & PAYKEL
  6
Continuous
 62
    18
420
        0
100
AcDbLine
 10
779.2894005910191
 20
-628.6191617799208
 30
0.0
 11
778.0615166260193
 21
-642.6539397109208
 31
0.0
  0
LINE
  5
108
330
1F
100
AcDbEntity
  8
FISHER & PAYKEL
  6
Continuous
 62
    18
420
        0
100
AcDbLine
 10
816.1894005910192
 20
-619.6977664129207
 30
0.0
 11
816.1894005910192
 21
-600.0977664129207
 31
0.0
  0
LINE
  5
109
330
1F
100
AcDbEntity
  8
FISHER & PAYKEL
  6
Continuous
 62
    18
420
        0
100
AcDbLine
 10
805.6894005910192
 20
-610.3977664129208
 30
0.0
 11
805.6894005910192
 21
-642.7977664129206
 31
0.0
  0
LINE
  5
10A
330
1F
100
AcDbEntity
  8
FISHER & PAYKEL
  6
Continuous
 62
    18
420
        0
100
AcDbLine
 10
802.0894005910193
 20
51.20223358707938
 30
0.0
 11
802.0894005910193
 21
54.20223358707938
 31
0.0
  0
LINE
  5
10B
330
1F
100
AcDbEntity
  8
FISHER & PAYKEL
  6
Continuous
 62
    18
420
        0
100
AcDbLine
 10
799.0894005910193
 20
-590.0977664129207
 30
0.0
 11
799.0894005910193
 21
51.20223358707938
 31
0.0
  0
LINE
  5
10C
330
1F
100
AcDbEntity
  8
FISHER & PAYKEL
  6
Continuous
 62
    18
420
        0
100
AcDbLine
 10
795.1894005910192
 20
-580.0977664129207
 30
0.0
 11
795.1894005910192
 21
-604.2977664129207
 31
0.0
  0
LINE
  5
10D
330
1F
100
AcDbEntity
  8
FISHER & PAYKEL
  6
Continuous
 62
    18
420
        0
100
AcDbLine
 10
794.5894005910193
 20
-628.0977664129207
 30
0.0
 11
794.5894005910193
 21
47.90223358707942
 31
0.0
  0
LINE
  5
10E
330
1F
100
AcDbEntity
  8
FISHER & PAYKEL
  6
Continuous
 62
    18
420
        0
100
AcDbLine
 10
788.4894005910194
 20
47.90223358707942
 30
0.0
 11
788.4894005910194
 21
48.00223358707933
 31
0.0
  0
LINE
  5
10F
330
1F
100
AcDbEntity
  8
FISHER & PAYKEL
  6
Continuous
 62
    18
420
        0
100
AcDbLine
 10
784.889400591019
 20
47.90223358707942
 30
0.0
 11
784.889400591019
 21
48.00223358707933
 31
0.0
  0
LINE
  5
110
330
1F
100
AcDbEntity
  8
FISHER & PAYKEL
  6
Continuous
 62
    18
420
        0
100
AcDbLine
 10
779.2894005910191
 20
-628.0977664129207
 30
0.0
 11
779.2894005910191
 21
-628.6191617799208
 31
0.0
  0
LINE
  5
111
330
1F
100
AcDbEntity
  8
FISHER & PAYKEL
  6
Continuous
 62
    18
420
        0
100
AcDbLine
 10
774.2894005910191
 20
47.90223358707942
 30
0.0
 11
774.2894005910191
 21
48.00223358707933
 31
0.0
  0
LINE
  5
112
330
1F
100
AcDbEntity
  8
FISHER & PAYKEL
  6
Continuous
 62
    18
420
        0
100
AcDbLine
 10
773.4894005910194
 20
47.90223358707942
 30
0.0
 11
773.4894005910194
 21
48.00223358707933
 31
0.0
  0
LINE
  5
113
330
1F
100
AcDbEntity
  8
FISHER & PAYKEL
  6
Continuous
 62
    18
420
        0
100
AcDbLine
 10
799.0894005910193
 20
-557.4877664129207
 30
0.0
 11
794.5894005910193
 21
-557.4877664129207
 31
0.0
  0
LINE
  5
114
330
1F
100
AcDbEntity
  8
FISHER & PAYKEL
  6
Continuous
 62
    18
420
        0
100
AcDbLine
 10
799.0894005910193
 20
-580.0977664129207
 30
0.0
 11
795.1894005910192
 21
-580.0977664129207
 31
0.0
  0
LINE
  5
115
330
1F
100
AcDbEntity
  8
FISHER & PAYKEL
  6
Continuous
 62
    18
420
        0
100
AcDbLine
 10
813.1894005910192
 20
-597.0977664129207
 30
0.0
 11
806.0894005910193
 21
-597.0977664129207
 31
0.0
  0
LINE
  5
116
330
1F
100
AcDbEntity
  8
FISHER & PAYKEL
  6
Continuous
 62
    18
420
        0
100
AcDbLine
 10
767.2894005910196
 20
-647.7977664129206
 30
0.0
 11
767.2894005910196
 21
-628.0977664129207
 31
0.0
  0
LINE
  5
117
330
1F
100
AcDbEntity
  8
FISHER & PAYKEL
  6
Continuous
 62
    18
420
        0
100
AcDbLine
 10
765.9894005910194
 20
-647.7977664129206
 30
0.0
 11
765.9894005910194
 21
52.20223358707915
 31
0.0
  0
LINE
  5
118
330
1F
100
AcDbEntity
  8
FISHER & PAYKEL
  6
Continuous
 62
    18
420
        0
100
AcDbLine
 10
750.889400591019
 20
-648.9977664129207
 30
0.0
 11
750.889400591019
 21
-647.7977664129206
 31
0.0
  0
LINE
  5
119
330
1F
100
AcDbEntity
  8
FISHER & PAYKEL
  6
Continuous
 62
    18
420
        0
100
AcDbLine
 10
746.9894005910194
 20
52.20223358707915
 30
0.0
 11
746.9894005910194
 21
-647.7977664129206
 31
0.0
  0
LINE
  5
11A
330
1F
100
AcDbEntity
  8
FISHER & PAYKEL
  6
Continuous
 62
    18
420
        0
100
AcDbLine
 10
794.5894005910193
 20
-627.4837324229206
 30
0.0
 11
823.5722847810196
 21
-647.7777664129206
 31
0.0
  0
LINE
  5
11B
330
1F
100
AcDbEntity
  8
FISHER & PAYKEL
  6
Continuous
 62
    18
420
        0
100
AcDbLine
 10
795.1894005910192
 20
-604.2977664129207
 30
0.0
 11
794.5894005910193
 21
-604.2977664129207
 31
0.0
  0
LINE
  5
11C
330
1F
100
AcDbEntity
  8
FISHER & PAYKEL
  6
Continuous
 62
     6
420
 16711935
100
AcDbLine
 10
123.9256242290192
 20
-610.3977664129208
 30
0.0
 11
805.6894005910192
 21
-610.3977664129208
 31
0.0
  0
LINE
  5
11D
330
1F
100
AcDbEntity
  8
FISHER & PAYKEL
  6
Continuous
 62
    18
420
        0
100
AcDbLine
 10
765.9894005910194
 20
-628.0977664129207
 30
0.0
 11
794.5894005910193
 21
-628.0977664129207
 31
0.0
  0
LINE
  5
11E
330
1F
100
AcDbEntity
  8
FISHER & PAYKEL
  6
Continuous
 62
    18
420
        0
100
AcDbLine
 10
889.7894005910196
 20
-628.0977664129207
 30
0.0
 11
824.5894005910193
 21
-628.0977664129207
 31
0.0
  0
LINE
  5
11F
330
1F
100
AcDbEntity
  8
FISHER & PAYKEL
  6
Continuous
 62
    18
420
        0
100
AcDbLine
 10
1320.089400591019
 20
-637.1959402469207
 30
0.0
 11
1316.385748259019
 21
-637.1959402469207
 31
0.0
  0
LINE
  5
120
330
1F
100
AcDbEntity
  8
FISHER & PAYKEL
  6
Continuous
 62
    18
420
        0
100
AcDbLine
 10
865.1494005910192
 20
-640.2146644169208
 30
0.0
 11
880.3994005910192
 21
-640.2146644169208
 31
0.0
  0
LINE
  5
121
330
1F
100
AcDbEntity
  8
FISHER & PAYKEL
  6
Continuous
 62
     6
420
 16711935
100
AcDbLine
 10
805.6894005910192
 20
-642.7977664129206
 30
0.0
 11
123.7654117570192
 21
-642.7977664129206
 31
0.0
  0
LINE
  5
122
330
1F
100
AcDbEntity
  8
FISHER & PAYKEL
  6
Continuous
 62
    18
420
        0
100
AcDbLine
 10
823.5722847810196
 20
-647.7777664129206
 30
0.0
 11
857.9722847810192
 21
-647.7777664129206
 31
0.0
  0
LINE
  5
123
330
1F
100
AcDbEntity
  8
FISHER & PAYKEL
  6
Continuous
 62
    18
420
        0
100
AcDbLine
 10
746.9894005910194
 20
-647.7977664129206
 30
0.0
 11
767.2894005910196
 21
-647.7977664129206
 31
0.0
  0
LINE
  5
124
330
1F
100
AcDbEntity
  8
FISHER & PAYKEL
  6
Continuous
 62
    18
420
        0
100
AcDbLine
 10
1274.26909344002
 20
-658.5168545819207
 30
0.0
 11
1320.089400591019
 21
-658.5168545819207
 31
0.0
  0
LINE
  5
125
330
1F
100
AcDbEntity
  8
FISHER & PAYKEL
  6
Continuous
 62
    18
420
        0
100
AcDbLine
 10
1274.26909344002
 20
-660.8977664129206
 30
0.0
 11
1293.089400591019
 21
-660.8977664129206
 31
0.0
  0
LINE
  5
126
330
1F
100
AcDbEntity
  8
FISHER & PAYKEL
  6
Continuous
 62
    18
420
        0
100
AcDbLine
 10
1320.089400591019
 20
-664.1959402469207
 30
0.0
 11
1293.089400591019
 21
-664.1959402469207
 31
0.0
  0
LINE
  5
127
330
1F
100
AcDbEntity
  8
FISHER & PAYKEL
  6
Continuous
 62
    18
420
        0
100
AcDbLine
 10
761.8447219800194
 20
-652.9851773059207
 30
0.0
 11
750.889400591019
 21
-648.9977664129207
 31
0.0
  0
LINE
  5
128
330
1F
100
AcDbEntity
  8
FISHER & PAYKEL
  6
Continuous
 62
    18
420
        0
100
AcDbLine
 10
1274.26909344002
 20
-668.8977664129206
 30
0.0
 11
1293.089400591019
 21
-668.8977664129206
 31
0.0
  0
LINE
  5
129
330
1F
100
AcDbEntity
  8
FISHER & PAYKEL
  6
Continuous
 62
    18
420
        0
100
AcDbLine
 10
855.5894005910193
 20
-672.7777664129206
 30
0.0
 11
839.5894005910193
 21
-672.7777664129206
 31
0.0
  0
LINE
  5
12A
330
1F
100
AcDbEntity
  8
FISHER & PAYKEL
  6
Continuous
 62
    18
420
        0
100
AcDbLine
 10
1274.26909344002
 20
-695.7977664129207
 30
0.0
 11
1293.089400591019
 21
-695.7977664129207
 31
0.0
  0
LINE
  5
12B
330
1F
100
AcDbEntity
  8
FISHER & PAYKEL
  6
Continuous
 62
    18
420
        0
100
AcDbLine
 10
1274.26909344002
 20
-700.7977664129207
 30
0.0
 11
1293.089400591019
 21
-700.7977664129207
 31
0.0
  0
LINE
  5
12C
330
1F
100
AcDbEntity
  8
FISHER & PAYKEL
  6
Continuous
 62
    18
420
        0
100
AcDbLine
 10
856.5894005910193
 20
-718.3977664129206
 30
0.0
 11
855.5894005910193
 21
-718.3977664129206
 31
0.0
  0
LINE
  5
12D
330
1F
100
AcDbEntity
  8
FISHER & PAYKEL
  6
Continuous
 62
    18
420
        0
100
AcDbLine
 10
1274.26909344002
 20
-723.7977664129207
 30
0.0
 11
1293.089400591019
 21
-723.7977664129207
 31
0.0
  0
LINE
  5
12E
330
1F
100
AcDbEntity
  8
FISHER & PAYKEL
  6
Continuous
 62
    18
420
        0
100
AcDbLine
 10
889.7894005910196
 20
-727.4977664129207
 30
0.0
 11
856.5894005910193
 21
-727.4977664129207
 31
0.0
  0
LINE
  5
12F
330
1F
100
AcDbEntity
  8
FISHER & PAYKEL
  6
Continuous
 62
    18
420
        0
100
AcDbLine
 10
1316.385748259019
 20
-637.1959402469207
 30
0.0
 11
1280.053556197019
 21
-643.6022859759207
 31
0.0
  0
LINE
  5
130
330
1F
100
AcDbEntity
  8
FISHER & PAYKEL
  6
Continuous
 62
    18
420
        0
100
AcDbLine
 10
856.5894005910193
 20
-742.8977664129208
 30
0.0
 11
889.7894005910196
 21
-742.8977664129208
 31
0.0
  0
LINE
  5
131
330
1F
100
AcDbEntity
  8
FISHER & PAYKEL
  6
Continuous
 62
    18
420
        0
100
AcDbLine
 10
855.5894005910193
 20
-751.9977664129207
 30
0.0
 11
856.5894005910193
 21
-751.9977664129207
 31
0.0
  0
LINE
  5
132
330
1F
100
AcDbEntity
  8
FISHER & PAYKEL
  6
Continuous
 62
    18
420
        0
100
AcDbLine
 10
1274.26909344002
 20
-765.7977664129207
 30
0.0
 11
889.7894005910196
 21
-765.7977664129207
 31
0.0
  0
LINE
  5
133
330
1F
100
AcDbEntity
  8
FISHER & PAYKEL
  6
Continuous
 62
    18
420
        0
100
AcDbLine
 10
924.9894005910194
 20
-782.7977664129206
 30
0.0
 11
894.9894005910194
 21
-782.7977664129206
 31
0.0
  0
LINE
  5
134
330
1F
100
AcDbEntity
  8
FISHER & PAYKEL
  6
Continuous
 62
    18
420
        0
100
AcDbLine
 10
1266.689400591019
 20
-782.7977664129206
 30
0.0
 11
1236.689400591019
 21
-782.7977664129206
 31
0.0
  0
LINE
  5
135
330
1F
100
AcDbEntity
  8
FISHER & PAYKEL
  6
Continuous
 62
     6
420
 16711935
100
AcDbLine
 10
123.9256242290192
 20
-610.3977664129208
 30
0.0
 11
123.7654117570192
 21
-642.7977664129206
 31
0.0
  0
LINE
  5
136
330
1F
100
AcDbEntity
  8
FISHER & PAYKEL
  6
Continuous
 62
     1
420
 16711680
100
AcDbLine
 10
1361.589400591019
 20
-795.7977664129207
 30
0.0
 11
1361.589400591019
 21
54.20223358707938
 31
0.0
  0
LINE
  5
137
330
1F
100
AcDbEntity
  8
FISHER & PAYKEL
  6
Continuous
 62
     1
420
 16711680
100
AcDbLine
 10
1361.589400591019
 20
54.20223358707938
 30
0.0
 11
765.9894005910194
 21
54.20223358707938
 31
0.0
  0
POLYLINE
  5
138
330
1F
100
AcDbEntity
  8
FISHER & PAYKEL
100
AcDb2dPolyline
 66
     1
 10
0.0
 20
0.0
 30
0.0
 70
     1
  0
VERTEX
  5
139
330
138
100
AcDbEntity
  8
FISHER & PAYKEL
100
AcDbVertex
100
AcDb2dVertex
 10
-1014.597868821624
 20
-1365.535203327505
 30
0.0
  0
VERTEX
  5
13A
330
138
100
AcDbEntity
  8
FISHER & PAYKEL
100
AcDbVertex
100
AcDb2dVertex
 10
-614.597868821624
 20
-1365.535203327505
 30
0.0
  0
VERTEX
  5
13B
330
138
100
AcDbEntity
  8
FISHER & PAYKEL
100
AcDbVertex
100
AcDb2dVertex
 10
-614.597868821624
 20
-1335.535203327505
 30
0.0
  0
VERTEX
  5
13C
330
138
100
AcDbEntity
  8
FISHER & PAYKEL
100
AcDbVertex
100
AcDb2dVertex
 10
-1014.597868821624
 20
-1335.535203327505
 30
0.0
  0
SEQEND
  5
13D
330
138
100
AcDbEntity
  8
FISHER & PAYKEL
  0
POLYLINE
  5
13E
330
1F
100
AcDbEntity
  8
FISHER & PAYKEL
100
AcDb2dPolyline
 66
     1
 10
0.0
 20
0.0
 30
0.0
  0
VERTEX
  5
13F
330
13E
100
AcDbEntity
  8
FISHER & PAYKEL
100
AcDbVertex
100
AcDb2dVertex
 10
-1014.597868821624
 20
-1365.535203327505
 30
0.0
  0
VERTEX
  5
140
330
13E
100
AcDbEntity
  8
FISHER & PAYKEL
100
AcDbVertex
100
AcDb2dVertex
 10
-1014.597868821624
 20
-1325.535203327505
 30
0.0
  0
SEQEND
  5
141
330
13E
100
AcDbEntity
  8
FISHER & PAYKEL
  0
POLYLINE
  5
142
330
1F
100
AcDbEntity
  8
FISHER & PAYKEL
100
AcDb2dPolyline
 66
     1
 10
0.0
 20
0.0
 30
0.0
  0
VERTEX
  5
143
330
142
100
AcDbEntity
  8
FISHER & PAYKEL
100
AcDbVertex
100
AcDb2dVertex
 10
-914.597868821624
 20
-1365.535203327505
 30
0.0
  0
VERTEX
  5
144
330
142
100
AcDbEntity
  8
FISHER & PAYKEL
100
AcDbVertex
100
AcDb2dVertex
 10
-914.597868821624
 20
-1325.535203327505
 30
0.0
  0
SEQEND
  5
145
330
142
100
AcDbEntity
  8
FISHER & PAYKEL
  0
POLYLINE
  5
146
330
1F
100
AcDbEntity
  8
FISHER & PAYKEL
100
AcDb2dPolyline
 66
     1
 10
0.0
 20
0.0
 30
0.0
  0
VERTEX
  5
147
330
146
100
AcDbEntity
  8
FISHER & PAYKEL
100
AcDbVertex
100
AcDb2dVertex
 10
-814.597868821624
 20
-1365.535203327505
 30
0.0
  0
VERTEX
  5
148
330
146
100
AcDbEntity
  8
FISHER & PAYKEL
100
AcDbVertex
100
AcDb2dVertex
 10
-814.597868821624
 20
-1325.535203327505
 30
0.0
  0
SEQEND
  5
149
330
146
100
AcDbEntity
  8
FISHER & PAYKEL
  0
POLYLINE
  5
14A
330
1F
100
AcDbEntity
  8
FISHER & PAYKEL
100
AcDb2dPolyline
 66
     1
 10
0.0
 20
0.0
 30
0.0
  0
VERTEX
  5
14B
330
14A
100
AcDbEntity
  8
FISHER & PAYKEL
100
AcDbVertex
100
AcDb2dVertex
 10
-614.597868821624
 20
-1365.535203327505
 30
0.0
  0
VERTEX
  5
14C
330
14A
100
AcDbEntity
  8
FISHER & PAYKEL
100
AcDbVertex
100
AcDb2dVertex
 10
-614.597868821624
 20
-1325.535203327505
 30
0.0
  0
SEQEND
  5
14D
330
14A
100
AcDbEntity
  8
FISHER & PAYKEL
  0
SPLINE
  5
14E
330
1F
100
AcDbEntity
  8
FISHER & PAYKEL
 62
   250
420
  1316376
370
     9
100
AcDbSpline
210
0.0
220
0.0
230
1.0
 70
     8
 71
     3
 72
     8
 73
     4
 74
     0
 42
0.0000000001
 43
0.0000000001
 40
11.6347115225809
 40
11.6347115225809
 40
11.6347115225809
 40
11.6347115225809
 40
12.6347115225809
 40
12.6347115225809
 40
12.6347115225809
 40
12.6347115225809
 10
-494.3971632719484
 20
-1365.395853872498
 30
0.0
 10
-495.9811604967803
 20
-1365.395853872498
 30
0.0
 10
-497.709798859105
 20
-1364.7643718332
 30
0.0
 10
-498.8634015007846
 20
-1363.833023275836
 30
0.0
  0
SPLINE
  5
14F
330
1F
100
AcDbEntity
  8
FISHER & PAYKEL
 62
   250
420
  1316376
370
     9
100
AcDbSpline
210
0.0
220
0.0
230
1.0
 70
     8
 71
     3
 72
     8
 73
     4
 74
     0
 42
0.0000000001
 43
0.0000000001
 40
10.6347115225809
 40
10.6347115225809
 40
10.6347115225809
 40
10.6347115225809
 40
11.6347115225809
 40
11.6347115225809
 40
11.6347115225809
 40
11.6347115225809
 10
-490.6364919039084
 20
-1362.245497839046
 30
0.0
 10
-490.6364919039084
 20
-1364.171695369018
 30
0.0
 10
-492.3051575296898
 20
-1365.395853872498
 30
0.0
 10
-494.3971632719484
 20
-1365.395853872498
 30
0.0
  0
LINE
  5
150
330
1F
100
AcDbEntity
  8
FISHER & PAYKEL
 62
   250
420
  1316376
370
     9
100
AcDbLine
 10
-490.6364919039084
 20
-1362.203163827398
 30
0.0
 11
-490.6364919039084
 21
-1362.245497839046
 31
0.0
  0
SPLINE
  5
151
330
1F
100
AcDbEntity
  8
FISHER & PAYKEL
 62
   250
420
  1316376
370
     9
100
AcDbSpline
210
0.0
220
0.0
230
1.0
 70
     8
 71
     3
 72
     8
 73
     4
 74
     0
 42
0.0000000001
 43
0.0000000001
 40
9.622711522580898
 40
9.622711522580898
 40
9.622711522580898
 40
9.622711522580898
 40
10.6227115225809
 40
10.6227115225809
 40
10.6227115225809
 40
10.6227115225809
 10
-494.2278272253576
 20
-1359.179809828889
 30
0.0
 10
-492.4744935762807
 20
-1359.663123128534
 30
0.0
 10
-490.6364919039084
 20
-1360.29813330325
 30
0.0
 10
-490.6364919039084
 20
-1362.203163827398
 30
0.0
  0
SPLINE
  5
152
330
1F
100
AcDbEntity
  8
FISHER & PAYKEL
 62
   250
420
  1316376
370
     9
100
AcDbSpline
210
0.0
220
0.0
230
1.0
 70
     8
 71
     3
 72
     8
 73
     4
 74
     0
 42
0.0000000001
 43
0.0000000001
 40
8.622711522580898
 40
8.622711522580898
 40
8.622711522580898
 40
8.622711522580898
 40
9.622711522580898
 40
9.622711522580898
 40
9.622711522580898
 40
9.622711522580898
 10
-497.2617647267786
 20
-1357.084276252326
 30
0.0
 10
-497.2617647267786
 20
-1358.290795584287
 30
0.0
 10
-495.787129987716
 20
-1358.735302706588
 30
0.0
 10
-494.2278272253576
 20
-1359.179809828889
 30
0.0
  0
LINE
  5
153
330
1F
100
AcDbEntity
  8
FISHER & PAYKEL
 62
   250
420
  1316376
370
     9
100
AcDbLine
 10
-497.2617647267786
 20
-1357.041942240679
 30
0.0
 11
-497.2617647267786
 21
-1357.084276252326
 31
0.0
  0
SPLINE
  5
154
330
1F
100
AcDbEntity
  8
FISHER & PAYKEL
 62
   250
420
  1316376
370
     9
100
AcDbSpline
210
0.0
220
0.0
230
1.0
 70
     8
 71
     3
 72
     8
 73
     4
 74
     0
 42
0.0000000001
 43
0.0000000001
 40
7.610711522580898
 40
7.610711522580898
 40
7.610711522580898
 40
7.610711522580898
 40
8.610711522580898
 40
8.610711522580898
 40
8.610711522580898
 40
8.610711522580898
 10
-494.7816972110826
 20
-1355.158078722354
 30
0.0
 10
-496.2810267902731
 20
-1355.158078722354
 30
0.0
 10
-497.2617647267786
 20
-1355.962424943661
 30
0.0
 10
-497.2617647267786
 20
-1357.041942240679
 30
0.0
  0
SPLINE
  5
155
330
1F
100
AcDbEntity
  8
FISHER & PAYKEL
 62
   250
420
  1316376
370
     9
100
AcDbSpline
210
0.0
220
0.0
230
1.0
 70
     8
 71
     3
 72
     8
 73
     4
 74
     0
 42
0.0000000001
 43
0.0000000001
 40
6.610711522580898
 40
6.610711522580898
 40
6.610711522580898
 40
6.610711522580898
 40
7.610711522580898
 40
7.610711522580898
 40
7.610711522580898
 40
7.610711522580898
 10
-491.4302546223031
 20
-1356.237596019371
 30
0.0
 10
-492.432159564633
 20
-1355.581418838832
 30
0.0
 10
-493.6316232279856
 20
-1355.158078722354
 30
0.0
 10
-494.7816972110826
 20
-1355.158078722354
 30
0.0
  0
LINE
  5
156
330
1F
100
AcDbEntity
  8
FISHER & PAYKEL
 62
   250
420
  1316376
370
     9
100
AcDbLine
 10
-490.8693289679708
 20
-1355.369748780593
 30
0.0
 11
-491.4302546223031
 21
-1356.237596019371
 31
0.0
  0
SPLINE
  5
157
330
1F
100
AcDbEntity
  8
FISHER & PAYKEL
 62
   250
420
  1316376
370
     9
100
AcDbSpline
210
0.0
220
0.0
230
1.0
 70
     8
 71
     3
 72
     8
 73
     4
 74
     0
 42
0.0000000001
 43
0.0000000001
 40
5.317800273223711
 40
5.317800273223711
 40
5.317800273223711
 40
5.317800273223711
 40
6.317800273223711
 40
6.317800273223711
 40
6.317800273223711
 40
6.317800273223711
 10
-494.7393631994349
 20
-1354.184396454456
 30
0.0
 10
-493.4375923412668
 20
-1354.184396454456
 30
0.0
 10
-491.9629576022043
 20
-1354.650070582582
 30
0.0
 10
-490.8693289679708
 20
-1355.369748780593
 30
0.0
  0
SPLINE
  5
158
330
1F
100
AcDbEntity
  8
FISHER & PAYKEL
 62
   250
420
  1316376
370
     9
100
AcDbSpline
210
0.0
220
0.0
230
1.0
 70
     8
 71
     3
 72
     8
 73
     4
 74
     0
 42
0.0000000001
 43
0.0000000001
 40
4.317800273223711
 40
4.317800273223711
 40
4.317800273223711
 40
4.317800273223711
 40
5.317800273223711
 40
5.317800273223711
 40
5.317800273223711
 40
5.317800273223711
 10
-498.3306985208841
 20
-1357.165416441318
 30
0.0
 10
-498.3306985208841
 20
-1355.433249798065
 30
0.0
 10
-496.8560637818213
 20
-1354.184396454456
 30
0.0
 10
-494.7393631994349
 20
-1354.184396454456
 30
0.0
  0
LINE
  5
159
330
1F
100
AcDbEntity
  8
FISHER & PAYKEL
 62
   250
420
  1316376
370
     9
100
AcDbLine
 10
-498.3306985208841
 20
-1357.21127828727
 30
0.0
 11
-498.3306985208841
 21
-1357.165416441318
 31
0.0
  0
SPLINE
  5
15A
330
1F
100
AcDbEntity
  8
FISHER & PAYKEL
 62
   250
420
  1316376
370
     9
100
AcDbSpline
210
0.0
220
0.0
230
1.0
 70
     8
 71
     3
 72
     8
 73
     4
 74
     0
 42
0.0000000001
 43
0.0000000001
 40
3.304800273223734
 40
3.304800273223734
 40
3.304800273223734
 40
3.304800273223734
 40
4.304800273223734
 40
4.304800273223734
 40
4.304800273223734
 40
4.304800273223734
 10
-494.5911941586679
 20
-1360.171131268307
 30
0.0
 10
-496.3656948135687
 20
-1359.663123128534
 30
0.0
 10
-498.3306985208841
 20
-1359.137475817241
 30
0.0
 10
-498.3306985208841
 20
-1357.21127828727
 30
0.0
  0
SPLINE
  5
15B
330
1F
100
AcDbEntity
  8
FISHER & PAYKEL
 62
   250
420
  1316376
370
     9
100
AcDbSpline
210
0.0
220
0.0
230
1.0
 70
     8
 71
     3
 72
     8
 73
     4
 74
     0
 42
0.0000000001
 43
0.0000000001
 40
2.304800273223734
 40
2.304800273223734
 40
2.304800273223734
 40
2.304800273223734
 40
3.304800273223734
 40
3.304800273223734
 40
3.304800273223734
 40
3.304800273223734
 10
-491.7054256980138
 20
-1362.330165862341
 30
0.0
 10
-491.7054256980138
 20
-1361.060145512909
 30
0.0
 10
-493.0706975736533
 20
-1360.594471384784
 30
0.0
 10
-494.5911941586679
 20
-1360.171131268307
 30
0.0
  0
LINE
  5
15C
330
1F
100
AcDbEntity
  8
FISHER & PAYKEL
 62
   250
420
  1316376
370
     9
100
AcDbLine
 10
-491.7054256980138
 20
-1362.372499873989
 30
0.0
 11
-491.7054256980138
 21
-1362.330165862341
 31
0.0
  0
SPLINE
  5
15D
330
1F
100
AcDbEntity
  8
FISHER & PAYKEL
 62
   250
420
  1316376
370
     9
100
AcDbSpline
210
0.0
220
0.0
230
1.0
 70
     8
 71
     3
 72
     8
 73
     4
 74
     0
 42
0.0000000001
 43
0.0000000001
 40
1.292800273223734
 40
1.292800273223734
 40
1.292800273223734
 40
1.292800273223734
 40
2.292800273223734
 40
2.292800273223734
 40
2.292800273223734
 40
2.292800273223734
 10
-494.3336622544774
 20
-1364.425699438904
 30
0.0
 10
-492.8590275154148
 20
-1364.425699438904
 30
0.0
 10
-491.7054256980138
 20
-1363.617825383293
 30
0.0
 10
-491.7054256980138
 20
-1362.372499873989
 30
0.0
  0
SPLINE
  5
15E
330
1F
100
AcDbEntity
  8
FISHER & PAYKEL
 62
   250
420
  1316376
370
     9
100
AcDbSpline
210
0.0
220
0.0
230
1.0
 70
     8
 71
     3
 72
     8
 73
     4
 74
     0
 42
0.0000000001
 43
0.0000000001
 40
0.292800273223734
 40
0.292800273223734
 40
0.292800273223734
 40
0.292800273223734
 40
1.292800273223734
 40
1.292800273223734
 40
1.292800273223734
 40
1.292800273223734
 10
-498.2425026632851
 20
-1363.007510048706
 30
0.0
 10
-497.0465668342359
 20
-1363.914163464828
 30
0.0
 10
-495.7201011359404
 20
-1364.425699438904
 30
0.0
 10
-494.3336622544774
 20
-1364.425699438904
 30
0.0
  0
LINE
  5
15F
330
1F
100
AcDbEntity
  8
FISHER & PAYKEL
 62
   250
420
  1316376
370
     9
100
AcDbLine
 10
-498.8634015007846
 20
-1363.833023275836
 30
0.0
 11
-498.2425026632851
 21
-1363.007510048706
 31
0.0
  0
LINE
  5
160
330
1F
100
AcDbEntity
  8
FISHER & PAYKEL
 62
   250
420
  1316376
370
     9
100
AcDbLine
 10
-510.0081828504809
 20
-1359.282117023704
 30
0.0
 11
-502.0811391694427
 21
-1359.282117023704
 31
0.0
  0
SPLINE
  5
161
330
1F
100
AcDbEntity
  8
FISHER & PAYKEL
 62
   250
420
  1316376
370
     9
100
AcDbSpline
210
0.0
220
0.0
230
1.0
 70
     8
 71
     3
 72
     8
 73
     4
 74
     0
 42
0.0000000001
 43
0.0000000001
 40
1.0
 40
1.0
 40
1.0
 40
1.0
 40
2.0
 40
2.0
 40
2.0
 40
2.0
 10
-505.9899795782502
 20
-1355.094577704883
 30
0.0
 10
-508.1490141722849
 20
-1355.094577704883
 30
0.0
 10
-509.8141519637624
 20
-1356.890245365607
 30
0.0
 10
-510.0081828504809
 20
-1359.282117023704
 30
0.0
  0
SPLINE
  5
162
330
1F
100
AcDbEntity
  8
FISHER & PAYKEL
 62
   250
420
  1316376
370
     9
100
AcDbSpline
210
0.0
220
0.0
230
1.0
 70
     8
 71
     3
 72
     8
 73
     4
 74
     0
 42
0.0000000001
 43
0.0000000001
 40
0.0
 40
0.0
 40
0.0
 40
0.0
 40
1.0
 40
1.0
 40
1.0
 40
1.0
 10
-502.0811391694427
 20
-1359.282117023704
 30
0.0
 10
-502.2293082102098
 20
-1357.10544325815
 30
0.0
 10
-503.48874505673
 20
-1355.094577704883
 30
0.0
 10
-505.9899795782502
 20
-1355.094577704883
 30
0.0
  0
SPLINE
  5
163
330
1F
100
AcDbEntity
  8
FISHER & PAYKEL
 62
   250
420
  1316376
370
     9
100
AcDbSpline
210
0.0
220
0.0
230
1.0
 70
     8
 71
     3
 72
     8
 73
     4
 74
     0
 42
0.0000000001
 43
0.0000000001
 40
10.84656169322476
 40
10.84656169322476
 40
10.84656169322476
 40
10.84656169322476
 40
11.84656169322476
 40
11.84656169322476
 40
11.84656169322476
 40
11.84656169322476
 10
-505.7783095200117
 20
-1365.44171571845
 30
0.0
 10
-508.6393831405375
 20
-1365.44171571845
 30
0.0
 10
-511.1194506562341
 20
-1363.176846095296
 30
0.0
 10
-511.1194506562341
 20
-1359.811292169301
 30
0.0
  0
SPLINE
  5
164
330
1F
100
AcDbEntity
  8
FISHER & PAYKEL
 62
   250
420
  1316376
370
     9
100
AcDbSpline
210
0.0
220
0.0
230
1.0
 70
     8
 71
     3
 72
     8
 73
     4
 74
     0
 42
0.0000000001
 43
0.0000000001
 40
9.84656169322476
 40
9.84656169322476
 40
9.84656169322476
 40
9.84656169322476
 40
10.84656169322476
 40
10.84656169322476
 40
10.84656169322476
 40
10.84656169322476
 10
-501.2697372795279
 20
-1363.409683159359
 30
0.0
 10
-502.3774772509768
 20
-1364.595035485495
 30
0.0
 10
-503.6827759434487
 20
-1365.44171571845
 30
0.0
 10
-505.7783095200117
 20
-1365.44171571845
 30
0.0
  0
LINE
  5
165
330
1F
100
AcDbEntity
  8
FISHER & PAYKEL
 62
   250
420
  1316376
370
     9
100
AcDbLine
 10
-501.9964711461474
 20
-1362.774672984643
 30
0.0
 11
-501.2697372795279
 21
-1363.409683159359
 31
0.0
  0
SPLINE
  5
166
330
1F
100
AcDbEntity
  8
FISHER & PAYKEL
 62
   250
420
  1316376
370
     9
100
AcDbSpline
210
0.0
220
0.0
230
1.0
 70
     8
 71
     3
 72
     8
 73
     4
 74
     0
 42
0.0000000001
 43
0.0000000001
 40
8.572999999999979
 40
8.572999999999979
 40
8.572999999999979
 40
8.572999999999979
 40
9.572999999999979
 40
9.572999999999979
 40
9.572999999999979
 40
9.572999999999979
 10
-505.7324476740599
 20
-1364.468033450552
 30
0.0
 10
-504.0461428767586
 20
-1364.468033450552
 30
0.0
 10
-502.8890132250536
 20
-1363.727188246717
 30
0.0
 10
-501.9964711461474
 20
-1362.774672984643
 30
0.0
  0
SPLINE
  5
167
330
1F
100
AcDbEntity
  8
FISHER & PAYKEL
 62
   250
420
  1316376
370
     9
100
AcDbSpline
210
0.0
220
0.0
230
1.0
 70
     8
 71
     3
 72
     8
 73
     4
 74
     0
 42
0.0000000001
 43
0.0000000001
 40
7.572999999999979
 40
7.572999999999979
 40
7.572999999999979
 40
7.572999999999979
 40
8.572999999999979
 40
8.572999999999979
 40
8.572999999999979
 40
8.572999999999979
 10
-510.0081828504809
 20
-1360.216993114258
 30
0.0
 10
-509.8141519637624
 20
-1362.898147185282
 30
0.0
 10
-507.8738430965742
 20
-1364.468033450552
 30
0.0
 10
-505.7324476740599
 20
-1364.468033450552
 30
0.0
  0
LINE
  5
168
330
1F
100
AcDbEntity
  8
FISHER & PAYKEL
 62
   250
420
  1316376
370
     9
100
AcDbLine
 10
-500.96987136369
 20
-1360.216993114258
 30
0.0
 11
-510.0081828504809
 21
-1360.216993114258
 31
0.0
  0
SPLINE
  5
169
330
1F
100
AcDbEntity
  8
FISHER & PAYKEL
 62
   250
420
  1316376
370
     9
100
AcDbSpline
210
0.0
220
0.0
230
1.0
 70
     8
 71
     3
 72
     8
 73
     4
 74
     0
 42
0.0000000001
 43
0.0000000001
 40
4.010999999999967
 40
4.010999999999967
 40
4.010999999999967
 40
4.010999999999967
 40
5.010999999999967
 40
5.010999999999967
 40
5.010999999999967
 40
5.010999999999967
 10
-500.9487043578657
 20
-1359.793652997781
 30
0.0
 10
-500.9487043578657
 20
-1359.980628215892
 30
0.0
 10
-500.9487043578657
 20
-1360.047657067667
 30
0.0
 10
-500.96987136369
 20
-1360.216993114258
 30
0.0
  0
SPLINE
  5
16A
330
1F
100
AcDbEntity
  8
FISHER & PAYKEL
 62
   250
420
  1316376
370
     9
100
AcDbSpline
210
0.0
220
0.0
230
1.0
 70
     8
 71
     3
 72
     8
 73
     4
 74
     0
 42
0.0000000001
 43
0.0000000001
 40
3.010999999999967
 40
3.010999999999967
 40
3.010999999999967
 40
3.010999999999967
 40
4.010999999999967
 40
4.010999999999967
 40
4.010999999999967
 40
4.010999999999967
 10
-505.9476455666025
 20
-1354.142062442809
 30
0.0
 10
-502.8890132250536
 20
-1354.142062442809
 30
0.0
 10
-500.9487043578657
 20
-1356.597435118377
 30
0.0
 10
-500.9487043578657
 20
-1359.793652997781
 30
0.0
  0
SPLINE
  5
16B
330
1F
100
AcDbEntity
  8
FISHER & PAYKEL
 62
   250
420
  1316376
370
     9
100
AcDbSpline
210
0.0
220
0.0
230
1.0
 70
     8
 71
     3
 72
     8
 73
     4
 74
     0
 42
0.0000000001
 43
0.0000000001
 40
2.010999999999967
 40
2.010999999999967
 40
2.010999999999967
 40
2.010999999999967
 40
3.010999999999967
 40
3.010999999999967
 40
3.010999999999967
 40
3.010999999999967
 10
-511.1194506562341
 20
-1359.772485991957
 30
0.0
 10
-511.1194506562341
 20
-1356.639769130025
 30
0.0
 10
-508.896915044728
 20
-1354.142062442809
 30
0.0
 10
-505.9476455666025
 20
-1354.142062442809
 30
0.0
  0
LINE
  5
16C
330
1F
100
AcDbEntity
  8
FISHER & PAYKEL
 62
   250
420
  1316376
370
     9
100
AcDbLine
 10
-511.1194506562341
 20
-1359.811292169301
 30
0.0
 11
-511.1194506562341
 21
-1359.772485991957
 31
0.0
  0
LINE
  5
16D
330
1F
100
AcDbEntity
  8
FISHER & PAYKEL
 62
   250
420
  1316376
370
     9
100
AcDbLine
 10
-518.8902112776062
 20
-1365.188417215424
 30
0.0
 11
-518.8902112776062
 21
-1354.396772079556
 31
0.0
  0
LINE
  5
16E
330
1F
100
AcDbEntity
  8
FISHER & PAYKEL
 62
   250
420
  1316376
370
     9
100
AcDbLine
 10
-517.8424444893245
 20
-1365.188417215424
 30
0.0
 11
-518.8902112776062
 21
-1365.188417215424
 31
0.0
  0
LINE
  5
16F
330
1F
100
AcDbEntity
  8
FISHER & PAYKEL
 62
   250
420
  1316376
370
     9
100
AcDbLine
 10
-517.8424444893245
 20
-1360.764512998236
 30
0.0
 11
-517.8424444893245
 21
-1365.188417215424
 31
0.0
  0
SPLINE
  5
170
330
1F
100
AcDbEntity
  8
FISHER & PAYKEL
 62
   250
420
  1316376
370
     9
100
AcDbSpline
210
0.0
220
0.0
230
1.0
 70
     8
 71
     3
 72
     8
 73
     4
 74
     0
 42
0.0000000001
 43
0.0000000001
 40
2.519000000000005
 40
2.519000000000005
 40
2.519000000000005
 40
2.519000000000005
 40
3.519000000000005
 40
3.519000000000005
 40
3.519000000000005
 40
3.519000000000005
 10
-513.1186743562984
 20
-1355.36692651315
 30
0.0
 10
-515.6410758836424
 20
-1355.36692651315
 30
0.0
 10
-517.8424444893245
 20
-1357.254317865778
 30
0.0
 10
-517.8424444893245
 20
-1360.764512998236
 30
0.0
  0
LINE
  5
171
330
1F
100
AcDbEntity
  8
FISHER & PAYKEL
 62
   250
420
  1316376
370
     9
100
AcDbLine
 10
-513.012839327179
 20
-1355.36692651315
 30
0.0
 11
-513.1186743562984
 21
-1355.36692651315
 31
0.0
  0
LINE
  5
172
330
1F
100
AcDbEntity
  8
FISHER & PAYKEL
 62
   250
420
  1316376
370
     9
100
AcDbLine
 10
-513.012839327179
 20
-1354.227436032965
 30
0.0
 11
-513.012839327179
 21
-1355.36692651315
 31
0.0
  0
SPLINE
  5
173
330
1F
100
AcDbEntity
  8
FISHER & PAYKEL
 62
   250
420
  1316376
370
     9
100
AcDbSpline
210
0.0
220
0.0
230
1.0
 70
     8
 71
     3
 72
     8
 73
     4
 74
     0
 42
0.0000000001
 43
0.0000000001
 40
1.166000000000054
 40
1.166000000000054
 40
1.166000000000054
 40
1.166000000000054
 40
2.166000000000054
 40
2.166000000000054
 40
2.166000000000054
 40
2.166000000000054
 10
-517.8424444893245
 20
-1357.462460089713
 30
0.0
 10
-516.9887085877621
 20
-1355.539790394045
 30
0.0
 10
-515.1718739212134
 20
-1354.142768009669
 30
0.0
 10
-513.012839327179
 20
-1354.227436032965
 30
0.0
  0
LINE
  5
174
330
1F
100
AcDbEntity
  8
FISHER & PAYKEL
 62
   250
420
  1316376
370
     9
100
AcDbLine
 10
-517.8424444893245
 20
-1354.396772079556
 30
0.0
 11
-517.8424444893245
 21
-1357.462460089713
 31
0.0
  0
LINE
  5
175
330
1F
100
AcDbEntity
  8
FISHER & PAYKEL
 62
   250
420
  1316376
370
     9
100
AcDbLine
 10
-518.8902112776062
 20
-1354.396772079556
 30
0.0
 11
-517.8424444893245
 21
-1354.396772079556
 31
0.0
  0
SPLINE
  5
176
330
1F
100
AcDbEntity
  8
FISHER & PAYKEL
 62
   250
420
  1316376
370
     9
100
AcDbSpline
210
0.0
220
0.0
230
1.0
 70
     8
 71
     3
 72
     8
 73
     4
 74
     0
 42
0.0000000001
 43
0.0000000001
 40
13.10599999999988
 40
13.10599999999988
 40
13.10599999999988
 40
13.10599999999988
 40
14.10599999999988
 40
14.10599999999988
 40
14.10599999999988
 40
14.10599999999988
 10
-523.7759090051849
 20
-1365.377156350687
 30
0.0
 10
-525.4622138024864
 20
-1365.377156350687
 30
0.0
 10
-526.8310135124296
 20
-1364.46697510026
 30
0.0
 10
-526.8310135124296
 20
-1362.413775535345
 30
0.0
  0
SPLINE
  5
177
330
1F
100
AcDbEntity
  8
FISHER & PAYKEL
 62
   250
420
  1316376
370
     9
100
AcDbSpline
210
0.0
220
0.0
230
1.0
 70
     8
 71
     3
 72
     8
 73
     4
 74
     0
 42
0.0000000001
 43
0.0000000001
 40
12.10599999999988
 40
12.10599999999988
 40
12.10599999999988
 40
12.10599999999988
 40
13.10599999999988
 40
13.10599999999988
 40
13.10599999999988
 40
13.10599999999988
 10
-522.0014083502841
 20
-1364.992622411553
 30
0.0
 10
-522.5552783360087
 20
-1365.250154315744
 30
0.0
 10
-523.0879813159096
 20
-1365.377156350687
 30
0.0
 10
-523.7759090051849
 20
-1365.377156350687
 30
0.0
  0
LINE
  5
178
330
1F
100
AcDbEntity
  8
FISHER & PAYKEL
 62
   250
420
  1316376
370
     9
100
AcDbLine
 10
-522.0014083502841
 20
-1364.022467977959
 30
0.0
 11
-522.0014083502841
 21
-1364.992622411553
 31
0.0
  0
SPLINE
  5
179
330
1F
100
AcDbEntity
  8
FISHER & PAYKEL
 62
   250
420
  1316376
370
     9
100
AcDbSpline
210
0.0
220
0.0
230
1.0
 70
     8
 71
     3
 72
     8
 73
     4
 74
     0
 42
0.0000000001
 43
0.0000000001
 40
10.8309999999999
 40
10.8309999999999
 40
10.8309999999999
 40
10.8309999999999
 40
11.8309999999999
 40
11.8309999999999
 40
11.8309999999999
 40
11.8309999999999
 10
-523.6030451242901
 20
-1364.399946248485
 30
0.0
 10
-523.0703421443897
 20
-1364.399946248485
 30
0.0
 10
-522.6223071877843
 20
-1364.29763905367
 30
0.0
 10
-522.0014083502841
 20
-1364.022467977959
 30
0.0
  0
SPLINE
  5
17A
330
1F
100
AcDbEntity
  8
FISHER & PAYKEL
 62
   250
420
  1316376
370
     9
100
AcDbSpline
210
0.0
220
0.0
230
1.0
 70
     8
 71
     3
 72
     8
 73
     4
 74
     0
 42
0.0000000001
 43
0.0000000001
 40
9.830999999999904
 40
9.830999999999904
 40
9.830999999999904
 40
9.830999999999904
 40
10.8309999999999
 40
10.8309999999999
 40
10.8309999999999
 40
10.8309999999999
 10
-525.7832467241482
 20
-1362.307940506226
 30
0.0
 10
-525.7832467241482
 20
-1363.853131931368
 30
0.0
 10
-524.8624819708101
 20
-1364.399946248485
 30
0.0
 10
-523.6030451242901
 20
-1364.399946248485
 30
0.0
  0
LINE
  5
17B
330
1F
100
AcDbEntity
  8
FISHER & PAYKEL
 62
   250
420
  1316376
370
     9
100
AcDbLine
 10
-525.7832467241482
 20
-1355.347523424478
 30
0.0
 11
-525.7832467241482
 21
-1362.307940506226
 31
0.0
  0
LINE
  5
17C
330
1F
100
AcDbEntity
  8
FISHER & PAYKEL
 62
   250
420
  1316376
370
     9
100
AcDbLine
 10
-521.9590743386365
 20
-1355.347523424478
 30
0.0
 11
-525.7832467241482
 21
-1355.347523424478
 31
0.0
  0
LINE
  5
17D
330
1F
100
AcDbEntity
  8
FISHER & PAYKEL
 62
   250
420
  1316376
370
     9
100
AcDbLine
 10
-521.9590743386365
 20
-1354.398535996708
 30
0.0
 11
-521.9590743386365
 21
-1355.347523424478
 31
0.0
  0
LINE
  5
17E
330
1F
100
AcDbEntity
  8
FISHER & PAYKEL
 62
   250
420
  1316376
370
     9
100
AcDbLine
 10
-525.7832467241482
 20
-1354.398535996708
 30
0.0
 11
-521.9590743386365
 21
-1354.398535996708
 31
0.0
  0
LINE
  5
17F
330
1F
100
AcDbEntity
  8
FISHER & PAYKEL
 62
   250
420
  1316376
370
     9
100
AcDbLine
 10
-525.7832467241482
 20
-1350.948314047418
 30
0.0
 11
-525.7832467241482
 21
-1354.398535996708
 31
0.0
  0
LINE
  5
180
330
1F
100
AcDbEntity
  8
FISHER & PAYKEL
 62
   250
420
  1316376
370
     9
100
AcDbLine
 10
-526.8310135124296
 20
-1350.948314047418
 30
0.0
 11
-525.7832467241482
 21
-1350.948314047418
 31
0.0
  0
LINE
  5
181
330
1F
100
AcDbEntity
  8
FISHER & PAYKEL
 62
   250
420
  1316376
370
     9
100
AcDbLine
 10
-526.8310135124296
 20
-1354.398535996708
 30
0.0
 11
-526.8310135124296
 21
-1350.948314047418
 31
0.0
  0
LINE
  5
182
330
1F
100
AcDbEntity
  8
FISHER & PAYKEL
 62
   250
420
  1316376
370
     9
100
AcDbLine
 10
-528.4114832806118
 20
-1354.398535996708
 30
0.0
 11
-526.8310135124296
 21
-1354.398535996708
 31
0.0
  0
LINE
  5
183
330
1F
100
AcDbEntity
  8
FISHER & PAYKEL
 62
   250
420
  1316376
370
     9
100
AcDbLine
 10
-528.4114832806118
 20
-1355.347523424478
 30
0.0
 11
-528.4114832806118
 21
-1354.398535996708
 31
0.0
  0
LINE
  5
184
330
1F
100
AcDbEntity
  8
FISHER & PAYKEL
 62
   250
420
  1316376
370
     9
100
AcDbLine
 10
-526.8310135124296
 20
-1355.347523424478
 30
0.0
 11
-528.4114832806118
 21
-1355.347523424478
 31
0.0
  0
LINE
  5
185
330
1F
100
AcDbEntity
  8
FISHER & PAYKEL
 62
   250
420
  1316376
370
     9
100
AcDbLine
 10
-526.8310135124296
 20
-1362.413775535345
 30
0.0
 11
-526.8310135124296
 21
-1355.347523424478
 31
0.0
  0
LINE
  5
186
330
1F
100
AcDbEntity
  8
FISHER & PAYKEL
 62
   250
420
  1316376
370
     9
100
AcDbLine
 10
-539.4917052625457
 20
-1359.282117023704
 30
0.0
 11
-531.5646615815075
 21
-1359.282117023704
 31
0.0
  0
SPLINE
  5
187
330
1F
100
AcDbEntity
  8
FISHER & PAYKEL
 62
   250
420
  1316376
370
     9
100
AcDbSpline
210
0.0
220
0.0
230
1.0
 70
     8
 71
     3
 72
     8
 73
     4
 74
     0
 42
0.0000000001
 43
0.0000000001
 40
1.0
 40
1.0
 40
1.0
 40
1.0
 40
2.0
 40
2.0
 40
2.0
 40
2.0
 10
-535.473501990315
 20
-1355.094577704883
 30
0.0
 10
-537.6325365843494
 20
-1355.094577704883
 30
0.0
 10
-539.2976743758269
 20
-1356.890245365607
 30
0.0
 10
-539.4917052625457
 20
-1359.282117023704
 30
0.0
  0
SPLINE
  5
188
330
1F
100
AcDbEntity
  8
FISHER & PAYKEL
 62
   250
420
  1316376
370
     9
100
AcDbSpline
210
0.0
220
0.0
230
1.0
 70
     8
 71
     3
 72
     8
 73
     4
 74
     0
 42
0.0000000001
 43
0.0000000001
 40
0.0
 40
0.0
 40
0.0
 40
0.0
 40
1.0
 40
1.0
 40
1.0
 40
1.0
 10
-531.5646615815075
 20
-1359.282117023704
 30
0.0
 10
-531.7128306222743
 20
-1357.10544325815
 30
0.0
 10
-532.9722674687945
 20
-1355.094577704883
 30
0.0
 10
-535.473501990315
 20
-1355.094577704883
 30
0.0
  0
SPLINE
  5
189
330
1F
100
AcDbEntity
  8
FISHER & PAYKEL
 62
   250
420
  1316376
370
     9
100
AcDbSpline
210
0.0
220
0.0
230
1.0
 70
     8
 71
     3
 72
     8
 73
     4
 74
     0
 42
0.0000000001
 43
0.0000000001
 40
10.84656169322476
 40
10.84656169322476
 40
10.84656169322476
 40
10.84656169322476
 40
11.84656169322476
 40
11.84656169322476
 40
11.84656169322476
 40
11.84656169322476
 10
-535.2618319320762
 20
-1365.44171571845
 30
0.0
 10
-538.122905552602
 20
-1365.44171571845
 30
0.0
 10
-540.6029730682986
 20
-1363.176846095296
 30
0.0
 10
-540.6029730682986
 20
-1359.811292169301
 30
0.0
  0
SPLINE
  5
18A
330
1F
100
AcDbEntity
  8
FISHER & PAYKEL
 62
   250
420
  1316376
370
     9
100
AcDbSpline
210
0.0
220
0.0
230
1.0
 70
     8
 71
     3
 72
     8
 73
     4
 74
     0
 42
0.0000000001
 43
0.0000000001
 40
9.84656169322476
 40
9.84656169322476
 40
9.84656169322476
 40
9.84656169322476
 40
10.84656169322476
 40
10.84656169322476
 40
10.84656169322476
 40
10.84656169322476
 10
-530.7532596915925
 20
-1363.409683159359
 30
0.0
 10
-531.8609996630415
 20
-1364.595035485495
 30
0.0
 10
-533.1662983555133
 20
-1365.44171571845
 30
0.0
 10
-535.2618319320762
 20
-1365.44171571845
 30
0.0
  0
LINE
  5
18B
330
1F
100
AcDbEntity
  8
FISHER & PAYKEL
 62
   250
420
  1316376
370
     9
100
AcDbLine
 10
-531.479993558212
 20
-1362.774672984643
 30
0.0
 11
-530.7532596915925
 21
-1363.409683159359
 31
0.0
  0
SPLINE
  5
18C
330
1F
100
AcDbEntity
  8
FISHER & PAYKEL
 62
   250
420
  1316376
370
     9
100
AcDbSpline
210
0.0
220
0.0
230
1.0
 70
     8
 71
     3
 72
     8
 73
     4
 74
     0
 42
0.0000000001
 43
0.0000000001
 40
8.572999999999979
 40
8.572999999999979
 40
8.572999999999979
 40
8.572999999999979
 40
9.572999999999979
 40
9.572999999999979
 40
9.572999999999979
 40
9.572999999999979
 10
-535.2159700861247
 20
-1364.468033450552
 30
0.0
 10
-533.5296652888231
 20
-1364.468033450552
 30
0.0
 10
-532.3725356371182
 20
-1363.727188246717
 30
0.0
 10
-531.479993558212
 20
-1362.774672984643
 30
0.0
  0
SPLINE
  5
18D
330
1F
100
AcDbEntity
  8
FISHER & PAYKEL
 62
   250
420
  1316376
370
     9
100
AcDbSpline
210
0.0
220
0.0
230
1.0
 70
     8
 71
     3
 72
     8
 73
     4
 74
     0
 42
0.0000000001
 43
0.0000000001
 40
7.572999999999979
 40
7.572999999999979
 40
7.572999999999979
 40
7.572999999999979
 40
8.572999999999979
 40
8.572999999999979
 40
8.572999999999979
 40
8.572999999999979
 10
-539.4917052625457
 20
-1360.216993114258
 30
0.0
 10
-539.2976743758269
 20
-1362.898147185282
 30
0.0
 10
-537.357365508639
 20
-1364.468033450552
 30
0.0
 10
-535.2159700861247
 20
-1364.468033450552
 30
0.0
  0
LINE
  5
18E
330
1F
100
AcDbEntity
  8
FISHER & PAYKEL
 62
   250
420
  1316376
370
     9
100
AcDbLine
 10
-530.4533937757545
 20
-1360.216993114258
 30
0.0
 11
-539.4917052625457
 21
-1360.216993114258
 31
0.0
  0
SPLINE
  5
18F
330
1F
100
AcDbEntity
  8
FISHER & PAYKEL
 62
   250
420
  1316376
370
     9
100
AcDbSpline
210
0.0
220
0.0
230
1.0
 70
     8
 71
     3
 72
     8
 73
     4
 74
     0
 42
0.0000000001
 43
0.0000000001
 40
4.010999999999967
 40
4.010999999999967
 40
4.010999999999967
 40
4.010999999999967
 40
5.010999999999967
 40
5.010999999999967
 40
5.010999999999967
 40
5.010999999999967
 10
-530.4322267699305
 20
-1359.793652997781
 30
0.0
 10
-530.4322267699305
 20
-1359.980628215892
 30
0.0
 10
-530.4322267699305
 20
-1360.047657067667
 30
0.0
 10
-530.4533937757545
 20
-1360.216993114258
 30
0.0
  0
SPLINE
  5
190
330
1F
100
AcDbEntity
  8
FISHER & PAYKEL
 62
   250
420
  1316376
370
     9
100
AcDbSpline
210
0.0
220
0.0
230
1.0
 70
     8
 71
     3
 72
     8
 73
     4
 74
     0
 42
0.0000000001
 43
0.0000000001
 40
3.010999999999967
 40
3.010999999999967
 40
3.010999999999967
 40
3.010999999999967
 40
4.010999999999967
 40
4.010999999999967
 40
4.010999999999967
 40
4.010999999999967
 10
-535.4311679786671
 20
-1354.142062442809
 30
0.0
 10
-532.3725356371182
 20
-1354.142062442809
 30
0.0
 10
-530.4322267699305
 20
-1356.597435118377
 30
0.0
 10
-530.4322267699305
 20
-1359.793652997781
 30
0.0
  0
SPLINE
  5
191
330
1F
100
AcDbEntity
  8
FISHER & PAYKEL
 62
   250
420
  1316376
370
     9
100
AcDbSpline
210
0.0
220
0.0
230
1.0
 70
     8
 71
     3
 72
     8
 73
     4
 74
     0
 42
0.0000000001
 43
0.0000000001
 40
2.010999999999967
 40
2.010999999999967
 40
2.010999999999967
 40
2.010999999999967
 40
3.010999999999967
 40
3.010999999999967
 40
3.010999999999967
 40
3.010999999999967
 10
-540.6029730682986
 20
-1359.772485991957
 30
0.0
 10
-540.6029730682986
 20
-1356.639769130025
 30
0.0
 10
-538.3804374567927
 20
-1354.142062442809
 30
0.0
 10
-535.4311679786671
 20
-1354.142062442809
 30
0.0
  0
LINE
  5
192
330
1F
100
AcDbEntity
  8
FISHER & PAYKEL
 62
   250
420
  1316376
370
     9
100
AcDbLine
 10
-540.6029730682986
 20
-1359.811292169301
 30
0.0
 11
-540.6029730682986
 21
-1359.772485991957
 31
0.0
  0
LINE
  5
193
330
1F
100
AcDbEntity
  8
FISHER & PAYKEL
 62
   250
420
  1316376
370
     9
100
AcDbLine
 10
-560.1387083100063
 20
-1365.188417215424
 30
0.0
 11
-560.1387083100063
 21
-1354.396772079556
 31
0.0
  0
LINE
  5
194
330
1F
100
AcDbEntity
  8
FISHER & PAYKEL
 62
   250
420
  1316376
370
     9
100
AcDbLine
 10
-559.0909415217249
 20
-1365.188417215424
 30
0.0
 11
-560.1387083100063
 21
-1365.188417215424
 31
0.0
  0
LINE
  5
195
330
1F
100
AcDbEntity
  8
FISHER & PAYKEL
 62
   250
420
  1316376
370
     9
100
AcDbLine
 10
-559.0909415217249
 20
-1358.965317503207
 30
0.0
 11
-559.0909415217249
 21
-1365.188417215424
 31
0.0
  0
SPLINE
  5
196
330
1F
100
AcDbEntity
  8
FISHER & PAYKEL
 62
   250
420
  1316376
370
     9
100
AcDbSpline
210
0.0
220
0.0
230
1.0
 70
     8
 71
     3
 72
     8
 73
     4
 74
     0
 42
0.0000000001
 43
0.0000000001
 40
15.72500000000014
 40
15.72500000000014
 40
15.72500000000014
 40
15.72500000000014
 40
16.72500000000014
 40
16.72500000000014
 40
16.72500000000014
 40
16.72500000000014
 10
-555.608969063699
 20
-1355.095283271743
 30
0.0
 10
-557.5528057651906
 20
-1355.095283271743
 30
0.0
 10
-559.0909415217249
 20
-1356.788643737653
 30
0.0
 10
-559.0909415217249
 20
-1358.965317503207
 30
0.0
  0
SPLINE
  5
197
330
1F
100
AcDbEntity
  8
FISHER & PAYKEL
 62
   250
420
  1316376
370
     9
100
AcDbSpline
210
0.0
220
0.0
230
1.0
 70
     8
 71
     3
 72
     8
 73
     4
 74
     0
 42
0.0000000001
 43
0.0000000001
 40
14.72500000000014
 40
14.72500000000014
 40
14.72500000000014
 40
14.72500000000014
 40
15.72500000000014
 40
15.72500000000014
 40
15.72500000000014
 40
15.72500000000014
 10
-552.4233346872069
 20
-1358.714841267625
 30
0.0
 10
-552.4233346872069
 20
-1356.471138650295
 30
0.0
 10
-553.661604527903
 20
-1355.095283271743
 30
0.0
 10
-555.608969063699
 20
-1355.095283271743
 30
0.0
  0
LINE
  5
198
330
1F
100
AcDbEntity
  8
FISHER & PAYKEL
 62
   250
420
  1316376
370
     9
100
AcDbLine
 10
-552.4233346872069
 20
-1365.188417215424
 30
0.0
 11
-552.4233346872069
 21
-1358.714841267625
 31
0.0
  0
LINE
  5
199
330
1F
100
AcDbEntity
  8
FISHER & PAYKEL
 62
   250
420
  1316376
370
     9
100
AcDbLine
 10
-551.3790957332293
 20
-1365.188417215424
 30
0.0
 11
-552.4233346872069
 21
-1365.188417215424
 31
0.0
  0
LINE
  5
19A
330
1F
100
AcDbEntity
  8
FISHER & PAYKEL
 62
   250
420
  1316376
370
     9
100
AcDbLine
 10
-551.3790957332293
 20
-1358.901816485736
 30
0.0
 11
-551.3790957332293
 21
-1365.188417215424
 31
0.0
  0
SPLINE
  5
19B
330
1F
100
AcDbEntity
  8
FISHER & PAYKEL
 62
   250
420
  1316376
370
     9
100
AcDbSpline
210
0.0
220
0.0
230
1.0
 70
     8
 71
     3
 72
     8
 73
     4
 74
     0
 42
0.0000000001
 43
0.0000000001
 40
9.812000000000069
 40
9.812000000000069
 40
9.812000000000069
 40
9.812000000000069
 40
10.81200000000007
 40
10.81200000000007
 40
10.81200000000007
 40
10.81200000000007
 10
-547.9359294525469
 20
-1355.095283271743
 30
0.0
 10
-549.7739311249194
 20
-1355.095283271743
 30
0.0
 10
-551.3790957332293
 20
-1356.492305656119
 30
0.0
 10
-551.3790957332293
 20
-1358.901816485736
 30
0.0
  0
SPLINE
  5
19C
330
1F
100
AcDbEntity
  8
FISHER & PAYKEL
 62
   250
420
  1316376
370
     9
100
AcDbSpline
210
0.0
220
0.0
230
1.0
 70
     8
 71
     3
 72
     8
 73
     4
 74
     0
 42
0.0000000001
 43
0.0000000001
 40
8.812000000000069
 40
8.812000000000069
 40
8.812000000000069
 40
8.812000000000069
 40
9.812000000000069
 40
9.812000000000069
 40
9.812000000000069
 40
9.812000000000069
 10
-544.7079610644072
 20
-1358.774814450792
 30
0.0
 10
-544.7079610644072
 20
-1356.449971644471
 30
0.0
 10
-545.9285917335836
 20
-1355.095283271743
 30
0.0
 10
-547.9359294525469
 20
-1355.095283271743
 30
0.0
  0
LINE
  5
19D
330
1F
100
AcDbEntity
  8
FISHER & PAYKEL
 62
   250
420
  1316376
370
     9
100
AcDbLine
 10
-544.7079610644072
 20
-1365.188417215424
 30
0.0
 11
-544.7079610644072
 21
-1358.774814450792
 31
0.0
  0
LINE
  5
19E
330
1F
100
AcDbEntity
  8
FISHER & PAYKEL
 62
   250
420
  1316376
370
     9
100
AcDbLine
 10
-543.6601942761259
 20
-1365.188417215424
 30
0.0
 11
-544.7079610644072
 21
-1365.188417215424
 31
0.0
  0
LINE
  5
19F
330
1F
100
AcDbEntity
  8
FISHER & PAYKEL
 62
   250
420
  1316376
370
     9
100
AcDbLine
 10
-543.6601942761259
 20
-1358.647812415849
 30
0.0
 11
-543.6601942761259
 21
-1365.188417215424
 31
0.0
  0
SPLINE
  5
1A0
330
1F
100
AcDbEntity
  8
FISHER & PAYKEL
 62
   250
420
  1316376
370
     9
100
AcDbSpline
210
0.0
220
0.0
230
1.0
 70
     8
 71
     3
 72
     8
 73
     4
 74
     0
 42
0.0000000001
 43
0.0000000001
 40
3.843000000000018
 40
3.843000000000018
 40
3.843000000000018
 40
3.843000000000018
 40
4.843000000000018
 40
4.843000000000018
 40
4.843000000000018
 40
4.843000000000018
 10
-547.8512614292516
 20
-1354.142768009669
 30
0.0
 10
-545.261831050132
 20
-1354.142768009669
 30
0.0
 10
-543.6601942761259
 20
-1355.938435670394
 30
0.0
 10
-543.6601942761259
 20
-1358.647812415849
 30
0.0
  0
SPLINE
  5
1A1
330
1F
100
AcDbEntity
  8
FISHER & PAYKEL
 62
   250
420
  1316376
370
     9
100
AcDbSpline
210
0.0
220
0.0
230
1.0
 70
     8
 71
     3
 72
     8
 73
     4
 74
     0
 42
0.0000000001
 43
0.0000000001
 40
2.843000000000018
 40
2.843000000000018
 40
2.843000000000018
 40
2.843000000000018
 40
3.843000000000018
 40
3.843000000000018
 40
3.843000000000018
 40
3.843000000000018
 10
-551.7812688438829
 20
-1356.471138650295
 30
0.0
 10
-551.0792298173914
 20
-1355.264619318334
 30
0.0
 10
-549.9044609941667
 20
-1354.142768009669
 30
0.0
 10
-547.8512614292516
 20
-1354.142768009669
 30
0.0
  0
SPLINE
  5
1A2
330
1F
100
AcDbEntity
  8
FISHER & PAYKEL
 62
   250
420
  1316376
370
     9
100
AcDbSpline
210
0.0
220
0.0
230
1.0
 70
     8
 71
     3
 72
     8
 73
     4
 74
     0
 42
0.0000000001
 43
0.0000000001
 40
1.843000000000018
 40
1.843000000000018
 40
1.843000000000018
 40
1.843000000000018
 40
2.843000000000018
 40
2.843000000000018
 40
2.843000000000018
 40
2.843000000000018
 10
-555.4572721886278
 20
-1354.142768009669
 30
0.0
 10
-553.5557694987837
 20
-1354.142768009669
 30
0.0
 10
-552.381000675559
 20
-1355.222285306686
 30
0.0
 10
-551.7812688438829
 20
-1356.471138650295
 30
0.0
  0
SPLINE
  5
1A3
330
1F
100
AcDbEntity
  8
FISHER & PAYKEL
 62
   250
420
  1316376
370
     9
100
AcDbSpline
210
0.0
220
0.0
230
1.0
 70
     8
 71
     3
 72
     8
 73
     4
 74
     0
 42
0.0000000001
 43
0.0000000001
 40
0.8430000000000177
 40
0.8430000000000177
 40
0.8430000000000177
 40
0.8430000000000177
 40
1.843000000000018
 40
1.843000000000018
 40
1.843000000000018
 40
1.843000000000018
 10
-559.0909415217249
 20
-1356.322969609528
 30
0.0
 10
-558.3853746609292
 20
-1355.204646135167
 30
0.0
 10
-557.4046367244238
 20
-1354.142768009669
 30
0.0
 10
-555.4572721886278
 20
-1354.142768009669
 30
0.0
  0
LINE
  5
1A4
330
1F
100
AcDbEntity
  8
FISHER & PAYKEL
 62
   250
420
  1316376
370
     9
100
AcDbLine
 10
-559.0909415217249
 20
-1354.396772079556
 30
0.0
 11
-559.0909415217249
 21
-1356.322969609528
 31
0.0
  0
LINE
  5
1A5
330
1F
100
AcDbEntity
  8
FISHER & PAYKEL
 62
   250
420
  1316376
370
     9
100
AcDbLine
 10
-560.1387083100063
 20
-1354.396772079556
 30
0.0
 11
-559.0909415217249
 21
-1354.396772079556
 31
0.0
  0
POLYLINE
  5
1A6
330
1F
100
AcDbEntity
  8
FISHER & PAYKEL
 62
   250
420
  1316376
370
     9
100
AcDb2dPolyline
 66
     1
 10
0.0
 20
0.0
 30
0.0
 70
     1
  0
VERTEX
  5
1A7
330
1A6
100
AcDbEntity
  8
FISHER & PAYKEL
 62
   250
420
  1316376
370
     9
100
AcDbVertex
100
AcDb2dVertex
 10
-565.2829962920667
 20
-1354.397477646417
 30
0.0
  0
VERTEX
  5
1A8
330
1A6
100
AcDbEntity
  8
FISHER & PAYKEL
 62
   250
420
  1316376
370
     9
100
AcDbVertex
100
AcDb2dVertex
 10
-564.2352295037853
 20
-1354.397477646417
 30
0.0
  0
VERTEX
  5
1A9
330
1A6
100
AcDbEntity
  8
FISHER & PAYKEL
 62
   250
420
  1316376
370
     9
100
AcDbVertex
100
AcDb2dVertex
 10
-564.2352295037853
 20
-1365.189122782285
 30
0.0
  0
VERTEX
  5
1AA
330
1A6
100
AcDbEntity
  8
FISHER & PAYKEL
 62
   250
420
  1316376
370
     9
100
AcDbVertex
100
AcDb2dVertex
 10
-565.2829962920667
 20
-1365.189122782285
 30
0.0
  0
SEQEND
  5
1AB
330
1A6
100
AcDbEntity
  8
FISHER & PAYKEL
 62
   250
420
  1316376
370
     9
  0
POLYLINE
  5
1AC
330
1F
100
AcDbEntity
  8
FISHER & PAYKEL
 62
   250
420
  1316376
370
     9
100
AcDb2dPolyline
 66
     1
 10
0.0
 20
0.0
 30
0.0
 70
     1
  0
VERTEX
  5
1AD
330
1AC
100
AcDbEntity
  8
FISHER & PAYKEL
 62
   250
420
  1316376
370
     9
100
AcDbVertex
100
AcDb2dVertex
 10
-565.4099983270099
 20
-1350.167604315947
 30
0.0
  0
VERTEX
  5
1AE
330
1AC
100
AcDbEntity
  8
FISHER & PAYKEL
 62
   250
420
  1316376
370
     9
100
AcDbVertex
100
AcDb2dVertex
 10
-564.1082274688421
 20
-1350.167604315947
 30
0.0
  0
VERTEX
  5
1AF
330
1AC
100
AcDbEntity
  8
FISHER & PAYKEL
 62
   250
420
  1316376
370
     9
100
AcDbVertex
100
AcDb2dVertex
 10
-564.1082274688421
 20
-1351.582265871843
 30
0.0
  0
VERTEX
  5
1B0
330
1AC
100
AcDbEntity
  8
FISHER & PAYKEL
 62
   250
420
  1316376
370
     9
100
AcDbVertex
100
AcDb2dVertex
 10
-565.4099983270099
 20
-1351.582265871843
 30
0.0
  0
SEQEND
  5
1B1
330
1AC
100
AcDbEntity
  8
FISHER & PAYKEL
 62
   250
420
  1316376
370
     9
  0
POLYLINE
  5
1B2
330
1F
100
AcDbEntity
  8
FISHER & PAYKEL
 62
   250
420
  1316376
370
     9
100
AcDb2dPolyline
 66
     1
 10
0.0
 20
0.0
 30
0.0
 70
     1
  0
VERTEX
  5
1B3
330
1B2
100
AcDbEntity
  8
FISHER & PAYKEL
 62
   250
420
  1316376
370
     9
100
AcDbVertex
100
AcDb2dVertex
 10
-570.5782755823376
 20
-1349.740736365166
 30
0.0
  0
VERTEX
  5
1B4
330
1B2
100
AcDbEntity
  8
FISHER & PAYKEL
 62
   250
420
  1316376
370
     9
100
AcDbVertex
100
AcDb2dVertex
 10
-569.5305087940559
 20
-1349.740736365166
 30
0.0
  0
VERTEX
  5
1B5
330
1B2
100
AcDbEntity
  8
FISHER & PAYKEL
 62
   250
420
  1316376
370
     9
100
AcDbVertex
100
AcDb2dVertex
 10
-569.5305087940559
 20
-1365.185594947981
 30
0.0
  0
VERTEX
  5
1B6
330
1B2
100
AcDbEntity
  8
FISHER & PAYKEL
 62
   250
420
  1316376
370
     9
100
AcDbVertex
100
AcDb2dVertex
 10
-570.5782755823376
 20
-1365.185594947981
 30
0.0
  0
SEQEND
  5
1B7
330
1B2
100
AcDbEntity
  8
FISHER & PAYKEL
 62
   250
420
  1316376
370
     9
  0
POLYLINE
  5
1B8
330
1F
100
AcDbEntity
  8
FISHER & PAYKEL
 62
   250
420
  1316376
370
     9
100
AcDb2dPolyline
 66
     1
 10
0.0
 20
0.0
 30
0.0
 70
     1
  0
VERTEX
  5
1B9
330
1B8
100
AcDbEntity
  8
FISHER & PAYKEL
 62
   250
420
  1316376
370
     9
100
AcDbVertex
100
AcDb2dVertex
 10
-575.8735548726082
 20
-1349.740736365166
 30
0.0
  0
VERTEX
  5
1BA
330
1B8
100
AcDbEntity
  8
FISHER & PAYKEL
 62
   250
420
  1316376
370
     9
100
AcDbVertex
100
AcDb2dVertex
 10
-574.8257880843267
 20
-1349.740736365166
 30
0.0
  0
VERTEX
  5
1BB
330
1B8
100
AcDbEntity
  8
FISHER & PAYKEL
 62
   250
420
  1316376
370
     9
100
AcDbVertex
100
AcDb2dVertex
 10
-574.8257880843267
 20
-1365.185594947981
 30
0.0
  0
VERTEX
  5
1BC
330
1B8
100
AcDbEntity
  8
FISHER & PAYKEL
 62
   250
420
  1316376
370
     9
100
AcDbVertex
100
AcDb2dVertex
 10
-575.8735548726082
 20
-1365.185594947981
 30
0.0
  0
SEQEND
  5
1BD
330
1B8
100
AcDbEntity
  8
FISHER & PAYKEL
 62
   250
420
  1316376
370
     9
  0
POLYLINE
  5
1BE
330
1F
100
AcDbEntity
  8
FISHER & PAYKEL
 62
   250
420
  1316376
370
     9
100
AcDb2dPolyline
 66
     1
 10
0.0
 20
0.0
 30
0.0
 70
     1
  0
VERTEX
  5
1BF
330
1BE
100
AcDbEntity
  8
FISHER & PAYKEL
 62
   250
420
  1316376
370
     9
100
AcDbVertex
100
AcDb2dVertex
 10
-581.165306328575
 20
-1354.397477646417
 30
0.0
  0
VERTEX
  5
1C0
330
1BE
100
AcDbEntity
  8
FISHER & PAYKEL
 62
   250
420
  1316376
370
     9
100
AcDbVertex
100
AcDb2dVertex
 10
-580.1175395402935
 20
-1354.397477646417
 30
0.0
  0
VERTEX
  5
1C1
330
1BE
100
AcDbEntity
  8
FISHER & PAYKEL
 62
   250
420
  1316376
370
     9
100
AcDbVertex
100
AcDb2dVertex
 10
-580.1175395402935
 20
-1365.189122782285
 30
0.0
  0
VERTEX
  5
1C2
330
1BE
100
AcDbEntity
  8
FISHER & PAYKEL
 62
   250
420
  1316376
370
     9
100
AcDbVertex
100
AcDb2dVertex
 10
-581.165306328575
 20
-1365.189122782285
 30
0.0
  0
SEQEND
  5
1C3
330
1BE
100
AcDbEntity
  8
FISHER & PAYKEL
 62
   250
420
  1316376
370
     9
  0
POLYLINE
  5
1C4
330
1F
100
AcDbEntity
  8
FISHER & PAYKEL
 62
   250
420
  1316376
370
     9
100
AcDb2dPolyline
 66
     1
 10
0.0
 20
0.0
 30
0.0
 70
     1
  0
VERTEX
  5
1C5
330
1C4
100
AcDbEntity
  8
FISHER & PAYKEL
 62
   250
420
  1316376
370
     9
100
AcDbVertex
100
AcDb2dVertex
 10
-581.2958361978223
 20
-1350.167604315947
 30
0.0
  0
VERTEX
  5
1C6
330
1C4
100
AcDbEntity
  8
FISHER & PAYKEL
 62
   250
420
  1316376
370
     9
100
AcDbVertex
100
AcDb2dVertex
 10
-579.9905375053503
 20
-1350.167604315947
 30
0.0
  0
VERTEX
  5
1C7
330
1C4
100
AcDbEntity
  8
FISHER & PAYKEL
 62
   250
420
  1316376
370
     9
100
AcDbVertex
100
AcDb2dVertex
 10
-579.9905375053503
 20
-1351.582265871843
 30
0.0
  0
VERTEX
  5
1C8
330
1C4
100
AcDbEntity
  8
FISHER & PAYKEL
 62
   250
420
  1316376
370
     9
100
AcDbVertex
100
AcDb2dVertex
 10
-581.2958361978223
 20
-1351.582265871843
 30
0.0
  0
SEQEND
  5
1C9
330
1C4
100
AcDbEntity
  8
FISHER & PAYKEL
 62
   250
420
  1316376
370
     9
  0
POLYLINE
  5
1CA
330
1F
100
AcDbEntity
  8
FISHER & PAYKEL
 62
   250
420
  1316376
370
     9
100
AcDb2dPolyline
 66
     1
 10
0.0
 20
0.0
 30
0.0
 70
     1
  0
VERTEX
  5
1CB
330
1CA
100
AcDbEntity
  8
FISHER & PAYKEL
 62
   250
420
  1316376
370
     9
100
AcDbVertex
100
AcDb2dVertex
 10
-599.5925960319729
 20
-1350.376099323312
 30
0.0
  0
VERTEX
  5
1CC
330
1CA
100
AcDbEntity
  8
FISHER & PAYKEL
 62
   250
420
  1316376
370
     9
100
AcDbVertex
100
AcDb2dVertex
 10
-598.5448292436914
 20
-1350.376099323312
 30
0.0
  0
VERTEX
  5
1CD
330
1CA
100
AcDbEntity
  8
FISHER & PAYKEL
 62
   250
420
  1316376
370
     9
100
AcDbVertex
100
AcDb2dVertex
 10
-592.540455258321
 20
-1359.13571190009
 30
0.0
  0
VERTEX
  5
1CE
330
1CA
100
AcDbEntity
  8
FISHER & PAYKEL
 62
   250
420
  1316376
370
     9
100
AcDbVertex
100
AcDb2dVertex
 10
-586.5360812729506
 20
-1350.376099323312
 30
0.0
  0
VERTEX
  5
1CF
330
1CA
100
AcDbEntity
  8
FISHER & PAYKEL
 62
   250
420
  1316376
370
     9
100
AcDbVertex
100
AcDb2dVertex
 10
-585.4883144846693
 20
-1350.376099323312
 30
0.0
  0
VERTEX
  5
1D0
330
1CA
100
AcDbEntity
  8
FISHER & PAYKEL
 62
   250
420
  1316376
370
     9
100
AcDbVertex
100
AcDb2dVertex
 10
-585.4883144846693
 20
-1365.185947731411
 30
0.0
  0
VERTEX
  5
1D1
330
1CA
100
AcDbEntity
  8
FISHER & PAYKEL
 62
   250
420
  1316376
370
     9
100
AcDbVertex
100
AcDb2dVertex
 10
-586.5960544561184
 20
-1365.185947731411
 30
0.0
  0
VERTEX
  5
1D2
330
1CA
100
AcDbEntity
  8
FISHER & PAYKEL
 62
   250
420
  1316376
370
     9
100
AcDbVertex
100
AcDb2dVertex
 10
-586.5960544561184
 20
-1352.323463859108
 30
0.0
  0
VERTEX
  5
1D3
330
1CA
100
AcDbEntity
  8
FISHER & PAYKEL
 62
   250
420
  1316376
370
     9
100
AcDbVertex
100
AcDb2dVertex
 10
-592.5157604181933
 20
-1360.850239371823
 30
0.0
  0
VERTEX
  5
1D4
330
1CA
100
AcDbEntity
  8
FISHER & PAYKEL
 62
   250
420
  1316376
370
     9
100
AcDbVertex
100
AcDb2dVertex
 10
-592.6039562757927
 20
-1360.850239371823
 30
0.0
  0
VERTEX
  5
1D5
330
1CA
100
AcDbEntity
  8
FISHER & PAYKEL
 62
   250
420
  1316376
370
     9
100
AcDbVertex
100
AcDb2dVertex
 10
-598.5201344035637
 20
-1352.323463859108
 30
0.0
  0
VERTEX
  5
1D6
330
1CA
100
AcDbEntity
  8
FISHER & PAYKEL
 62
   250
420
  1316376
370
     9
100
AcDbVertex
100
AcDb2dVertex
 10
-598.5201344035637
 20
-1365.185947731411
 30
0.0
  0
VERTEX
  5
1D7
330
1CA
100
AcDbEntity
  8
FISHER & PAYKEL
 62
   250
420
  1316376
370
     9
100
AcDbVertex
100
AcDb2dVertex
 10
-599.5925960319729
 20
-1365.185947731411
 30
0.0
  0
SEQEND
  5
1D8
330
1CA
100
AcDbEntity
  8
FISHER & PAYKEL
 62
   250
420
  1316376
370
     9
  0
SPLINE
  5
1D9
330
1F
100
AcDbEntity
  8
FISHER & PAYKEL
 62
   250
420
  1316376
370
     9
100
AcDbSpline
210
0.0
220
0.0
230
1.0
 70
     8
 71
     3
 72
     8
 73
     4
 74
     0
 42
0.0000000001
 43
0.0000000001
 40
3.024000000000001
 40
3.024000000000001
 40
3.024000000000001
 40
3.024000000000001
 40
4.024000000000001
 40
4.024000000000001
 40
4.024000000000001
 40
4.024000000000001
 10
-1014.572097992317
 20
-1315.19124389259
 30
0.0
 10
-1011.474659473424
 20
-1315.19124389259
 30
0.0
 10
-1009.551989777756
 20
-1311.998553847489
 30
0.0
 10
-1009.551989777756
 20
-1308.569498904023
 30
0.0
  0
SPLINE
  5
1DA
330
1F
100
AcDbEntity
  8
FISHER & PAYKEL
 62
   250
420
  1316376
370
     9
100
AcDbSpline
210
0.0
220
0.0
230
1.0
 70
     8
 71
     3
 72
     8
 73
     4
 74
     0
 42
0.0000000001
 43
0.0000000001
 40
2.024000000000001
 40
2.024000000000001
 40
2.024000000000001
 40
2.024000000000001
 40
3.024000000000001
 40
3.024000000000001
 40
3.024000000000001
 40
3.024000000000001
 10
-1019.638068052829
 20
-1308.527164892375
 30
0.0
 10
-1019.638068052829
 20
-1311.952692001538
 30
0.0
 10
-1017.673064345513
 20
-1315.19124389259
 30
0.0
 10
-1014.572097992317
 20
-1315.19124389259
 30
0.0
  0
LINE
  5
1DB
330
1F
100
AcDbEntity
  8
FISHER & PAYKEL
 62
   250
420
  1316376
370
     9
100
AcDbLine
 10
-1019.638068052829
 20
-1308.484830880728
 30
0.0
 11
-1019.638068052829
 21
-1308.527164892375
 31
0.0
  0
SPLINE
  5
1DC
330
1F
100
AcDbEntity
  8
FISHER & PAYKEL
 62
   250
420
  1316376
370
     9
100
AcDbSpline
210
0.0
220
0.0
230
1.0
 70
     8
 71
     3
 72
     8
 73
     4
 74
     0
 42
0.0000000001
 43
0.0000000001
 40
1.012
 40
1.012
 40
1.012
 40
1.012
 40
2.012
 40
2.012
 40
2.012
 40
2.012
 10
-1014.617959838269
 20
-1301.863085892161
 30
0.0
 10
-1017.711870522857
 20
-1301.863085892161
 30
0.0
 10
-1019.638068052829
 20
-1305.038136765741
 30
0.0
 10
-1019.638068052829
 20
-1308.484830880728
 30
0.0
  0
SPLINE
  5
1DD
330
1F
100
AcDbEntity
  8
FISHER & PAYKEL
 62
   250
420
  1316376
370
     9
100
AcDbSpline
210
0.0
220
0.0
230
1.0
 70
     8
 71
     3
 72
     8
 73
     4
 74
     0
 42
0.0000000001
 43
0.0000000001
 40
0.0120000000000005
 40
0.0120000000000005
 40
0.0120000000000005
 40
0.0120000000000005
 40
1.012
 40
1.012
 40
1.012
 40
1.012
 10
-1009.551989777756
 20
-1308.527164892375
 30
0.0
 10
-1009.551989777756
 20
-1305.080470777389
 30
0.0
 10
-1011.516993485072
 20
-1301.863085892161
 30
0.0
 10
-1014.617959838269
 20
-1301.863085892161
 30
0.0
  0
LINE
  5
1DE
330
1F
100
AcDbEntity
  8
FISHER & PAYKEL
 62
   250
420
  1316376
370
     9
100
AcDbLine
 10
-1009.551989777756
 20
-1308.569498904023
 30
0.0
 11
-1009.551989777756
 21
-1308.527164892375
 31
0.0
  0
SPLINE
  5
1DF
330
1F
100
AcDbEntity
  8
FISHER & PAYKEL
 62
   250
420
  1316376
370
     9
100
AcDbSpline
210
0.0
220
0.0
230
1.0
 70
     8
 71
     3
 72
     8
 73
     4
 74
     0
 42
0.0000000001
 43
0.0000000001
 40
5.024000000000001
 40
5.024000000000001
 40
5.024000000000001
 40
5.024000000000001
 40
6.024000000000001
 40
6.024000000000001
 40
6.024000000000001
 40
6.024000000000001
 10
-1014.617959838269
 20
-1316.186093166311
 30
0.0
 10
-1018.420965217957
 20
-1316.186093166311
 30
0.0
 10
-1020.795197704534
 20
-1312.651203193725
 30
0.0
 10
-1020.795197704534
 20
-1308.569498904023
 30
0.0
  0
SPLINE
  5
1E0
330
1F
100
AcDbEntity
  8
FISHER & PAYKEL
 62
   250
420
  1316376
370
     9
100
AcDbSpline
210
0.0
220
0.0
230
1.0
 70
     8
 71
     3
 72
     8
 73
     4
 74
     0
 42
0.0000000001
 43
0.0000000001
 40
4.024000000000001
 40
4.024000000000001
 40
4.024000000000001
 40
4.024000000000001
 40
5.024000000000001
 40
5.024000000000001
 40
5.024000000000001
 40
5.024000000000001
 10
-1008.398387960356
 20
-1308.527164892375
 30
0.0
 10
-1008.398387960356
 20
-1312.612397016382
 30
0.0
 10
-1010.811426624277
 20
-1316.186093166311
 30
0.0
 10
-1014.617959838269
 20
-1316.186093166311
 30
0.0
  0
LINE
  5
1E1
330
1F
100
AcDbEntity
  8
FISHER & PAYKEL
 62
   250
420
  1316376
370
     9
100
AcDbLine
 10
-1008.398387960356
 20
-1308.484830880728
 30
0.0
 11
-1008.398387960356
 21
-1308.527164892375
 31
0.0
  0
SPLINE
  5
1E2
330
1F
100
AcDbEntity
  8
FISHER & PAYKEL
 62
   250
420
  1316376
370
     9
100
AcDbSpline
210
0.0
220
0.0
230
1.0
 70
     8
 71
     3
 72
     8
 73
     4
 74
     0
 42
0.0000000001
 43
0.0000000001
 40
3.012
 40
3.012
 40
3.012
 40
3.012
 40
4.012
 40
4.012
 40
4.012
 40
4.012
 10
-1014.572097992317
 20
-1300.868236618439
 30
0.0
 10
-1010.769092612629
 20
-1300.868236618439
 30
0.0
 10
-1008.398387960356
 20
-1304.399598756721
 30
0.0
 10
-1008.398387960356
 20
-1308.484830880728
 30
0.0
  0
SPLINE
  5
1E3
330
1F
100
AcDbEntity
  8
FISHER & PAYKEL
 62
   250
420
  1316376
370
     9
100
AcDbSpline
210
0.0
220
0.0
230
1.0
 70
     8
 71
     3
 72
     8
 73
     4
 74
     0
 42
0.0000000001
 43
0.0000000001
 40
2.012
 40
2.012
 40
2.012
 40
2.012
 40
3.012
 40
3.012
 40
3.012
 40
3.012
 10
-1020.795197704534
 20
-1308.527164892375
 30
0.0
 10
-1020.795197704534
 20
-1304.445460602673
 30
0.0
 10
-1018.378631206309
 20
-1300.868236618439
 30
0.0
 10
-1014.572097992317
 20
-1300.868236618439
 30
0.0
  0
LINE
  5
1E4
330
1F
100
AcDbEntity
  8
FISHER & PAYKEL
 62
   250
420
  1316376
370
     9
100
AcDbLine
 10
-1020.795197704534
 20
-1308.569498904023
 30
0.0
 11
-1020.795197704534
 21
-1308.527164892375
 31
0.0
  0
SPLINE
  5
1E5
330
1F
100
AcDbEntity
  8
FISHER & PAYKEL
 62
   250
420
  1316376
370
     9
100
AcDbSpline
210
0.0
220
0.0
230
1.0
 70
     8
 71
     3
 72
     8
 73
     4
 74
     0
 42
0.0000000001
 43
0.0000000001
 40
3.024000000000001
 40
3.024000000000001
 40
3.024000000000001
 40
3.024000000000001
 40
4.024000000000001
 40
4.024000000000001
 40
4.024000000000001
 40
4.024000000000001
 10
-599.9206846222427
 20
-1315.19124389259
 30
0.0
 10
-596.8197182690463
 20
-1315.19124389259
 30
0.0
 10
-594.8970485733786
 20
-1311.998553847489
 30
0.0
 10
-594.8970485733786
 20
-1308.569498904023
 30
0.0
  0
SPLINE
  5
1E6
330
1F
100
AcDbEntity
  8
FISHER & PAYKEL
 62
   250
420
  1316376
370
     9
100
AcDbSpline
210
0.0
220
0.0
230
1.0
 70
     8
 71
     3
 72
     8
 73
     4
 74
     0
 42
0.0000000001
 43
0.0000000001
 40
2.024000000000001
 40
2.024000000000001
 40
2.024000000000001
 40
2.024000000000001
 40
3.024000000000001
 40
3.024000000000001
 40
3.024000000000001
 40
3.024000000000001
 10
-604.983126848451
 20
-1308.527164892375
 30
0.0
 10
-604.983126848451
 20
-1311.952692001538
 30
0.0
 10
-603.0181231411356
 20
-1315.19124389259
 30
0.0
 10
-599.9206846222427
 20
-1315.19124389259
 30
0.0
  0
LINE
  5
1E7
330
1F
100
AcDbEntity
  8
FISHER & PAYKEL
 62
   250
420
  1316376
370
     9
100
AcDbLine
 10
-604.983126848451
 20
-1308.484830880728
 30
0.0
 11
-604.983126848451
 21
-1308.527164892375
 31
0.0
  0
SPLINE
  5
1E8
330
1F
100
AcDbEntity
  8
FISHER & PAYKEL
 62
   250
420
  1316376
370
     9
100
AcDbSpline
210
0.0
220
0.0
230
1.0
 70
     8
 71
     3
 72
     8
 73
     4
 74
     0
 42
0.0000000001
 43
0.0000000001
 40
1.012
 40
1.012
 40
1.012
 40
1.012
 40
2.012
 40
2.012
 40
2.012
 40
2.012
 10
-599.9630186338906
 20
-1301.863085892161
 30
0.0
 10
-603.0604571527832
 20
-1301.863085892161
 30
0.0
 10
-604.983126848451
 20
-1305.038136765741
 30
0.0
 10
-604.983126848451
 20
-1308.484830880728
 30
0.0
  0
SPLINE
  5
1E9
330
1F
100
AcDbEntity
  8
FISHER & PAYKEL
 62
   250
420
  1316376
370
     9
100
AcDbSpline
210
0.0
220
0.0
230
1.0
 70
     8
 71
     3
 72
     8
 73
     4
 74
     0
 42
0.0000000001
 43
0.0000000001
 40
0.0120000000000005
 40
0.0120000000000005
 40
0.0120000000000005
 40
0.0120000000000005
 40
1.012
 40
1.012
 40
1.012
 40
1.012
 10
-594.8970485733786
 20
-1308.527164892375
 30
0.0
 10
-594.8970485733786
 20
-1305.080470777389
 30
0.0
 10
-596.8655801149981
 20
-1301.863085892161
 30
0.0
 10
-599.9630186338906
 20
-1301.863085892161
 30
0.0
  0
LINE
  5
1EA
330
1F
100
AcDbEntity
  8
FISHER & PAYKEL
 62
   250
420
  1316376
370
     9
100
AcDbLine
 10
-594.8970485733786
 20
-1308.569498904023
 30
0.0
 11
-594.8970485733786
 21
-1308.527164892375
 31
0.0
  0
SPLINE
  5
1EB
330
1F
100
AcDbEntity
  8
FISHER & PAYKEL
 62
   250
420
  1316376
370
     9
100
AcDbSpline
210
0.0
220
0.0
230
1.0
 70
     8
 71
     3
 72
     8
 73
     4
 74
     0
 42
0.0000000001
 43
0.0000000001
 40
5.024000000000001
 40
5.024000000000001
 40
5.024000000000001
 40
5.024000000000001
 40
6.024000000000001
 40
6.024000000000001
 40
6.024000000000001
 40
6.024000000000001
 10
-599.9630186338906
 20
-1316.186093166311
 30
0.0
 10
-603.7695518478828
 20
-1316.186093166311
 30
0.0
 10
-606.1402565001559
 20
-1312.651203193725
 30
0.0
 10
-606.1402565001559
 20
-1308.569498904023
 30
0.0
  0
SPLINE
  5
1EC
330
1F
100
AcDbEntity
  8
FISHER & PAYKEL
 62
   250
420
  1316376
370
     9
100
AcDbSpline
210
0.0
220
0.0
230
1.0
 70
     8
 71
     3
 72
     8
 73
     4
 74
     0
 42
0.0000000001
 43
0.0000000001
 40
4.024000000000001
 40
4.024000000000001
 40
4.024000000000001
 40
4.024000000000001
 40
5.024000000000001
 40
5.024000000000001
 40
5.024000000000001
 40
5.024000000000001
 10
-593.7434467559777
 20
-1308.527164892375
 30
0.0
 10
-593.7434467559777
 20
-1312.612397016382
 30
0.0
 10
-596.1564854198986
 20
-1316.186093166311
 30
0.0
 10
-599.9630186338906
 20
-1316.186093166311
 30
0.0
  0
LINE
  5
1ED
330
1F
100
AcDbEntity
  8
FISHER & PAYKEL
 62
   250
420
  1316376
370
     9
100
AcDbLine
 10
-593.7434467559777
 20
-1308.484830880728
 30
0.0
 11
-593.7434467559777
 21
-1308.527164892375
 31
0.0
  0
SPLINE
  5
1EE
330
1F
100
AcDbEntity
  8
FISHER & PAYKEL
 62
   250
420
  1316376
370
     9
100
AcDbSpline
210
0.0
220
0.0
230
1.0
 70
     8
 71
     3
 72
     8
 73
     4
 74
     0
 42
0.0000000001
 43
0.0000000001
 40
3.012
 40
3.012
 40
3.012
 40
3.012
 40
4.012
 40
4.012
 40
4.012
 40
4.012
 10
-599.9206846222427
 20
-1300.868236618439
 30
0.0
 10
-596.1176792425548
 20
-1300.868236618439
 30
0.0
 10
-593.7434467559777
 20
-1304.399598756721
 30
0.0
 10
-593.7434467559777
 20
-1308.484830880728
 30
0.0
  0
SPLINE
  5
1EF
330
1F
100
AcDbEntity
  8
FISHER & PAYKEL
 62
   250
420
  1316376
370
     9
100
AcDbSpline
210
0.0
220
0.0
230
1.0
 70
     8
 71
     3
 72
     8
 73
     4
 74
     0
 42
0.0000000001
 43
0.0000000001
 40
2.012
 40
2.012
 40
2.012
 40
2.012
 40
3.012
 40
3.012
 40
3.012
 40
3.012
 10
-606.1402565001559
 20
-1308.527164892375
 30
0.0
 10
-606.1402565001559
 20
-1304.445460602673
 30
0.0
 10
-603.723690001931
 20
-1300.868236618439
 30
0.0
 10
-599.9206846222427
 20
-1300.868236618439
 30
0.0
  0
LINE
  5
1F0
330
1F
100
AcDbEntity
  8
FISHER & PAYKEL
 62
   250
420
  1316376
370
     9
100
AcDbLine
 10
-606.1402565001559
 20
-1308.569498904023
 30
0.0
 11
-606.1402565001559
 21
-1308.527164892375
 31
0.0
  0
SPLINE
  5
1F1
330
1F
100
AcDbEntity
  8
FISHER & PAYKEL
 62
   250
420
  1316376
370
     9
100
AcDbSpline
210
0.0
220
0.0
230
1.0
 70
     8
 71
     3
 72
     8
 73
     4
 74
     0
 42
0.0000000001
 43
0.0000000001
 40
3.024000000000001
 40
3.024000000000001
 40
3.024000000000001
 40
3.024000000000001
 40
4.024000000000001
 40
4.024000000000001
 40
4.024000000000001
 40
4.024000000000001
 10
-615.0586216206117
 20
-1315.19124389259
 30
0.0
 10
-611.9576552674154
 20
-1315.19124389259
 30
0.0
 10
-610.0349855717474
 20
-1311.998553847489
 30
0.0
 10
-610.0349855717474
 20
-1308.569498904023
 30
0.0
  0
SPLINE
  5
1F2
330
1F
100
AcDbEntity
  8
FISHER & PAYKEL
 62
   250
420
  1316376
370
     9
100
AcDbSpline
210
0.0
220
0.0
230
1.0
 70
     8
 71
     3
 72
     8
 73
     4
 74
     0
 42
0.0000000001
 43
0.0000000001
 40
2.024000000000001
 40
2.024000000000001
 40
2.024000000000001
 40
2.024000000000001
 40
3.024000000000001
 40
3.024000000000001
 40
3.024000000000001
 40
3.024000000000001
 10
-620.12106384682
 20
-1308.527164892375
 30
0.0
 10
-620.12106384682
 20
-1311.952692001538
 30
0.0
 10
-618.1560601395043
 20
-1315.19124389259
 30
0.0
 10
-615.0586216206117
 20
-1315.19124389259
 30
0.0
  0
LINE
  5
1F3
330
1F
100
AcDbEntity
  8
FISHER & PAYKEL
 62
   250
420
  1316376
370
     9
100
AcDbLine
 10
-620.12106384682
 20
-1308.484830880728
 30
0.0
 11
-620.12106384682
 21
-1308.527164892375
 31
0.0
  0
SPLINE
  5
1F4
330
1F
100
AcDbEntity
  8
FISHER & PAYKEL
 62
   250
420
  1316376
370
     9
100
AcDbSpline
210
0.0
220
0.0
230
1.0
 70
     8
 71
     3
 72
     8
 73
     4
 74
     0
 42
0.0000000001
 43
0.0000000001
 40
1.012
 40
1.012
 40
1.012
 40
1.012
 40
2.012
 40
2.012
 40
2.012
 40
2.012
 10
-615.1009556322593
 20
-1301.863085892161
 30
0.0
 10
-618.1983941511522
 20
-1301.863085892161
 30
0.0
 10
-620.12106384682
 20
-1305.038136765741
 30
0.0
 10
-620.12106384682
 20
-1308.484830880728
 30
0.0
  0
SPLINE
  5
1F5
330
1F
100
AcDbEntity
  8
FISHER & PAYKEL
 62
   250
420
  1316376
370
     9
100
AcDbSpline
210
0.0
220
0.0
230
1.0
 70
     8
 71
     3
 72
     8
 73
     4
 74
     0
 42
0.0000000001
 43
0.0000000001
 40
0.0120000000000005
 40
0.0120000000000005
 40
0.0120000000000005
 40
0.0120000000000005
 40
1.012
 40
1.012
 40
1.012
 40
1.012
 10
-610.0349855717474
 20
-1308.527164892375
 30
0.0
 10
-610.0349855717474
 20
-1305.080470777389
 30
0.0
 10
-612.0035171133669
 20
-1301.863085892161
 30
0.0
 10
-615.1009556322593
 20
-1301.863085892161
 30
0.0
  0
LINE
  5
1F6
330
1F
100
AcDbEntity
  8
FISHER & PAYKEL
 62
   250
420
  1316376
370
     9
100
AcDbLine
 10
-610.0349855717474
 20
-1308.569498904023
 30
0.0
 11
-610.0349855717474
 21
-1308.527164892375
 31
0.0
  0
SPLINE
  5
1F7
330
1F
100
AcDbEntity
  8
FISHER & PAYKEL
 62
   250
420
  1316376
370
     9
100
AcDbSpline
210
0.0
220
0.0
230
1.0
 70
     8
 71
     3
 72
     8
 73
     4
 74
     0
 42
0.0000000001
 43
0.0000000001
 40
5.024000000000001
 40
5.024000000000001
 40
5.024000000000001
 40
5.024000000000001
 40
6.024000000000001
 40
6.024000000000001
 40
6.024000000000001
 40
6.024000000000001
 10
-615.1009556322593
 20
-1316.186093166311
 30
0.0
 10
-618.9074888462516
 20
-1316.186093166311
 30
0.0
 10
-621.2781934985247
 20
-1312.651203193725
 30
0.0
 10
-621.2781934985247
 20
-1308.569498904023
 30
0.0
  0
SPLINE
  5
1F8
330
1F
100
AcDbEntity
  8
FISHER & PAYKEL
 62
   250
420
  1316376
370
     9
100
AcDbSpline
210
0.0
220
0.0
230
1.0
 70
     8
 71
     3
 72
     8
 73
     4
 74
     0
 42
0.0000000001
 43
0.0000000001
 40
4.024000000000001
 40
4.024000000000001
 40
4.024000000000001
 40
4.024000000000001
 40
5.024000000000001
 40
5.024000000000001
 40
5.024000000000001
 40
5.024000000000001
 10
-608.8813837543465
 20
-1308.527164892375
 30
0.0
 10
-608.8813837543465
 20
-1312.612397016382
 30
0.0
 10
-611.2944224182676
 20
-1316.186093166311
 30
0.0
 10
-615.1009556322593
 20
-1316.186093166311
 30
0.0
  0
LINE
  5
1F9
330
1F
100
AcDbEntity
  8
FISHER & PAYKEL
 62
   250
420
  1316376
370
     9
100
AcDbLine
 10
-608.8813837543465
 20
-1308.484830880728
 30
0.0
 11
-608.8813837543465
 21
-1308.527164892375
 31
0.0
  0
SPLINE
  5
1FA
330
1F
100
AcDbEntity
  8
FISHER & PAYKEL
 62
   250
420
  1316376
370
     9
100
AcDbSpline
210
0.0
220
0.0
230
1.0
 70
     8
 71
     3
 72
     8
 73
     4
 74
     0
 42
0.0000000001
 43
0.0000000001
 40
3.012
 40
3.012
 40
3.012
 40
3.012
 40
4.012
 40
4.012
 40
4.012
 40
4.012
 10
-615.0586216206117
 20
-1300.868236618439
 30
0.0
 10
-611.2556162409238
 20
-1300.868236618439
 30
0.0
 10
-608.8813837543465
 20
-1304.399598756721
 30
0.0
 10
-608.8813837543465
 20
-1308.484830880728
 30
0.0
  0
SPLINE
  5
1FB
330
1F
100
AcDbEntity
  8
FISHER & PAYKEL
 62
   250
420
  1316376
370
     9
100
AcDbSpline
210
0.0
220
0.0
230
1.0
 70
     8
 71
     3
 72
     8
 73
     4
 74
     0
 42
0.0000000001
 43
0.0000000001
 40
2.012
 40
2.012
 40
2.012
 40
2.012
 40
3.012
 40
3.012
 40
3.012
 40
3.012
 10
-621.2781934985247
 20
-1308.527164892375
 30
0.0
 10
-621.2781934985247
 20
-1304.445460602673
 30
0.0
 10
-618.8616270003
 20
-1300.868236618439
 30
0.0
 10
-615.0586216206117
 20
-1300.868236618439
 30
0.0
  0
LINE
  5
1FC
330
1F
100
AcDbEntity
  8
FISHER & PAYKEL
 62
   250
420
  1316376
370
     9
100
AcDbLine
 10
-621.2781934985247
 20
-1308.569498904023
 30
0.0
 11
-621.2781934985247
 21
-1308.527164892375
 31
0.0
  0
POLYLINE
  5
1FD
330
1F
100
AcDbEntity
  8
FISHER & PAYKEL
 62
   250
420
  1316376
370
     9
100
AcDb2dPolyline
 66
     1
 10
0.0
 20
0.0
 30
0.0
 70
     1
  0
VERTEX
  5
1FE
330
1FD
100
AcDbEntity
  8
FISHER & PAYKEL
 62
   250
420
  1316376
370
     9
100
AcDbVertex
100
AcDb2dVertex
 10
-627.3090262411748
 20
-1311.361779755621
 30
0.0
  0
VERTEX
  5
1FF
330
1FD
100
AcDbEntity
  8
FISHER & PAYKEL
 62
   250
420
  1316376
370
     9
100
AcDbVertex
100
AcDb2dVertex
 10
-627.3090262411748
 20
-1302.605695013148
 30
0.0
  0
VERTEX
  5
200
330
1FD
100
AcDbEntity
  8
FISHER & PAYKEL
 62
   250
420
  1316376
370
     9
100
AcDbVertex
100
AcDb2dVertex
 10
-634.445835038122
 20
-1311.361779755621
 30
0.0
  0
SEQEND
  5
201
330
1FD
100
AcDbEntity
  8
FISHER & PAYKEL
 62
   250
420
  1316376
370
     9
  0
POLYLINE
  5
202
330
1F
100
AcDbEntity
  8
FISHER & PAYKEL
 62
   250
420
  1316376
370
     9
100
AcDb2dPolyline
 66
     1
 10
0.0
 20
0.0
 30
0.0
 70
     1
  0
VERTEX
  5
203
330
202
100
AcDbEntity
  8
FISHER & PAYKEL
 62
   250
420
  1316376
370
     9
100
AcDbVertex
100
AcDb2dVertex
 10
-627.3090262411748
 20
-1312.314295017695
 30
0.0
  0
VERTEX
  5
204
330
202
100
AcDbEntity
  8
FISHER & PAYKEL
 62
   250
420
  1316376
370
     9
100
AcDbVertex
100
AcDb2dVertex
 10
-635.408933803108
 20
-1312.314295017695
 30
0.0
  0
VERTEX
  5
205
330
202
100
AcDbEntity
  8
FISHER & PAYKEL
 62
   250
420
  1316376
370
     9
100
AcDbVertex
100
AcDb2dVertex
 10
-635.7934677422414
 20
-1311.488781790564
 30
0.0
  0
VERTEX
  5
206
330
202
100
AcDbEntity
  8
FISHER & PAYKEL
 62
   250
420
  1316376
370
     9
100
AcDbVertex
100
AcDb2dVertex
 10
-627.2455252237033
 20
-1301.018169576358
 30
0.0
  0
VERTEX
  5
207
330
202
100
AcDbEntity
  8
FISHER & PAYKEL
 62
   250
420
  1316376
370
     9
100
AcDbVertex
100
AcDb2dVertex
 10
-626.2400924470695
 20
-1301.018169576358
 30
0.0
  0
VERTEX
  5
208
330
202
100
AcDbEntity
  8
FISHER & PAYKEL
 62
   250
420
  1316376
370
     9
100
AcDbVertex
100
AcDb2dVertex
 10
-626.2400924470695
 20
-1311.361779755621
 30
0.0
  0
VERTEX
  5
209
330
202
100
AcDbEntity
  8
FISHER & PAYKEL
 62
   250
420
  1316376
370
     9
100
AcDbVertex
100
AcDb2dVertex
 10
-623.8058867773249
 20
-1311.361779755621
 30
0.0
  0
VERTEX
  5
20A
330
202
100
AcDbEntity
  8
FISHER & PAYKEL
 62
   250
420
  1316376
370
     9
100
AcDbVertex
100
AcDb2dVertex
 10
-623.8058867773249
 20
-1312.314295017695
 30
0.0
  0
VERTEX
  5
20B
330
202
100
AcDbEntity
  8
FISHER & PAYKEL
 62
   250
420
  1316376
370
     9
100
AcDbVertex
100
AcDb2dVertex
 10
-626.2400924470695
 20
-1312.314295017695
 30
0.0
  0
VERTEX
  5
20C
330
202
100
AcDbEntity
  8
FISHER & PAYKEL
 62
   250
420
  1316376
370
     9
100
AcDbVertex
100
AcDb2dVertex
 10
-626.2400924470695
 20
-1315.930325179273
 30
0.0
  0
VERTEX
  5
20D
330
202
100
AcDbEntity
  8
FISHER & PAYKEL
 62
   250
420
  1316376
370
     9
100
AcDbVertex
100
AcDb2dVertex
 10
-627.3090262411748
 20
-1315.930325179273
 30
0.0
  0
SEQEND
  5
20E
330
202
100
AcDbEntity
  8
FISHER & PAYKEL
 62
   250
420
  1316376
370
     9
  0
SPLINE
  5
20F
330
1F
100
AcDbEntity
  8
FISHER & PAYKEL
 62
   250
420
  1316376
370
     9
100
AcDbSpline
210
0.0
220
0.0
230
1.0
 70
     8
 71
     3
 72
     8
 73
     4
 74
     0
 42
0.0000000001
 43
0.0000000001
 40
3.024000000000001
 40
3.024000000000001
 40
3.024000000000001
 40
3.024000000000001
 40
4.024000000000001
 40
4.024000000000001
 40
4.024000000000001
 40
4.024000000000001
 10
-800.7109018674456
 20
-1315.19124389259
 30
0.0
 10
-797.6134633485534
 20
-1315.19124389259
 30
0.0
 10
-795.6907936528852
 20
-1311.998553847489
 30
0.0
 10
-795.6907936528852
 20
-1308.569498904023
 30
0.0
  0
SPLINE
  5
210
330
1F
100
AcDbEntity
  8
FISHER & PAYKEL
 62
   250
420
  1316376
370
     9
100
AcDbSpline
210
0.0
220
0.0
230
1.0
 70
     8
 71
     3
 72
     8
 73
     4
 74
     0
 42
0.0000000001
 43
0.0000000001
 40
2.024000000000001
 40
2.024000000000001
 40
2.024000000000001
 40
2.024000000000001
 40
3.024000000000001
 40
3.024000000000001
 40
3.024000000000001
 40
3.024000000000001
 10
-805.7768719279578
 20
-1308.527164892375
 30
0.0
 10
-805.7768719279578
 20
-1311.952692001538
 30
0.0
 10
-803.8118682206424
 20
-1315.19124389259
 30
0.0
 10
-800.7109018674456
 20
-1315.19124389259
 30
0.0
  0
LINE
  5
211
330
1F
100
AcDbEntity
  8
FISHER & PAYKEL
 62
   250
420
  1316376
370
     9
100
AcDbLine
 10
-805.7768719279578
 20
-1308.484830880728
 30
0.0
 11
-805.7768719279578
 21
-1308.527164892375
 31
0.0
  0
SPLINE
  5
212
330
1F
100
AcDbEntity
  8
FISHER & PAYKEL
 62
   250
420
  1316376
370
     9
100
AcDbSpline
210
0.0
220
0.0
230
1.0
 70
     8
 71
     3
 72
     8
 73
     4
 74
     0
 42
0.0000000001
 43
0.0000000001
 40
1.012
 40
1.012
 40
1.012
 40
1.012
 40
2.012
 40
2.012
 40
2.012
 40
2.012
 10
-800.7567637133974
 20
-1301.863085892161
 30
0.0
 10
-803.8506743979859
 20
-1301.863085892161
 30
0.0
 10
-805.7768719279578
 20
-1305.038136765741
 30
0.0
 10
-805.7768719279578
 20
-1308.484830880728
 30
0.0
  0
SPLINE
  5
213
330
1F
100
AcDbEntity
  8
FISHER & PAYKEL
 62
   250
420
  1316376
370
     9
100
AcDbSpline
210
0.0
220
0.0
230
1.0
 70
     8
 71
     3
 72
     8
 73
     4
 74
     0
 42
0.0000000001
 43
0.0000000001
 40
0.0120000000000005
 40
0.0120000000000005
 40
0.0120000000000005
 40
0.0120000000000005
 40
1.012
 40
1.012
 40
1.012
 40
1.012
 10
-795.6907936528852
 20
-1308.527164892375
 30
0.0
 10
-795.6907936528852
 20
-1305.080470777389
 30
0.0
 10
-797.6557973602011
 20
-1301.863085892161
 30
0.0
 10
-800.7567637133974
 20
-1301.863085892161
 30
0.0
  0
LINE
  5
214
330
1F
100
AcDbEntity
  8
FISHER & PAYKEL
 62
   250
420
  1316376
370
     9
100
AcDbLine
 10
-795.6907936528852
 20
-1308.569498904023
 30
0.0
 11
-795.6907936528852
 21
-1308.527164892375
 31
0.0
  0
SPLINE
  5
215
330
1F
100
AcDbEntity
  8
FISHER & PAYKEL
 62
   250
420
  1316376
370
     9
100
AcDbSpline
210
0.0
220
0.0
230
1.0
 70
     8
 71
     3
 72
     8
 73
     4
 74
     0
 42
0.0000000001
 43
0.0000000001
 40
5.024000000000001
 40
5.024000000000001
 40
5.024000000000001
 40
5.024000000000001
 40
6.024000000000001
 40
6.024000000000001
 40
6.024000000000001
 40
6.024000000000001
 10
-800.7567637133974
 20
-1316.186093166311
 30
0.0
 10
-804.5597690930857
 20
-1316.186093166311
 30
0.0
 10
-806.9340015796628
 20
-1312.651203193725
 30
0.0
 10
-806.9340015796628
 20
-1308.569498904023
 30
0.0
  0
SPLINE
  5
216
330
1F
100
AcDbEntity
  8
FISHER & PAYKEL
 62
   250
420
  1316376
370
     9
100
AcDbSpline
210
0.0
220
0.0
230
1.0
 70
     8
 71
     3
 72
     8
 73
     4
 74
     0
 42
0.0000000001
 43
0.0000000001
 40
4.024000000000001
 40
4.024000000000001
 40
4.024000000000001
 40
4.024000000000001
 40
5.024000000000001
 40
5.024000000000001
 40
5.024000000000001
 40
5.024000000000001
 10
-794.5371918354846
 20
-1308.527164892375
 30
0.0
 10
-794.5371918354846
 20
-1312.612397016382
 30
0.0
 10
-796.9502304994054
 20
-1316.186093166311
 30
0.0
 10
-800.7567637133974
 20
-1316.186093166311
 30
0.0
  0
LINE
  5
217
330
1F
100
AcDbEntity
  8
FISHER & PAYKEL
 62
   250
420
  1316376
370
     9
100
AcDbLine
 10
-794.5371918354846
 20
-1308.484830880728
 30
0.0
 11
-794.5371918354846
 21
-1308.527164892375
 31
0.0
  0
SPLINE
  5
218
330
1F
100
AcDbEntity
  8
FISHER & PAYKEL
 62
   250
420
  1316376
370
     9
100
AcDbSpline
210
0.0
220
0.0
230
1.0
 70
     8
 71
     3
 72
     8
 73
     4
 74
     0
 42
0.0000000001
 43
0.0000000001
 40
3.012
 40
3.012
 40
3.012
 40
3.012
 40
4.012
 40
4.012
 40
4.012
 40
4.012
 10
-800.7109018674456
 20
-1300.868236618439
 30
0.0
 10
-796.9078964877577
 20
-1300.868236618439
 30
0.0
 10
-794.5371918354846
 20
-1304.399598756721
 30
0.0
 10
-794.5371918354846
 20
-1308.484830880728
 30
0.0
  0
SPLINE
  5
219
330
1F
100
AcDbEntity
  8
FISHER & PAYKEL
 62
   250
420
  1316376
370
     9
100
AcDbSpline
210
0.0
220
0.0
230
1.0
 70
     8
 71
     3
 72
     8
 73
     4
 74
     0
 42
0.0000000001
 43
0.0000000001
 40
2.012
 40
2.012
 40
2.012
 40
2.012
 40
3.012
 40
3.012
 40
3.012
 40
3.012
 10
-806.9340015796628
 20
-1308.527164892375
 30
0.0
 10
-806.9340015796628
 20
-1304.445460602673
 30
0.0
 10
-804.5174350814378
 20
-1300.868236618439
 30
0.0
 10
-800.7109018674456
 20
-1300.868236618439
 30
0.0
  0
LINE
  5
21A
330
1F
100
AcDbEntity
  8
FISHER & PAYKEL
 62
   250
420
  1316376
370
     9
100
AcDbLine
 10
-806.9340015796628
 20
-1308.569498904023
 30
0.0
 11
-806.9340015796628
 21
-1308.527164892375
 31
0.0
  0
SPLINE
  5
21B
330
1F
100
AcDbEntity
  8
FISHER & PAYKEL
 62
   250
420
  1316376
370
     9
100
AcDbSpline
210
0.0
220
0.0
230
1.0
 70
     8
 71
     3
 72
     8
 73
     4
 74
     0
 42
0.0000000001
 43
0.0000000001
 40
3.024000000000001
 40
3.024000000000001
 40
3.024000000000001
 40
3.024000000000001
 40
4.024000000000001
 40
4.024000000000001
 40
4.024000000000001
 40
4.024000000000001
 10
-815.8488388658146
 20
-1315.19124389259
 30
0.0
 10
-812.7514003469222
 20
-1315.19124389259
 30
0.0
 10
-810.8287306512542
 20
-1311.998553847489
 30
0.0
 10
-810.8287306512542
 20
-1308.569498904023
 30
0.0
  0
SPLINE
  5
21C
330
1F
100
AcDbEntity
  8
FISHER & PAYKEL
 62
   250
420
  1316376
370
     9
100
AcDbSpline
210
0.0
220
0.0
230
1.0
 70
     8
 71
     3
 72
     8
 73
     4
 74
     0
 42
0.0000000001
 43
0.0000000001
 40
2.024000000000001
 40
2.024000000000001
 40
2.024000000000001
 40
2.024000000000001
 40
3.024000000000001
 40
3.024000000000001
 40
3.024000000000001
 40
3.024000000000001
 10
-820.9148089263268
 20
-1308.527164892375
 30
0.0
 10
-820.9148089263268
 20
-1311.952692001538
 30
0.0
 10
-818.9498052190114
 20
-1315.19124389259
 30
0.0
 10
-815.8488388658146
 20
-1315.19124389259
 30
0.0
  0
LINE
  5
21D
330
1F
100
AcDbEntity
  8
FISHER & PAYKEL
 62
   250
420
  1316376
370
     9
100
AcDbLine
 10
-820.9148089263268
 20
-1308.484830880728
 30
0.0
 11
-820.9148089263268
 21
-1308.527164892375
 31
0.0
  0
SPLINE
  5
21E
330
1F
100
AcDbEntity
  8
FISHER & PAYKEL
 62
   250
420
  1316376
370
     9
100
AcDbSpline
210
0.0
220
0.0
230
1.0
 70
     8
 71
     3
 72
     8
 73
     4
 74
     0
 42
0.0000000001
 43
0.0000000001
 40
1.012
 40
1.012
 40
1.012
 40
1.012
 40
2.012
 40
2.012
 40
2.012
 40
2.012
 10
-815.8947007117662
 20
-1301.863085892161
 30
0.0
 10
-818.9886113963549
 20
-1301.863085892161
 30
0.0
 10
-820.9148089263268
 20
-1305.038136765741
 30
0.0
 10
-820.9148089263268
 20
-1308.484830880728
 30
0.0
  0
SPLINE
  5
21F
330
1F
100
AcDbEntity
  8
FISHER & PAYKEL
 62
   250
420
  1316376
370
     9
100
AcDbSpline
210
0.0
220
0.0
230
1.0
 70
     8
 71
     3
 72
     8
 73
     4
 74
     0
 42
0.0000000001
 43
0.0000000001
 40
0.0120000000000005
 40
0.0120000000000005
 40
0.0120000000000005
 40
0.0120000000000005
 40
1.012
 40
1.012
 40
1.012
 40
1.012
 10
-810.8287306512542
 20
-1308.527164892375
 30
0.0
 10
-810.8287306512542
 20
-1305.080470777389
 30
0.0
 10
-812.7937343585698
 20
-1301.863085892161
 30
0.0
 10
-815.8947007117662
 20
-1301.863085892161
 30
0.0
  0
LINE
  5
220
330
1F
100
AcDbEntity
  8
FISHER & PAYKEL
 62
   250
420
  1316376
370
     9
100
AcDbLine
 10
-810.8287306512542
 20
-1308.569498904023
 30
0.0
 11
-810.8287306512542
 21
-1308.527164892375
 31
0.0
  0
SPLINE
  5
221
330
1F
100
AcDbEntity
  8
FISHER & PAYKEL
 62
   250
420
  1316376
370
     9
100
AcDbSpline
210
0.0
220
0.0
230
1.0
 70
     8
 71
     3
 72
     8
 73
     4
 74
     0
 42
0.0000000001
 43
0.0000000001
 40
5.024000000000001
 40
5.024000000000001
 40
5.024000000000001
 40
5.024000000000001
 40
6.024000000000001
 40
6.024000000000001
 40
6.024000000000001
 40
6.024000000000001
 10
-815.8947007117662
 20
-1316.186093166311
 30
0.0
 10
-819.6977060914545
 20
-1316.186093166311
 30
0.0
 10
-822.0719385780316
 20
-1312.651203193725
 30
0.0
 10
-822.0719385780316
 20
-1308.569498904023
 30
0.0
  0
SPLINE
  5
222
330
1F
100
AcDbEntity
  8
FISHER & PAYKEL
 62
   250
420
  1316376
370
     9
100
AcDbSpline
210
0.0
220
0.0
230
1.0
 70
     8
 71
     3
 72
     8
 73
     4
 74
     0
 42
0.0000000001
 43
0.0000000001
 40
4.024000000000001
 40
4.024000000000001
 40
4.024000000000001
 40
4.024000000000001
 40
5.024000000000001
 40
5.024000000000001
 40
5.024000000000001
 40
5.024000000000001
 10
-809.6751288338534
 20
-1308.527164892375
 30
0.0
 10
-809.6751288338534
 20
-1312.612397016382
 30
0.0
 10
-812.0881674977744
 20
-1316.186093166311
 30
0.0
 10
-815.8947007117662
 20
-1316.186093166311
 30
0.0
  0
LINE
  5
223
330
1F
100
AcDbEntity
  8
FISHER & PAYKEL
 62
   250
420
  1316376
370
     9
100
AcDbLine
 10
-809.6751288338534
 20
-1308.484830880728
 30
0.0
 11
-809.6751288338534
 21
-1308.527164892375
 31
0.0
  0
SPLINE
  5
224
330
1F
100
AcDbEntity
  8
FISHER & PAYKEL
 62
   250
420
  1316376
370
     9
100
AcDbSpline
210
0.0
220
0.0
230
1.0
 70
     8
 71
     3
 72
     8
 73
     4
 74
     0
 42
0.0000000001
 43
0.0000000001
 40
3.012
 40
3.012
 40
3.012
 40
3.012
 40
4.012
 40
4.012
 40
4.012
 40
4.012
 10
-815.8488388658146
 20
-1300.868236618439
 30
0.0
 10
-812.0458334861268
 20
-1300.868236618439
 30
0.0
 10
-809.6751288338534
 20
-1304.399598756721
 30
0.0
 10
-809.6751288338534
 20
-1308.484830880728
 30
0.0
  0
SPLINE
  5
225
330
1F
100
AcDbEntity
  8
FISHER & PAYKEL
 62
   250
420
  1316376
370
     9
100
AcDbSpline
210
0.0
220
0.0
230
1.0
 70
     8
 71
     3
 72
     8
 73
     4
 74
     0
 42
0.0000000001
 43
0.0000000001
 40
2.012
 40
2.012
 40
2.012
 40
2.012
 40
3.012
 40
3.012
 40
3.012
 40
3.012
 10
-822.0719385780316
 20
-1308.527164892375
 30
0.0
 10
-822.0719385780316
 20
-1304.445460602673
 30
0.0
 10
-819.6553720798069
 20
-1300.868236618439
 30
0.0
 10
-815.8488388658146
 20
-1300.868236618439
 30
0.0
  0
LINE
  5
226
330
1F
100
AcDbEntity
  8
FISHER & PAYKEL
 62
   250
420
  1316376
370
     9
100
AcDbLine
 10
-822.0719385780316
 20
-1308.569498904023
 30
0.0
 11
-822.0719385780316
 21
-1308.527164892375
 31
0.0
  0
LINE
  5
227
330
1F
100
AcDbEntity
  8
FISHER & PAYKEL
 62
   250
420
  1316376
370
     9
100
AcDbLine
 10
-835.0067430535663
 20
-1315.932089096425
 30
0.0
 11
-835.0067430535661
 21
-1315.106575869293
 31
0.0
  0
LINE
  5
228
330
1F
100
AcDbEntity
  8
FISHER & PAYKEL
 62
   250
420
  1316376
370
     9
100
AcDbLine
 10
-824.7901349092464
 20
-1315.932089096425
 30
0.0
 11
-835.0067430535663
 21
-1315.932089096425
 31
0.0
  0
LINE
  5
229
330
1F
100
AcDbEntity
  8
FISHER & PAYKEL
 62
   250
420
  1316376
370
     9
100
AcDbLine
 10
-824.7901349092464
 20
-1314.873738805231
 30
0.0
 11
-824.7901349092464
 21
-1315.932089096425
 31
0.0
  0
LINE
  5
22A
330
1F
100
AcDbEntity
  8
FISHER & PAYKEL
 62
   250
420
  1316376
370
     9
100
AcDbLine
 10
-833.2534094044894
 20
-1314.873738805231
 30
0.0
 11
-824.7901349092464
 21
-1314.873738805231
 31
0.0
  0
LINE
  5
22B
330
1F
100
AcDbEntity
  8
FISHER & PAYKEL
 62
   250
420
  1316376
370
     9
100
AcDbLine
 10
-828.6813361465339
 20
-1310.770867509705
 30
0.0
 11
-833.2534094044894
 21
-1314.873738805231
 31
0.0
  0
SPLINE
  5
22C
330
1F
100
AcDbEntity
  8
FISHER & PAYKEL
 62
   250
420
  1316376
370
     9
100
AcDbSpline
210
0.0
220
0.0
230
1.0
 70
     8
 71
     3
 72
     8
 73
     4
 74
     0
 42
0.0000000001
 43
0.0000000001
 40
7.418860237867025
 40
7.418860237867025
 40
7.418860237867025
 40
7.418860237867025
 40
8.418860237867026
 40
8.418860237867026
 40
8.418860237867026
 40
8.418860237867026
 10
-824.9383039500136
 20
-1305.016969759917
 30
0.0
 10
-824.9383039500136
 20
-1307.045474484705
 30
0.0
 10
-826.0530995900705
 20
-1308.400162857432
 30
0.0
 10
-828.6813361465339
 20
-1310.770867509705
 30
0.0
  0
LINE
  5
22D
330
1F
100
AcDbEntity
  8
FISHER & PAYKEL
 62
   250
420
  1316376
370
     9
100
AcDbLine
 10
-824.9383039500136
 20
-1304.971107913966
 30
0.0
 11
-824.9383039500136
 21
-1305.016969759917
 31
0.0
  0
SPLINE
  5
22E
330
1F
100
AcDbEntity
  8
FISHER & PAYKEL
 62
   250
420
  1316376
370
     9
100
AcDbSpline
210
0.0
220
0.0
230
1.0
 70
     8
 71
     3
 72
     8
 73
     4
 74
     0
 42
0.0000000001
 43
0.0000000001
 40
6.405860237867048
 40
6.405860237867048
 40
6.405860237867048
 40
6.405860237867048
 40
7.405860237867048
 40
7.405860237867048
 40
7.405860237867048
 40
7.405860237867048
 10
-829.3869030073296
 20
-1300.910570630087
 30
0.0
 10
-826.8433344741615
 20
-1300.910570630087
 30
0.0
 10
-824.9383039500136
 20
-1302.667432113468
 30
0.0
 10
-824.9383039500136
 20
-1304.971107913966
 30
0.0
  0
SPLINE
  5
22F
330
1F
100
AcDbEntity
  8
FISHER & PAYKEL
 62
   250
420
  1316376
370
     9
100
AcDbSpline
210
0.0
220
0.0
230
1.0
 70
     8
 71
     3
 72
     8
 73
     4
 74
     0
 42
0.0000000001
 43
0.0000000001
 40
5.405860237867048
 40
5.405860237867048
 40
5.405860237867048
 40
5.405860237867048
 40
6.405860237867048
 40
6.405860237867048
 40
6.405860237867048
 40
6.405860237867048
 10
-834.7068771377284
 20
-1304.082093669363
 30
0.0
 10
-833.4051062795603
 20
-1302.117089962047
 30
0.0
 10
-832.015139563793
 20
-1300.910570630087
 30
0.0
 10
-829.3869030073296
 20
-1300.910570630087
 30
0.0
  0
LINE
  5
230
330
1F
100
AcDbEntity
  8
FISHER & PAYKEL
 62
   250
420
  1316376
370
     9
100
AcDbLine
 10
-833.8743082419893
 20
-1304.635963655087
 30
0.0
 11
-834.7068771377284
 21
-1304.082093669363
 31
0.0
  0
SPLINE
  5
231
330
1F
100
AcDbEntity
  8
FISHER & PAYKEL
 62
   250
420
  1316376
370
     9
100
AcDbSpline
210
0.0
220
0.0
230
1.0
 70
     8
 71
     3
 72
     8
 73
     4
 74
     0
 42
0.0000000001
 43
0.0000000001
 40
4.122408301906088
 40
4.122408301906088
 40
4.122408301906088
 40
4.122408301906088
 40
5.122408301906088
 40
5.122408301906088
 40
5.122408301906088
 40
5.122408301906088
 10
-829.4962658707528
 20
-1301.884252897985
 30
0.0
 10
-831.397768560597
 20
-1301.884252897985
 30
0.0
 10
-832.6325105669893
 20
-1302.857935165883
 30
0.0
 10
-833.8743082419893
 20
-1304.635963655087
 30
0.0
  0
SPLINE
  5
232
330
1F
100
AcDbEntity
  8
FISHER & PAYKEL
 62
   250
420
  1316376
370
     9
100
AcDbSpline
210
0.0
220
0.0
230
1.0
 70
     8
 71
     3
 72
     8
 73
     4
 74
     0
 42
0.0000000001
 43
0.0000000001
 40
3.122408301906088
 40
3.122408301906088
 40
3.122408301906088
 40
3.122408301906088
 40
4.122408301906088
 40
4.122408301906088
 40
4.122408301906088
 40
4.122408301906088
 10
-826.1166006075422
 20
-1305.059303771565
 30
0.0
 10
-826.1166006075422
 20
-1303.133106241593
 30
0.0
 10
-827.700598210028
 20
-1301.884252897985
 30
0.0
 10
-829.4962658707528
 20
-1301.884252897985
 30
0.0
  0
SPLINE
  5
233
330
1F
100
AcDbEntity
  8
FISHER & PAYKEL
 62
   250
420
  1316376
370
     9
100
AcDbSpline
210
0.0
220
0.0
230
1.0
 70
     8
 71
     3
 72
     8
 73
     4
 74
     0
 42
0.0000000001
 43
0.0000000001
 40
2.122408301906088
 40
2.122408301906088
 40
2.122408301906088
 40
2.122408301906088
 40
3.122408301906088
 40
3.122408301906088
 40
3.122408301906088
 40
3.122408301906088
 10
-829.4292370189772
 20
-1310.111162494861
 30
0.0
 10
-826.9738643434088
 20
-1307.892154717659
 30
0.0
 10
-826.1166006075422
 20
-1306.622134368227
 30
0.0
 10
-826.1166006075422
 20
-1305.059303771565
 30
0.0
  0
LINE
  5
234
330
1F
100
AcDbEntity
  8
FISHER & PAYKEL
 62
   250
420
  1316376
370
     9
100
AcDbLine
 10
-835.0067430535661
 20
-1315.106575869293
 30
0.0
 11
-829.4292370189772
 21
-1310.111162494861
 31
0.0
  0
SPLINE
  5
235
330
1F
100
AcDbEntity
  8
FISHER & PAYKEL
 62
   250
420
  1316376
370
     9
100
AcDbSpline
210
0.0
220
0.0
230
1.0
 70
     8
 71
     3
 72
     8
 73
     4
 74
     0
 42
0.0000000001
 43
0.0000000001
 40
3.024000000000001
 40
3.024000000000001
 40
3.024000000000001
 40
3.024000000000001
 40
4.024000000000001
 40
4.024000000000001
 40
4.024000000000001
 40
4.024000000000001
 10
-903.434733914103
 20
-1315.19124389259
 30
0.0
 10
-900.3372953952106
 20
-1315.19124389259
 30
0.0
 10
-898.4146256995426
 20
-1311.998553847489
 30
0.0
 10
-898.4146256995426
 20
-1308.569498904023
 30
0.0
  0
SPLINE
  5
236
330
1F
100
AcDbEntity
  8
FISHER & PAYKEL
 62
   250
420
  1316376
370
     9
100
AcDbSpline
210
0.0
220
0.0
230
1.0
 70
     8
 71
     3
 72
     8
 73
     4
 74
     0
 42
0.0000000001
 43
0.0000000001
 40
2.024000000000001
 40
2.024000000000001
 40
2.024000000000001
 40
2.024000000000001
 40
3.024000000000001
 40
3.024000000000001
 40
3.024000000000001
 40
3.024000000000001
 10
-908.5007039746152
 20
-1308.527164892375
 30
0.0
 10
-908.5007039746152
 20
-1311.952692001538
 30
0.0
 10
-906.5357002672996
 20
-1315.19124389259
 30
0.0
 10
-903.434733914103
 20
-1315.19124389259
 30
0.0
  0
LINE
  5
237
330
1F
100
AcDbEntity
  8
FISHER & PAYKEL
 62
   250
420
  1316376
370
     9
100
AcDbLine
 10
-908.5007039746152
 20
-1308.484830880728
 30
0.0
 11
-908.5007039746152
 21
-1308.527164892375
 31
0.0
  0
SPLINE
  5
238
330
1F
100
AcDbEntity
  8
FISHER & PAYKEL
 62
   250
420
  1316376
370
     9
100
AcDbSpline
210
0.0
220
0.0
230
1.0
 70
     8
 71
     3
 72
     8
 73
     4
 74
     0
 42
0.0000000001
 43
0.0000000001
 40
1.012
 40
1.012
 40
1.012
 40
1.012
 40
2.012
 40
2.012
 40
2.012
 40
2.012
 10
-903.4805957600548
 20
-1301.863085892161
 30
0.0
 10
-906.5745064446434
 20
-1301.863085892161
 30
0.0
 10
-908.5007039746152
 20
-1305.038136765741
 30
0.0
 10
-908.5007039746152
 20
-1308.484830880728
 30
0.0
  0
SPLINE
  5
239
330
1F
100
AcDbEntity
  8
FISHER & PAYKEL
 62
   250
420
  1316376
370
     9
100
AcDbSpline
210
0.0
220
0.0
230
1.0
 70
     8
 71
     3
 72
     8
 73
     4
 74
     0
 42
0.0000000001
 43
0.0000000001
 40
0.0120000000000005
 40
0.0120000000000005
 40
0.0120000000000005
 40
0.0120000000000005
 40
1.012
 40
1.012
 40
1.012
 40
1.012
 10
-898.4146256995426
 20
-1308.527164892375
 30
0.0
 10
-898.4146256995426
 20
-1305.080470777389
 30
0.0
 10
-900.3796294068583
 20
-1301.863085892161
 30
0.0
 10
-903.4805957600548
 20
-1301.863085892161
 30
0.0
  0
LINE
  5
23A
330
1F
100
AcDbEntity
  8
FISHER & PAYKEL
 62
   250
420
  1316376
370
     9
100
AcDbLine
 10
-898.4146256995426
 20
-1308.569498904023
 30
0.0
 11
-898.4146256995426
 21
-1308.527164892375
 31
0.0
  0
SPLINE
  5
23B
330
1F
100
AcDbEntity
  8
FISHER & PAYKEL
 62
   250
420
  1316376
370
     9
100
AcDbSpline
210
0.0
220
0.0
230
1.0
 70
     8
 71
     3
 72
     8
 73
     4
 74
     0
 42
0.0000000001
 43
0.0000000001
 40
5.024000000000001
 40
5.024000000000001
 40
5.024000000000001
 40
5.024000000000001
 40
6.024000000000001
 40
6.024000000000001
 40
6.024000000000001
 40
6.024000000000001
 10
-903.4805957600548
 20
-1316.186093166311
 30
0.0
 10
-907.2836011397429
 20
-1316.186093166311
 30
0.0
 10
-909.65783362632
 20
-1312.651203193725
 30
0.0
 10
-909.65783362632
 20
-1308.569498904023
 30
0.0
  0
SPLINE
  5
23C
330
1F
100
AcDbEntity
  8
FISHER & PAYKEL
 62
   250
420
  1316376
370
     9
100
AcDbSpline
210
0.0
220
0.0
230
1.0
 70
     8
 71
     3
 72
     8
 73
     4
 74
     0
 42
0.0000000001
 43
0.0000000001
 40
4.024000000000001
 40
4.024000000000001
 40
4.024000000000001
 40
4.024000000000001
 40
5.024000000000001
 40
5.024000000000001
 40
5.024000000000001
 40
5.024000000000001
 10
-897.261023882142
 20
-1308.527164892375
 30
0.0
 10
-897.261023882142
 20
-1312.612397016382
 30
0.0
 10
-899.6740625460628
 20
-1316.186093166311
 30
0.0
 10
-903.4805957600548
 20
-1316.186093166311
 30
0.0
  0
LINE
  5
23D
330
1F
100
AcDbEntity
  8
FISHER & PAYKEL
 62
   250
420
  1316376
370
     9
100
AcDbLine
 10
-897.261023882142
 20
-1308.484830880728
 30
0.0
 11
-897.261023882142
 21
-1308.527164892375
 31
0.0
  0
SPLINE
  5
23E
330
1F
100
AcDbEntity
  8
FISHER & PAYKEL
 62
   250
420
  1316376
370
     9
100
AcDbSpline
210
0.0
220
0.0
230
1.0
 70
     8
 71
     3
 72
     8
 73
     4
 74
     0
 42
0.0000000001
 43
0.0000000001
 40
3.012
 40
3.012
 40
3.012
 40
3.012
 40
4.012
 40
4.012
 40
4.012
 40
4.012
 10
-903.434733914103
 20
-1300.868236618439
 30
0.0
 10
-899.631728534415
 20
-1300.868236618439
 30
0.0
 10
-897.261023882142
 20
-1304.399598756721
 30
0.0
 10
-897.261023882142
 20
-1308.484830880728
 30
0.0
  0
SPLINE
  5
23F
330
1F
100
AcDbEntity
  8
FISHER & PAYKEL
 62
   250
420
  1316376
370
     9
100
AcDbSpline
210
0.0
220
0.0
230
1.0
 70
     8
 71
     3
 72
     8
 73
     4
 74
     0
 42
0.0000000001
 43
0.0000000001
 40
2.012
 40
2.012
 40
2.012
 40
2.012
 40
3.012
 40
3.012
 40
3.012
 40
3.012
 10
-909.65783362632
 20
-1308.527164892375
 30
0.0
 10
-909.65783362632
 20
-1304.445460602673
 30
0.0
 10
-907.2412671280953
 20
-1300.868236618439
 30
0.0
 10
-903.434733914103
 20
-1300.868236618439
 30
0.0
  0
LINE
  5
240
330
1F
100
AcDbEntity
  8
FISHER & PAYKEL
 62
   250
420
  1316376
370
     9
100
AcDbLine
 10
-909.65783362632
 20
-1308.569498904023
 30
0.0
 11
-909.65783362632
 21
-1308.527164892375
 31
0.0
  0
SPLINE
  5
241
330
1F
100
AcDbEntity
  8
FISHER & PAYKEL
 62
   250
420
  1316376
370
     9
100
AcDbSpline
210
0.0
220
0.0
230
1.0
 70
     8
 71
     3
 72
     8
 73
     4
 74
     0
 42
0.0000000001
 43
0.0000000001
 40
3.024000000000001
 40
3.024000000000001
 40
3.024000000000001
 40
3.024000000000001
 40
4.024000000000001
 40
4.024000000000001
 40
4.024000000000001
 40
4.024000000000001
 10
-918.5730236959022
 20
-1315.19124389259
 30
0.0
 10
-915.4720573427059
 20
-1315.19124389259
 30
0.0
 10
-913.5493876470379
 20
-1311.998553847489
 30
0.0
 10
-913.5493876470379
 20
-1308.569498904023
 30
0.0
  0
SPLINE
  5
242
330
1F
100
AcDbEntity
  8
FISHER & PAYKEL
 62
   250
420
  1316376
370
     9
100
AcDbSpline
210
0.0
220
0.0
230
1.0
 70
     8
 71
     3
 72
     8
 73
     4
 74
     0
 42
0.0000000001
 43
0.0000000001
 40
2.024000000000001
 40
2.024000000000001
 40
2.024000000000001
 40
2.024000000000001
 40
3.024000000000001
 40
3.024000000000001
 40
3.024000000000001
 40
3.024000000000001
 10
-923.6354659221105
 20
-1308.527164892375
 30
0.0
 10
-923.6354659221105
 20
-1311.952692001538
 30
0.0
 10
-921.6704622147948
 20
-1315.19124389259
 30
0.0
 10
-918.5730236959022
 20
-1315.19124389259
 30
0.0
  0
LINE
  5
243
330
1F
100
AcDbEntity
  8
FISHER & PAYKEL
 62
   250
420
  1316376
370
     9
100
AcDbLine
 10
-923.6354659221105
 20
-1308.484830880728
 30
0.0
 11
-923.6354659221105
 21
-1308.527164892375
 31
0.0
  0
SPLINE
  5
244
330
1F
100
AcDbEntity
  8
FISHER & PAYKEL
 62
   250
420
  1316376
370
     9
100
AcDbSpline
210
0.0
220
0.0
230
1.0
 70
     8
 71
     3
 72
     8
 73
     4
 74
     0
 42
0.0000000001
 43
0.0000000001
 40
1.012
 40
1.012
 40
1.012
 40
1.012
 40
2.012
 40
2.012
 40
2.012
 40
2.012
 10
-918.6153577075501
 20
-1301.863085892161
 30
0.0
 10
-921.7127962264425
 20
-1301.863085892161
 30
0.0
 10
-923.6354659221105
 20
-1305.038136765741
 30
0.0
 10
-923.6354659221105
 20
-1308.484830880728
 30
0.0
  0
SPLINE
  5
245
330
1F
100
AcDbEntity
  8
FISHER & PAYKEL
 62
   250
420
  1316376
370
     9
100
AcDbSpline
210
0.0
220
0.0
230
1.0
 70
     8
 71
     3
 72
     8
 73
     4
 74
     0
 42
0.0000000001
 43
0.0000000001
 40
0.0120000000000005
 40
0.0120000000000005
 40
0.0120000000000005
 40
0.0120000000000005
 40
1.012
 40
1.012
 40
1.012
 40
1.012
 10
-913.5493876470379
 20
-1308.527164892375
 30
0.0
 10
-913.5493876470379
 20
-1305.080470777389
 30
0.0
 10
-915.5179191886574
 20
-1301.863085892161
 30
0.0
 10
-918.6153577075501
 20
-1301.863085892161
 30
0.0
  0
LINE
  5
246
330
1F
100
AcDbEntity
  8
FISHER & PAYKEL
 62
   250
420
  1316376
370
     9
100
AcDbLine
 10
-913.5493876470379
 20
-1308.569498904023
 30
0.0
 11
-913.5493876470379
 21
-1308.527164892375
 31
0.0
  0
SPLINE
  5
247
330
1F
100
AcDbEntity
  8
FISHER & PAYKEL
 62
   250
420
  1316376
370
     9
100
AcDbSpline
210
0.0
220
0.0
230
1.0
 70
     8
 71
     3
 72
     8
 73
     4
 74
     0
 42
0.0000000001
 43
0.0000000001
 40
5.024000000000001
 40
5.024000000000001
 40
5.024000000000001
 40
5.024000000000001
 40
6.024000000000001
 40
6.024000000000001
 40
6.024000000000001
 40
6.024000000000001
 10
-918.6153577075501
 20
-1316.186093166311
 30
0.0
 10
-922.4218909215421
 20
-1316.186093166311
 30
0.0
 10
-924.7925955738152
 20
-1312.651203193725
 30
0.0
 10
-924.7925955738152
 20
-1308.569498904023
 30
0.0
  0
SPLINE
  5
248
330
1F
100
AcDbEntity
  8
FISHER & PAYKEL
 62
   250
420
  1316376
370
     9
100
AcDbSpline
210
0.0
220
0.0
230
1.0
 70
     8
 71
     3
 72
     8
 73
     4
 74
     0
 42
0.0000000001
 43
0.0000000001
 40
4.024000000000001
 40
4.024000000000001
 40
4.024000000000001
 40
4.024000000000001
 40
5.024000000000001
 40
5.024000000000001
 40
5.024000000000001
 40
5.024000000000001
 10
-912.395785829637
 20
-1308.527164892375
 30
0.0
 10
-912.395785829637
 20
-1312.612397016382
 30
0.0
 10
-914.8088244935578
 20
-1316.186093166311
 30
0.0
 10
-918.6153577075501
 20
-1316.186093166311
 30
0.0
  0
LINE
  5
249
330
1F
100
AcDbEntity
  8
FISHER & PAYKEL
 62
   250
420
  1316376
370
     9
100
AcDbLine
 10
-912.395785829637
 20
-1308.484830880728
 30
0.0
 11
-912.395785829637
 21
-1308.527164892375
 31
0.0
  0
SPLINE
  5
24A
330
1F
100
AcDbEntity
  8
FISHER & PAYKEL
 62
   250
420
  1316376
370
     9
100
AcDbSpline
210
0.0
220
0.0
230
1.0
 70
     8
 71
     3
 72
     8
 73
     4
 74
     0
 42
0.0000000001
 43
0.0000000001
 40
3.012
 40
3.012
 40
3.012
 40
3.012
 40
4.012
 40
4.012
 40
4.012
 40
4.012
 10
-918.5730236959022
 20
-1300.868236618439
 30
0.0
 10
-914.7700183162141
 20
-1300.868236618439
 30
0.0
 10
-912.395785829637
 20
-1304.399598756721
 30
0.0
 10
-912.395785829637
 20
-1308.484830880728
 30
0.0
  0
SPLINE
  5
24B
330
1F
100
AcDbEntity
  8
FISHER & PAYKEL
 62
   250
420
  1316376
370
     9
100
AcDbSpline
210
0.0
220
0.0
230
1.0
 70
     8
 71
     3
 72
     8
 73
     4
 74
     0
 42
0.0000000001
 43
0.0000000001
 40
2.012
 40
2.012
 40
2.012
 40
2.012
 40
3.012
 40
3.012
 40
3.012
 40
3.012
 10
-924.7925955738152
 20
-1308.527164892375
 30
0.0
 10
-924.7925955738152
 20
-1304.445460602673
 30
0.0
 10
-922.3760290755903
 20
-1300.868236618439
 30
0.0
 10
-918.5730236959022
 20
-1300.868236618439
 30
0.0
  0
LINE
  5
24C
330
1F
100
AcDbEntity
  8
FISHER & PAYKEL
 62
   250
420
  1316376
370
     9
100
AcDbLine
 10
-924.7925955738152
 20
-1308.569498904023
 30
0.0
 11
-924.7925955738152
 21
-1308.527164892375
 31
0.0
  0
POLYLINE
  5
24D
330
1F
100
AcDbEntity
  8
FISHER & PAYKEL
 62
   250
420
  1316376
370
     9
100
AcDb2dPolyline
 66
     1
 10
0.0
 20
0.0
 30
0.0
 70
     1
  0
VERTEX
  5
24E
330
24D
100
AcDbEntity
  8
FISHER & PAYKEL
 62
   250
420
  1316376
370
     9
100
AcDbVertex
100
AcDb2dVertex
 10
-929.4867318986882
 20
-1302.159776757126
 30
0.0
  0
VERTEX
  5
24F
330
24D
100
AcDbEntity
  8
FISHER & PAYKEL
 62
   250
420
  1316376
370
     9
100
AcDbVertex
100
AcDb2dVertex
 10
-932.368972525038
 20
-1303.133459025024
 30
0.0
  0
VERTEX
  5
250
330
24D
100
AcDbEntity
  8
FISHER & PAYKEL
 62
   250
420
  1316376
370
     9
100
AcDbVertex
100
AcDb2dVertex
 10
-932.6688384408761
 20
-1302.265611786245
 30
0.0
  0
VERTEX
  5
251
330
24D
100
AcDbEntity
  8
FISHER & PAYKEL
 62
   250
420
  1316376
370
     9
100
AcDbVertex
100
AcDb2dVertex
 10
-929.2538948346256
 20
-1301.016758442637
 30
0.0
  0
VERTEX
  5
252
330
24D
100
AcDbEntity
  8
FISHER & PAYKEL
 62
   250
420
  1316376
370
     9
100
AcDbVertex
100
AcDb2dVertex
 10
-928.396631098759
 20
-1301.016758442637
 30
0.0
  0
VERTEX
  5
253
330
24D
100
AcDbEntity
  8
FISHER & PAYKEL
 62
   250
420
  1316376
370
     9
100
AcDbVertex
100
AcDb2dVertex
 10
-928.396631098759
 20
-1315.932441879855
 30
0.0
  0
VERTEX
  5
254
330
24D
100
AcDbEntity
  8
FISHER & PAYKEL
 62
   250
420
  1316376
370
     9
100
AcDbVertex
100
AcDb2dVertex
 10
-929.4867318986882
 20
-1315.932441879855
 30
0.0
  0
SEQEND
  5
255
330
24D
100
AcDbEntity
  8
FISHER & PAYKEL
 62
   250
420
  1316376
370
     9
  0
POLYLINE
  5
256
330
1F
100
AcDbEntity
  8
FISHER & PAYKEL
100
AcDb2dPolyline
 66
     1
 10
0.0
 20
0.0
 30
0.0
  0
VERTEX
  5
257
330
256
100
AcDbEntity
  8
FISHER & PAYKEL
100
AcDbVertex
100
AcDb2dVertex
 10
-1014.597868821624
 20
-1350.535203327505
 30
0.0
  0
VERTEX
  5
258
330
256
100
AcDbEntity
  8
FISHER & PAYKEL
100
AcDbVertex
100
AcDb2dVertex
 10
-614.597868821624
 20
-1350.535203327505
 30
0.0
  0
SEQEND
  5
259
330
256
100
AcDbEntity
  8
FISHER & PAYKEL
  0
POLYLINE
  5
25A
330
1F
100
AcDbEntity
  8
FISHER & PAYKEL
 62
   250
420
  1316376
370
     9
100
AcDb2dPolyline
 66
     1
 10
0.0
 20
0.0
 30
0.0
  0
VERTEX
  5
25B
330
25A
100
AcDbEntity
  8
FISHER & PAYKEL
 62
   250
420
  1316376
370
     9
100
AcDbVertex
100
AcDb2dVertex
 10
-887.5944227447002
 20
-1433.994557221674
 30
0.0
  0
VERTEX
  5
25C
330
25A
100
AcDbEntity
  8
FISHER & PAYKEL
 62
   250
420
  1316376
370
     9
100
AcDbVertex
100
AcDb2dVertex
 10
-887.5944227447002
 20
-1473.996670394478
 30
0.0
  0
SEQEND
  5
25D
330
25A
100
AcDbEntity
  8
FISHER & PAYKEL
 62
   250
420
  1316376
370
     9
  0
POLYLINE
  5
25E
330
1F
100
AcDbEntity
  8
FISHER & PAYKEL
 62
   250
420
  1316376
370
     9
100
AcDb2dPolyline
 66
     1
 10
0.0
 20
0.0
 30
0.0
  0
VERTEX
  5
25F
330
25E
100
AcDbEntity
  8
FISHER & PAYKEL
 62
   250
420
  1316376
370
     9
100
AcDbVertex
100
AcDb2dVertex
 10
-760.5923878014979
 20
-1433.994557221674
 30
0.0
  0
VERTEX
  5
260
330
25E
100
AcDbEntity
  8
FISHER & PAYKEL
 62
   250
420
  1316376
370
     9
100
AcDbVertex
100
AcDb2dVertex
 10
-760.5923878014979
 20
-1473.996670394478
 30
0.0
  0
SEQEND
  5
261
330
25E
100
AcDbEntity
  8
FISHER & PAYKEL
 62
   250
420
  1316376
370
     9
  0
POLYLINE
  5
262
330
1F
100
AcDbEntity
  8
FISHER & PAYKEL
 62
   250
420
  1316376
370
     9
100
AcDb2dPolyline
 66
     1
 10
0.0
 20
0.0
 30
0.0
  0
VERTEX
  5
263
330
262
100
AcDbEntity
  8
FISHER & PAYKEL
 62
   250
420
  1316376
370
     9
100
AcDbVertex
100
AcDb2dVertex
 10
-506.5883179150934
 20
-1433.994557221674
 30
0.0
  0
VERTEX
  5
264
330
262
100
AcDbEntity
  8
FISHER & PAYKEL
 62
   250
420
  1316376
370
     9
100
AcDbVertex
100
AcDb2dVertex
 10
-506.5883179150934
 20
-1473.996670394478
 30
0.0
  0
SEQEND
  5
265
330
262
100
AcDbEntity
  8
FISHER & PAYKEL
 62
   250
420
  1316376
370
     9
  0
POLYLINE
  5
266
330
1F
100
AcDbEntity
  8
FISHER & PAYKEL
 62
   250
420
  1316376
370
     9
100
AcDb2dPolyline
 66
     1
 10
0.0
 20
0.0
 30
0.0
 70
     1
  0
VERTEX
  5
267
330
266
100
AcDbEntity
  8
FISHER & PAYKEL
 62
   250
420
  1316376
370
     9
100
AcDbVertex
100
AcDb2dVertex
 10
-1014.597868821624
 20
-1473.995259260757
 30
0.0
  0
VERTEX
  5
268
330
266
100
AcDbEntity
  8
FISHER & PAYKEL
 62
   250
420
  1316376
370
     9
100
AcDbVertex
100
AcDb2dVertex
 10
-506.5897290488148
 20
-1473.995259260757
 30
0.0
  0
VERTEX
  5
269
330
266
100
AcDbEntity
  8
FISHER & PAYKEL
 62
   250
420
  1316376
370
     9
100
AcDbVertex
100
AcDb2dVertex
 10
-506.5897290488148
 20
-1443.994556339729
 30
0.0
  0
VERTEX
  5
26A
330
266
100
AcDbEntity
  8
FISHER & PAYKEL
 62
   250
420
  1316376
370
     9
100
AcDbVertex
100
AcDb2dVertex
 10
-1014.597868821624
 20
-1443.994556339729
 30
0.0
  0
SEQEND
  5
26B
330
266
100
AcDbEntity
  8
FISHER & PAYKEL
 62
   250
420
  1316376
370
     9
  0
POLYLINE
  5
26C
330
1F
100
AcDbEntity
  8
FISHER & PAYKEL
 62
   250
420
  1316376
370
     9
100
AcDb2dPolyline
 66
     1
 10
0.0
 20
0.0
 30
0.0
 70
     1
  0
VERTEX
  5
26D
330
26C
100
AcDbEntity
  8
FISHER & PAYKEL
 62
   250
420
  1316376
370
     9
100
AcDbVertex
100
AcDb2dVertex
 10
-760.5937989352193
 20
-1473.995259260757
 30
0.0
  0
VERTEX
  5
26E
330
26C
100
AcDbEntity
  8
FISHER & PAYKEL
 62
   250
420
  1316376
370
     9
100
AcDbVertex
100
AcDb2dVertex
 10
-506.5897290488148
 20
-1473.995259260757
 30
0.0
  0
VERTEX
  5
26F
330
26C
100
AcDbEntity
  8
FISHER & PAYKEL
 62
   250
420
  1316376
370
     9
100
AcDbVertex
100
AcDb2dVertex
 10
-506.5897290488148
 20
-1458.994907800243
 30
0.0
  0
VERTEX
  5
270
330
26C
100
AcDbEntity
  8
FISHER & PAYKEL
 62
   250
420
  1316376
370
     9
100
AcDbVertex
100
AcDb2dVertex
 10
-760.5937989352193
 20
-1458.994907800243
 30
0.0
  0
SEQEND
  5
271
330
26C
100
AcDbEntity
  8
FISHER & PAYKEL
 62
   250
420
  1316376
370
     9
  0
POLYLINE
  5
272
330
1F
100
AcDbEntity
  8
FISHER & PAYKEL
 62
   250
420
  1316376
370
     9
100
AcDb2dPolyline
 66
     1
 10
0.0
 20
0.0
 30
0.0
 70
     1
  0
VERTEX
  5
273
330
272
100
AcDbEntity
  8
FISHER & PAYKEL
 62
   250
420
  1316376
370
     9
100
AcDbVertex
100
AcDb2dVertex
 10
-887.5958338784218
 20
-1458.994907800243
 30
0.0
  0
VERTEX
  5
274
330
272
100
AcDbEntity
  8
FISHER & PAYKEL
 62
   250
420
  1316376
370
     9
100
AcDbVertex
100
AcDb2dVertex
 10
-760.5937989352193
 20
-1458.994907800243
 30
0.0
  0
VERTEX
  5
275
330
272
100
AcDbEntity
  8
FISHER & PAYKEL
 62
   250
420
  1316376
370
     9
100
AcDbVertex
100
AcDb2dVertex
 10
-760.5937989352193
 20
-1443.994556339729
 30
0.0
  0
VERTEX
  5
276
330
272
100
AcDbEntity
  8
FISHER & PAYKEL
 62
   250
420
  1316376
370
     9
100
AcDbVertex
100
AcDb2dVertex
 10
-887.5958338784218
 20
-1443.994556339729
 30
0.0
  0
SEQEND
  5
277
330
272
100
AcDbEntity
  8
FISHER & PAYKEL
 62
   250
420
  1316376
370
     9
  0
POLYLINE
  5
278
330
1F
100
AcDbEntity
  8
FISHER & PAYKEL
 62
   250
420
  1316376
370
     9
100
AcDb2dPolyline
 66
     1
 10
0.0
 20
0.0
 30
0.0
 70
     1
  0
VERTEX
  5
279
330
278
100
AcDbEntity
  8
FISHER & PAYKEL
 62
   250
420
  1316376
370
     9
100
AcDbVertex
100
AcDb2dVertex
 10
-1014.597868821624
 20
-1473.995259260757
 30
0.0
  0
VERTEX
  5
27A
330
278
100
AcDbEntity
  8
FISHER & PAYKEL
 62
   250
420
  1316376
370
     9
100
AcDbVertex
100
AcDb2dVertex
 10
-887.5958338784218
 20
-1473.995259260757
 30
0.0
  0
VERTEX
  5
27B
330
278
100
AcDbEntity
  8
FISHER & PAYKEL
 62
   250
420
  1316376
370
     9
100
AcDbVertex
100
AcDb2dVertex
 10
-887.5958338784218
 20
-1458.994907800243
 30
0.0
  0
VERTEX
  5
27C
330
278
100
AcDbEntity
  8
FISHER & PAYKEL
 62
   250
420
  1316376
370
     9
100
AcDbVertex
100
AcDb2dVertex
 10
-1014.597868821624
 20
-1458.994907800243
 30
0.0
  0
SEQEND
  5
27D
330
278
100
AcDbEntity
  8
FISHER & PAYKEL
 62
   250
420
  1316376
370
     9
  0
POLYLINE
  5
27E
330
1F
100
AcDbEntity
  8
FISHER & PAYKEL
 62
   250
420
  1316376
370
     9
100
AcDb2dPolyline
 66
     1
 10
0.0
 20
0.0
 30
0.0
  0
VERTEX
  5
27F
330
27E
100
AcDbEntity
  8
FISHER & PAYKEL
 62
   250
420
  1316376
370
     9
100
AcDbVertex
100
AcDb2dVertex
 10
-1014.596457687903
 20
-1433.994557221674
 30
0.0
  0
VERTEX
  5
280
330
27E
100
AcDbEntity
  8
FISHER & PAYKEL
 62
   250
420
  1316376
370
     9
100
AcDbVertex
100
AcDb2dVertex
 10
-1014.596457687903
 20
-1473.996670394478
 30
0.0
  0
SEQEND
  5
281
330
27E
100
AcDbEntity
  8
FISHER & PAYKEL
 62
   250
420
  1316376
370
     9
  0
SPLINE
  5
282
330
1F
100
AcDbEntity
  8
FISHER & PAYKEL
 62
   250
420
  1316376
370
     9
100
AcDbSpline
210
0.0
220
0.0
230
1.0
 70
     8
 71
     3
 72
     8
 73
     4
 74
     0
 42
0.0000000001
 43
0.0000000001
 40
11.63337134138941
 40
11.63337134138941
 40
11.63337134138941
 40
11.63337134138941
 40
12.63337134138941
 40
12.63337134138941
 40
12.63337134138941
 40
12.63337134138941
 10
-431.2104934757205
 20
-1473.860848773775
 30
0.0
 10
-432.7944907005518
 20
-1473.860848773775
 30
0.0
 10
-434.5231290628764
 20
-1473.225838901856
 30
0.0
 10
-435.6802595388602
 20
-1472.294490342809
 30
0.0
  0
SPLINE
  5
283
330
1F
100
AcDbEntity
  8
FISHER & PAYKEL
 62
   250
420
  1316376
370
     9
100
AcDbSpline
210
0.0
220
0.0
230
1.0
 70
     8
 71
     3
 72
     8
 73
     4
 74
     0
 42
0.0000000001
 43
0.0000000001
 40
10.63337134138941
 40
10.63337134138941
 40
10.63337134138941
 40
10.63337134138941
 40
11.63337134138941
 40
11.63337134138941
 40
11.63337134138941
 40
11.63337134138941
 10
-427.4533499419841
 20
-1470.710492740323
 30
0.0
 10
-427.4533499419841
 20
-1472.633162435991
 30
0.0
 10
-429.1184877334616
 20
-1473.860848773775
 30
0.0
 10
-431.2104934757205
 20
-1473.860848773775
 30
0.0
  0
LINE
  5
284
330
1F
100
AcDbEntity
  8
FISHER & PAYKEL
 62
   250
420
  1316376
370
     9
100
AcDbLine
 10
-427.4533499419841
 20
-1470.668158728676
 30
0.0
 11
-427.4533499419841
 21
-1470.710492740323
 31
0.0
  0
SPLINE
  5
285
330
1F
100
AcDbEntity
  8
FISHER & PAYKEL
 62
   250
420
  1316376
370
     9
100
AcDbSpline
210
0.0
220
0.0
230
1.0
 70
     8
 71
     3
 72
     8
 73
     4
 74
     0
 42
0.0000000001
 43
0.0000000001
 40
9.62137134138941
 40
9.62137134138941
 40
9.62137134138941
 40
9.62137134138941
 40
10.62137134138941
 40
10.62137134138941
 40
10.62137134138941
 40
10.62137134138941
 10
-431.0446852634333
 20
-1467.641276895862
 30
0.0
 10
-429.2878237800525
 20
-1468.124590195507
 30
0.0
 10
-427.4533499419841
 20
-1468.763128204527
 30
0.0
 10
-427.4533499419841
 20
-1470.668158728676
 30
0.0
  0
SPLINE
  5
286
330
1F
100
AcDbEntity
  8
FISHER & PAYKEL
 62
   250
420
  1316376
370
     9
100
AcDbSpline
210
0.0
220
0.0
230
1.0
 70
     8
 71
     3
 72
     8
 73
     4
 74
     0
 42
0.0000000001
 43
0.0000000001
 40
8.62137134138941
 40
8.62137134138941
 40
8.62137134138941
 40
8.62137134138941
 40
9.62137134138941
 40
9.62137134138941
 40
9.62137134138941
 40
9.62137134138941
 10
-434.0750949305506
 20
-1465.549271153604
 30
0.0
 10
-434.0750949305506
 20
-1466.755790485564
 30
0.0
 10
-432.6004601914877
 20
-1467.196769773561
 30
0.0
 10
-431.0446852634333
 20
-1467.641276895862
 30
0.0
  0
LINE
  5
287
330
1F
100
AcDbEntity
  8
FISHER & PAYKEL
 62
   250
420
  1316376
370
     9
100
AcDbLine
 10
-434.0750949305506
 20
-1465.503409307652
 30
0.0
 11
-434.0750949305506
 21
-1465.549271153604
 31
0.0
  0
SPLINE
  5
288
330
1F
100
AcDbEntity
  8
FISHER & PAYKEL
 62
   250
420
  1316376
370
     9
100
AcDbSpline
210
0.0
220
0.0
230
1.0
 70
     8
 71
     3
 72
     8
 73
     4
 74
     0
 42
0.0000000001
 43
0.0000000001
 40
7.608371341389377
 40
7.608371341389377
 40
7.608371341389377
 40
7.608371341389377
 40
8.608371341389377
 40
8.608371341389377
 40
8.608371341389377
 40
8.608371341389377
 10
-431.5985552491578
 20
-1463.619545789328
 30
0.0
 10
-433.0943569940445
 20
-1463.619545789328
 30
0.0
 10
-434.0750949305506
 20
-1464.427419844939
 30
0.0
 10
-434.0750949305506
 20
-1465.503409307652
 30
0.0
  0
SPLINE
  5
289
330
1F
100
AcDbEntity
  8
FISHER & PAYKEL
 62
   250
420
  1316376
370
     9
100
AcDbSpline
210
0.0
220
0.0
230
1.0
 70
     8
 71
     3
 72
     8
 73
     4
 74
     0
 42
0.0000000001
 43
0.0000000001
 40
6.608371341389377
 40
6.608371341389377
 40
6.608371341389377
 40
6.608371341389377
 40
7.608371341389377
 40
7.608371341389377
 40
7.608371341389377
 40
7.608371341389377
 10
-428.2435848260751
 20
-1464.702590920649
 30
0.0
 10
-429.2454897684046
 20
-1464.046413740109
 30
0.0
 10
-430.4449534317572
 20
-1463.619545789328
 30
0.0
 10
-431.5985552491578
 20
-1463.619545789328
 30
0.0
  0
LINE
  5
28A
330
1F
100
AcDbEntity
  8
FISHER & PAYKEL
 62
   250
420
  1316376
370
     9
100
AcDbLine
 10
-427.6861870060465
 20
-1463.83474368187
 30
0.0
 11
-428.2435848260751
 21
-1464.702590920649
 31
0.0
  0
SPLINE
  5
28B
330
1F
100
AcDbEntity
  8
FISHER & PAYKEL
 62
   250
420
  1316376
370
     9
100
AcDbSpline
210
0.0
220
0.0
230
1.0
 70
     8
 71
     3
 72
     8
 73
     4
 74
     0
 42
0.0000000001
 43
0.0000000001
 40
5.316001712323663
 40
5.316001712323663
 40
5.316001712323663
 40
5.316001712323663
 40
6.316001712323663
 40
6.316001712323663
 40
6.316001712323663
 40
6.316001712323663
 10
-431.5526934032063
 20
-1462.649391355734
 30
0.0
 10
-430.2509225450386
 20
-1462.649391355734
 30
0.0
 10
-428.7762878059758
 20
-1463.111537649555
 30
0.0
 10
-427.6861870060465
 20
-1463.83474368187
 30
0.0
  0
SPLINE
  5
28C
330
1F
100
AcDbEntity
  8
FISHER & PAYKEL
 62
   250
420
  1316376
370
     9
100
AcDbSpline
210
0.0
220
0.0
230
1.0
 70
     8
 71
     3
 72
     8
 73
     4
 74
     0
 42
0.0000000001
 43
0.0000000001
 40
4.316001712323663
 40
4.316001712323663
 40
4.316001712323663
 40
4.316001712323663
 40
5.316001712323663
 40
5.316001712323663
 40
5.316001712323663
 40
5.316001712323663
 10
-435.1440287246556
 20
-1465.630411342595
 30
0.0
 10
-435.1440287246556
 20
-1463.894716865038
 30
0.0
 10
-433.669393985593
 20
-1462.649391355734
 30
0.0
 10
-431.5526934032063
 20
-1462.649391355734
 30
0.0
  0
LINE
  5
28D
330
1F
100
AcDbEntity
  8
FISHER & PAYKEL
 62
   250
420
  1316376
370
     9
100
AcDbLine
 10
-435.1440287246556
 20
-1465.672745354243
 30
0.0
 11
-435.1440287246556
 21
-1465.630411342595
 31
0.0
  0
SPLINE
  5
28E
330
1F
100
AcDbEntity
  8
FISHER & PAYKEL
 62
   250
420
  1316376
370
     9
100
AcDbSpline
210
0.0
220
0.0
230
1.0
 70
     8
 71
     3
 72
     8
 73
     4
 74
     0
 42
0.0000000001
 43
0.0000000001
 40
3.304001712323663
 40
3.304001712323663
 40
3.304001712323663
 40
3.304001712323663
 40
4.304001712323663
 40
4.304001712323663
 40
4.304001712323663
 40
4.304001712323663
 10
-431.4045243624392
 20
-1468.636126169584
 30
0.0
 10
-433.17902501734
 20
-1468.124590195507
 30
0.0
 10
-435.1440287246556
 20
-1467.598942884215
 30
0.0
 10
-435.1440287246556
 20
-1465.672745354243
 30
0.0
  0
SPLINE
  5
28F
330
1F
100
AcDbEntity
  8
FISHER & PAYKEL
 62
   250
420
  1316376
370
     9
100
AcDbSpline
210
0.0
220
0.0
230
1.0
 70
     8
 71
     3
 72
     8
 73
     4
 74
     0
 42
0.0000000001
 43
0.0000000001
 40
2.304001712323663
 40
2.304001712323663
 40
2.304001712323663
 40
2.304001712323663
 40
3.304001712323663
 40
3.304001712323663
 40
3.304001712323663
 40
3.304001712323663
 10
-428.5222837360892
 20
-1470.791632929315
 30
0.0
 10
-428.5222837360892
 20
-1469.525140414187
 30
0.0
 10
-429.8840277774246
 20
-1469.059466286062
 30
0.0
 10
-431.4045243624392
 20
-1468.636126169584
 30
0.0
  0
LINE
  5
290
330
1F
100
AcDbEntity
  8
FISHER & PAYKEL
 62
   250
420
  1316376
370
     9
100
AcDbLine
 10
-428.5222837360892
 20
-1470.833966940962
 30
0.0
 11
-428.5222837360892
 21
-1470.791632929315
 31
0.0
  0
SPLINE
  5
291
330
1F
100
AcDbEntity
  8
FISHER & PAYKEL
 62
   250
420
  1316376
370
     9
100
AcDbSpline
210
0.0
220
0.0
230
1.0
 70
     8
 71
     3
 72
     8
 73
     4
 74
     0
 42
0.0000000001
 43
0.0000000001
 40
1.292001712323663
 40
1.292001712323663
 40
1.292001712323663
 40
1.292001712323663
 40
2.292001712323663
 40
2.292001712323663
 40
2.292001712323663
 40
2.292001712323663
 10
-431.1469924582485
 20
-1472.887166505878
 30
0.0
 10
-429.6723577191862
 20
-1472.887166505878
 30
0.0
 10
-428.5222837360892
 20
-1472.082820284571
 30
0.0
 10
-428.5222837360892
 20
-1470.833966940962
 30
0.0
  0
SPLINE
  5
292
330
1F
100
AcDbEntity
  8
FISHER & PAYKEL
 62
   250
420
  1316376
370
     9
100
AcDbSpline
210
0.0
220
0.0
230
1.0
 70
     8
 71
     3
 72
     8
 73
     4
 74
     0
 42
0.0000000001
 43
0.0000000001
 40
0.2920017123236627
 40
0.2920017123236627
 40
0.2920017123236627
 40
0.2920017123236627
 40
1.292001712323663
 40
1.292001712323663
 40
1.292001712323663
 40
1.292001712323663
 10
-435.0593607013603
 20
-1471.472504949983
 30
0.0
 10
-433.8598970380077
 20
-1472.379158366105
 30
0.0
 10
-432.536959174016
 20
-1472.887166505878
 30
0.0
 10
-431.1469924582485
 20
-1472.887166505878
 30
0.0
  0
LINE
  5
293
330
1F
100
AcDbEntity
  8
FISHER & PAYKEL
 62
   250
420
  1316376
370
     9
100
AcDbLine
 10
-435.6802595388602
 20
-1472.294490342809
 30
0.0
 11
-435.0593607013603
 21
-1471.472504949983
 31
0.0
  0
LINE
  5
294
330
1F
100
AcDbEntity
  8
FISHER & PAYKEL
 62
   250
420
  1316376
370
     9
100
AcDbLine
 10
-446.8215130542527
 20
-1467.746759141551
 30
0.0
 11
-438.8944693732143
 21
-1467.746759141551
 31
0.0
  0
SPLINE
  5
295
330
1F
100
AcDbEntity
  8
FISHER & PAYKEL
 62
   250
420
  1316376
370
     9
100
AcDbSpline
210
0.0
220
0.0
230
1.0
 70
     8
 71
     3
 72
     8
 73
     4
 74
     0
 42
0.0000000001
 43
0.0000000001
 40
1.0
 40
1.0
 40
1.0
 40
1.0
 40
2.0
 40
2.0
 40
2.0
 40
2.0
 10
-442.8033097820218
 20
-1463.55921982273
 30
0.0
 10
-444.9623443760562
 20
-1463.55921982273
 30
0.0
 10
-446.6274821675337
 20
-1465.354887483454
 30
0.0
 10
-446.8215130542527
 20
-1467.746759141551
 30
0.0
  0
SPLINE
  5
296
330
1F
100
AcDbEntity
  8
FISHER & PAYKEL
 62
   250
420
  1316376
370
     9
100
AcDbSpline
210
0.0
220
0.0
230
1.0
 70
     8
 71
     3
 72
     8
 73
     4
 74
     0
 42
0.0000000001
 43
0.0000000001
 40
0.0
 40
0.0
 40
0.0
 40
0.0
 40
1.0
 40
1.0
 40
1.0
 40
1.0
 10
-438.8944693732143
 20
-1467.746759141551
 30
0.0
 10
-439.0426384139813
 20
-1465.570085375997
 30
0.0
 10
-440.3020752605015
 20
-1463.55921982273
 30
0.0
 10
-442.8033097820218
 20
-1463.55921982273
 30
0.0
  0
SPLINE
  5
297
330
1F
100
AcDbEntity
  8
FISHER & PAYKEL
 62
   250
420
  1316376
370
     9
100
AcDbSpline
210
0.0
220
0.0
230
1.0
 70
     8
 71
     3
 72
     8
 73
     4
 74
     0
 42
0.0000000001
 43
0.0000000001
 40
10.84822071402436
 40
10.84822071402436
 40
10.84822071402436
 40
10.84822071402436
 40
11.84822071402436
 40
11.84822071402436
 40
11.84822071402436
 40
11.84822071402436
 10
-442.5916397237833
 20
-1473.902830001993
 30
0.0
 10
-445.4527133443092
 20
-1473.902830001993
 30
0.0
 10
-447.9327808600057
 20
-1471.641488213143
 30
0.0
 10
-447.9327808600057
 20
-1468.275934287148
 30
0.0
  0
SPLINE
  5
298
330
1F
100
AcDbEntity
  8
FISHER & PAYKEL
 62
   250
420
  1316376
370
     9
100
AcDbSpline
210
0.0
220
0.0
230
1.0
 70
     8
 71
     3
 72
     8
 73
     4
 74
     0
 42
0.0000000001
 43
0.0000000001
 40
9.848220714024357
 40
9.848220714024357
 40
9.848220714024357
 40
9.848220714024357
 40
10.84822071402436
 40
10.84822071402436
 40
10.84822071402436
 40
10.84822071402436
 10
-438.0830674832995
 20
-1471.874325277206
 30
0.0
 10
-439.1943352890524
 20
-1473.056149769038
 30
0.0
 10
-440.4961061472203
 20
-1473.902830001993
 30
0.0
 10
-442.5916397237833
 20
-1473.902830001993
 30
0.0
  0
LINE
  5
299
330
1F
100
AcDbEntity
  8
FISHER & PAYKEL
 62
   250
420
  1316376
370
     9
100
AcDbLine
 10
-438.809801349919
 20
-1471.235787268185
 30
0.0
 11
-438.0830674832995
 21
-1471.874325277206
 31
0.0
  0
SPLINE
  5
29A
330
1F
100
AcDbEntity
  8
FISHER & PAYKEL
 62
   250
420
  1316376
370
     9
100
AcDbSpline
210
0.0
220
0.0
230
1.0
 70
     8
 71
     3
 72
     8
 73
     4
 74
     0
 42
0.0000000001
 43
0.0000000001
 40
8.574000000000012
 40
8.574000000000012
 40
8.574000000000012
 40
8.574000000000012
 40
9.574000000000012
 40
9.574000000000012
 40
9.574000000000012
 40
9.574000000000012
 10
-442.5493057121354
 20
-1472.929147734095
 30
0.0
 10
-440.8630009148341
 20
-1472.929147734095
 30
0.0
 10
-439.7023434288252
 20
-1472.191830364563
 30
0.0
 10
-438.809801349919
 20
-1471.235787268185
 30
0.0
  0
SPLINE
  5
29B
330
1F
100
AcDbEntity
  8
FISHER & PAYKEL
 62
   250
420
  1316376
370
     9
100
AcDbSpline
210
0.0
220
0.0
230
1.0
 70
     8
 71
     3
 72
     8
 73
     4
 74
     0
 42
0.0000000001
 43
0.0000000001
 40
7.574000000000012
 40
7.574000000000012
 40
7.574000000000012
 40
7.574000000000012
 40
8.574000000000012
 40
8.574000000000012
 40
8.574000000000012
 40
8.574000000000012
 10
-446.8215130542527
 20
-1468.678107397802
 30
0.0
 10
-446.6274821675337
 20
-1471.362789303129
 30
0.0
 10
-444.687173300346
 20
-1472.929147734095
 30
0.0
 10
-442.5493057121354
 20
-1472.929147734095
 30
0.0
  0
LINE
  5
29C
330
1F
100
AcDbEntity
  8
FISHER & PAYKEL
 62
   250
420
  1316376
370
     9
100
AcDbLine
 10
-437.7832015674616
 20
-1468.678107397802
 30
0.0
 11
-446.8215130542527
 21
-1468.678107397802
 31
0.0
  0
SPLINE
  5
29D
330
1F
100
AcDbEntity
  8
FISHER & PAYKEL
 62
   250
420
  1316376
370
     9
100
AcDbSpline
210
0.0
220
0.0
230
1.0
 70
     8
 71
     3
 72
     8
 73
     4
 74
     0
 42
0.0000000001
 43
0.0000000001
 40
4.012
 40
4.012
 40
4.012
 40
4.012
 40
5.012
 40
5.012
 40
5.012
 40
5.012
 10
-437.7620345616373
 20
-1468.258295115628
 30
0.0
 10
-437.7620345616373
 20
-1468.445270333739
 30
0.0
 10
-437.7620345616373
 20
-1468.50877135121
 30
0.0
 10
-437.7832015674616
 20
-1468.678107397802
 30
0.0
  0
SPLINE
  5
29E
330
1F
100
AcDbEntity
  8
FISHER & PAYKEL
 62
   250
420
  1316376
370
     9
100
AcDbSpline
210
0.0
220
0.0
230
1.0
 70
     8
 71
     3
 72
     8
 73
     4
 74
     0
 42
0.0000000001
 43
0.0000000001
 40
3.012
 40
3.012
 40
3.012
 40
3.012
 40
4.012
 40
4.012
 40
4.012
 40
4.012
 10
-442.764503604678
 20
-1462.606704560656
 30
0.0
 10
-439.7023434288252
 20
-1462.606704560656
 30
0.0
 10
-437.7620345616373
 20
-1465.05854940192
 30
0.0
 10
-437.7620345616373
 20
-1468.258295115628
 30
0.0
  0
SPLINE
  5
29F
330
1F
100
AcDbEntity
  8
FISHER & PAYKEL
 62
   250
420
  1316376
370
     9
100
AcDbSpline
210
0.0
220
0.0
230
1.0
 70
     8
 71
     3
 72
     8
 73
     4
 74
     0
 42
0.0000000001
 43
0.0000000001
 40
2.012
 40
2.012
 40
2.012
 40
2.012
 40
3.012
 40
3.012
 40
3.012
 40
3.012
 10
-447.9327808600057
 20
-1468.2336002755
 30
0.0
 10
-447.9327808600057
 20
-1465.100883413568
 30
0.0
 10
-445.7137730828036
 20
-1462.606704560656
 30
0.0
 10
-442.764503604678
 20
-1462.606704560656
 30
0.0
  0
LINE
  5
2A0
330
1F
100
AcDbEntity
  8
FISHER & PAYKEL
 62
   250
420
  1316376
370
     9
100
AcDbLine
 10
-447.9327808600057
 20
-1468.275934287148
 30
0.0
 11
-447.9327808600057
 21
-1468.2336002755
 31
0.0
  0
LINE
  5
2A1
330
1F
100
AcDbEntity
  8
FISHER & PAYKEL
 62
   250
420
  1316376
370
     9
100
AcDbLine
 10
-460.2509198992051
 20
-1473.648473148676
 30
0.0
 11
-460.2509198992051
 21
-1458.203614565861
 31
0.0
  0
LINE
  5
2A2
330
1F
100
AcDbEntity
  8
FISHER & PAYKEL
 62
   250
420
  1316376
370
     9
100
AcDbLine
 10
-459.2031531109236
 20
-1473.648473148676
 30
0.0
 11
-460.2509198992051
 21
-1473.648473148676
 31
0.0
  0
LINE
  5
2A3
330
1F
100
AcDbEntity
  8
FISHER & PAYKEL
 62
   250
420
  1316376
370
     9
100
AcDbLine
 10
-459.2031531109236
 20
-1467.407734264939
 30
0.0
 11
-459.2031531109236
 21
-1473.648473148676
 31
0.0
  0
SPLINE
  5
2A4
330
1F
100
AcDbEntity
  8
FISHER & PAYKEL
 62
   250
420
  1316376
370
     9
100
AcDbSpline
210
0.0
220
0.0
230
1.0
 70
     8
 71
     3
 72
     8
 73
     4
 74
     0
 42
0.0000000001
 43
0.0000000001
 40
9.168999999999983
 40
9.168999999999983
 40
9.168999999999983
 40
9.168999999999983
 40
10.16899999999998
 40
10.16899999999998
 40
10.16899999999998
 40
10.16899999999998
 10
-455.4213147370593
 20
-1463.558867039299
 30
0.0
 10
-457.555654490966
 20
-1463.558867039299
 30
0.0
 10
-459.2031531109236
 20
-1465.167559481913
 30
0.0
 10
-459.2031531109236
 20
-1467.407734264939
 30
0.0
  0
SPLINE
  5
2A5
330
1F
100
AcDbEntity
  8
FISHER & PAYKEL
 62
   250
420
  1316376
370
     9
100
AcDbSpline
210
0.0
220
0.0
230
1.0
 70
     8
 71
     3
 72
     8
 73
     4
 74
     0
 42
0.0000000001
 43
0.0000000001
 40
8.168999999999983
 40
8.168999999999983
 40
8.168999999999983
 40
8.168999999999983
 40
9.168999999999983
 40
9.168999999999983
 40
9.168999999999983
 40
9.168999999999983
 10
-451.9605092848573
 20
-1467.241926052652
 30
0.0
 10
-451.9605092848573
 20
-1465.019390441146
 30
0.0
 10
-453.2234739656811
 20
-1463.558867039299
 30
0.0
 10
-455.4213147370593
 20
-1463.558867039299
 30
0.0
  0
LINE
  5
2A6
330
1F
100
AcDbEntity
  8
FISHER & PAYKEL
 62
   250
420
  1316376
370
     9
100
AcDbLine
 10
-451.9605092848573
 20
-1473.648473148676
 30
0.0
 11
-451.9605092848573
 21
-1467.241926052652
 31
0.0
  0
LINE
  5
2A7
330
1F
100
AcDbEntity
  8
FISHER & PAYKEL
 62
   250
420
  1316376
370
     9
100
AcDbLine
 10
-450.9162703308795
 20
-1473.648473148676
 30
0.0
 11
-451.9605092848573
 21
-1473.648473148676
 31
0.0
  0
LINE
  5
2A8
330
1F
100
AcDbEntity
  8
FISHER & PAYKEL
 62
   250
420
  1316376
370
     9
100
AcDbLine
 10
-450.9162703308795
 20
-1467.051423000237
 30
0.0
 11
-450.9162703308795
 21
-1473.648473148676
 31
0.0
  0
SPLINE
  5
2A9
330
1F
100
AcDbEntity
  8
FISHER & PAYKEL
 62
   250
420
  1316376
370
     9
100
AcDbSpline
210
0.0
220
0.0
230
1.0
 70
     8
 71
     3
 72
     8
 73
     4
 74
     0
 42
0.0000000001
 43
0.0000000001
 40
3.187000000000012
 40
3.187000000000012
 40
3.187000000000012
 40
3.187000000000012
 40
4.187000000000012
 40
4.187000000000012
 40
4.187000000000012
 40
4.187000000000012
 10
-455.2731456962923
 20
-1462.606351777225
 30
0.0
 10
-452.5143792705818
 20
-1462.606351777225
 30
0.0
 10
-450.9162703308795
 20
-1464.465520455421
 30
0.0
 10
-450.9162703308795
 20
-1467.051423000237
 30
0.0
  0
SPLINE
  5
2AA
330
1F
100
AcDbEntity
  8
FISHER & PAYKEL
 62
   250
420
  1316376
370
     9
100
AcDbSpline
210
0.0
220
0.0
230
1.0
 70
     8
 71
     3
 72
     8
 73
     4
 74
     0
 42
0.0000000001
 43
0.0000000001
 40
2.187000000000012
 40
2.187000000000012
 40
2.187000000000012
 40
2.187000000000012
 40
3.187000000000012
 40
3.187000000000012
 40
3.187000000000012
 40
3.187000000000012
 10
-459.2031531109236
 20
-1464.871221400379
 30
0.0
 10
-458.4764192443043
 20
-1463.597673216643
 30
0.0
 10
-457.259316409432
 20
-1462.606351777225
 30
0.0
 10
-455.2731456962923
 20
-1462.606351777225
 30
0.0
  0
LINE
  5
2AB
330
1F
100
AcDbEntity
  8
FISHER & PAYKEL
 62
   250
420
  1316376
370
     9
100
AcDbLine
 10
-459.2031531109236
 20
-1458.203614565861
 30
0.0
 11
-459.2031531109236
 21
-1464.871221400379
 31
0.0
  0
LINE
  5
2AC
330
1F
100
AcDbEntity
  8
FISHER & PAYKEL
 62
   250
420
  1316376
370
     9
100
AcDbLine
 10
-460.2509198992051
 20
-1458.203614565861
 30
0.0
 11
-459.2031531109236
 21
-1458.203614565861
 31
0.0
  0
SPLINE
  5
2AD
330
1F
100
AcDbEntity
  8
FISHER & PAYKEL
 62
   250
420
  1316376
370
     9
100
AcDbSpline
210
0.0
220
0.0
230
1.0
 70
     8
 71
     3
 72
     8
 73
     4
 74
     0
 42
0.0000000001
 43
0.0000000001
 40
7.600216612233169
 40
7.600216612233169
 40
7.600216612233169
 40
7.600216612233169
 40
8.600216612233169
 40
8.600216612233169
 40
8.600216612233169
 40
8.600216612233169
 10
-467.6103350407335
 20
-1473.903888352284
 30
0.0
 10
-470.7501075712738
 20
-1473.903888352284
 30
0.0
 10
-473.1666740694985
 20
-1471.321513641772
 30
0.0
 10
-473.1666740694985
 20
-1468.298159643263
 30
0.0
  0
SPLINE
  5
2AE
330
1F
100
AcDbEntity
  8
FISHER & PAYKEL
 62
   250
420
  1316376
370
     9
100
AcDbSpline
210
0.0
220
0.0
230
1.0
 70
     8
 71
     3
 72
     8
 73
     4
 74
     0
 42
0.0000000001
 43
0.0000000001
 40
6.600216612233169
 40
6.600216612233169
 40
6.600216612233169
 40
6.600216612233169
 40
7.600216612233169
 40
7.600216612233169
 40
7.600216612233169
 40
7.600216612233169
 10
-463.1652638177214
 20
-1471.766020764073
 30
0.0
 10
-464.2730037891703
 20
-1473.014874107681
 30
0.0
 10
-465.60299732177
 20
-1473.903888352284
 30
0.0
 10
-467.6103350407335
 20
-1473.903888352284
 30
0.0
  0
LINE
  5
2AF
330
1F
100
AcDbEntity
  8
FISHER & PAYKEL
 62
   250
420
  1316376
370
     9
100
AcDbLine
 10
-463.8919976843405
 20
-1471.131010589357
 30
0.0
 11
-463.1652638177214
 21
-1471.766020764073
 31
0.0
  0
SPLINE
  5
2B0
330
1F
100
AcDbEntity
  8
FISHER & PAYKEL
 62
   250
420
  1316376
370
     9
100
AcDbSpline
210
0.0
220
0.0
230
1.0
 70
     8
 71
     3
 72
     8
 73
     4
 74
     0
 42
0.0000000001
 43
0.0000000001
 40
5.32665491900843
 40
5.32665491900843
 40
5.32665491900843
 40
5.32665491900843
 40
6.32665491900843
 40
6.32665491900843
 40
6.32665491900843
 40
6.32665491900843
 10
-467.5468340232616
 20
-1472.926678250082
 30
0.0
 10
-466.0086982667273
 20
-1472.926678250082
 30
0.0
 10
-464.812762437679
 20
-1472.147026868903
 30
0.0
 10
-463.8919976843405
 20
-1471.131010589357
 30
0.0
  0
SPLINE
  5
2B1
330
1F
100
AcDbEntity
  8
FISHER & PAYKEL
 62
   250
420
  1316376
370
     9
100
AcDbSpline
210
0.0
220
0.0
230
1.0
 70
     8
 71
     3
 72
     8
 73
     4
 74
     0
 42
0.0000000001
 43
0.0000000001
 40
4.32665491900843
 40
4.32665491900843
 40
4.32665491900843
 40
4.32665491900843
 40
5.32665491900843
 40
5.32665491900843
 40
5.32665491900843
 40
5.32665491900843
 10
-472.0342392579215
 20
-1468.255825631615
 30
0.0
 10
-472.0342392579215
 20
-1470.859367347951
 30
0.0
 10
-470.048068544782
 20
-1472.926678250082
 30
0.0
 10
-467.5468340232616
 20
-1472.926678250082
 30
0.0
  0
LINE
  5
2B2
330
1F
100
AcDbEntity
  8
FISHER & PAYKEL
 62
   250
420
  1316376
370
     9
100
AcDbLine
 10
-472.0342392579215
 20
-1468.213491619968
 30
0.0
 11
-472.0342392579215
 21
-1468.255825631615
 31
0.0
  0
SPLINE
  5
2B3
330
1F
100
AcDbEntity
  8
FISHER & PAYKEL
 62
   250
420
  1316376
370
     9
100
AcDbSpline
210
0.0
220
0.0
230
1.0
 70
     8
 71
     3
 72
     8
 73
     4
 74
     0
 42
0.0000000001
 43
0.0000000001
 40
3.31465491900843
 40
3.31465491900843
 40
3.31465491900843
 40
3.31465491900843
 40
4.314654919008429
 40
4.314654919008429
 40
4.314654919008429
 40
4.314654919008429
 10
-467.6315020465571
 20
-1463.577917344541
 30
0.0
 10
-470.1115695622537
 20
-1463.577917344541
 30
0.0
 10
-472.0342392579215
 20
-1465.631116909456
 30
0.0
 10
-472.0342392579215
 20
-1468.213491619968
 30
0.0
  0
SPLINE
  5
2B4
330
1F
100
AcDbEntity
  8
FISHER & PAYKEL
 62
   250
420
  1316376
370
     9
100
AcDbSpline
210
0.0
220
0.0
230
1.0
 70
     8
 71
     3
 72
     8
 73
     4
 74
     0
 42
0.0000000001
 43
0.0000000001
 40
2.31465491900843
 40
2.31465491900843
 40
2.31465491900843
 40
2.31465491900843
 40
3.31465491900843
 40
3.31465491900843
 40
3.31465491900843
 40
3.31465491900843
 10
-463.9978327134601
 20
-1465.355945833746
 30
0.0
 10
-464.9397644726222
 20
-1464.403430571672
 30
0.0
 10
-466.0086982667273
 20
-1463.577917344541
 30
0.0
 10
-467.6315020465571
 20
-1463.577917344541
 30
0.0
  0
LINE
  5
2B5
330
1F
100
AcDbEntity
  8
FISHER & PAYKEL
 62
   250
420
  1316376
370
     9
100
AcDbLine
 10
-463.2499318410167
 20
-1464.593933624086
 30
0.0
 11
-463.9978327134601
 21
-1465.355945833746
 31
0.0
  0
SPLINE
  5
2B6
330
1F
100
AcDbEntity
  8
FISHER & PAYKEL
 62
   250
420
  1316376
370
     9
100
AcDbSpline
210
0.0
220
0.0
230
1.0
 70
     8
 71
     3
 72
     8
 73
     4
 74
     0
 42
0.0000000001
 43
0.0000000001
 40
1.012
 40
1.012
 40
1.012
 40
1.012
 40
2.012
 40
2.012
 40
2.012
 40
2.012
 10
-467.6103350407335
 20
-1462.607762910947
 30
0.0
 10
-465.5606633101223
 20
-1462.607762910947
 30
0.0
 10
-464.2730037891703
 20
-1463.535583332893
 30
0.0
 10
-463.2499318410167
 20
-1464.593933624086
 30
0.0
  0
SPLINE
  5
2B7
330
1F
100
AcDbEntity
  8
FISHER & PAYKEL
 62
   250
420
  1316376
370
     9
100
AcDbSpline
210
0.0
220
0.0
230
1.0
 70
     8
 71
     3
 72
     8
 73
     4
 74
     0
 42
0.0000000001
 43
0.0000000001
 40
0.0120000000000005
 40
0.0120000000000005
 40
0.0120000000000005
 40
0.0120000000000005
 40
1.012
 40
1.012
 40
1.012
 40
1.012
 10
-473.1666740694985
 20
-1468.255825631615
 30
0.0
 10
-473.1666740694985
 20
-1465.228943798802
 30
0.0
 10
-470.7324683997539
 20
-1462.607762910947
 30
0.0
 10
-467.6103350407335
 20
-1462.607762910947
 30
0.0
  0
LINE
  5
2B8
330
1F
100
AcDbEntity
  8
FISHER & PAYKEL
 62
   250
420
  1316376
370
     9
100
AcDbLine
 10
-473.1666740694985
 20
-1468.298159643263
 30
0.0
 11
-473.1666740694985
 21
-1468.255825631615
 31
0.0
  0
LINE
  5
2B9
330
1F
100
AcDbEntity
  8
FISHER & PAYKEL
 62
   250
420
  1316376
370
     9
100
AcDbLine
 10
-485.4865770258497
 20
-1473.649884282398
 30
0.0
 11
-485.4865770258497
 21
-1462.861766980833
 31
0.0
  0
LINE
  5
2BA
330
1F
100
AcDbEntity
  8
FISHER & PAYKEL
 62
   250
420
  1316376
370
     9
100
AcDbLine
 10
-484.4388102375682
 20
-1473.649884282398
 30
0.0
 11
-485.4865770258497
 21
-1473.649884282398
 31
0.0
  0
LINE
  5
2BB
330
1F
100
AcDbEntity
  8
FISHER & PAYKEL
 62
   250
420
  1316376
370
     9
100
AcDbLine
 10
-484.4388102375682
 20
-1467.40914539866
 30
0.0
 11
-484.4388102375682
 21
-1473.649884282398
 31
0.0
  0
SPLINE
  5
2BC
330
1F
100
AcDbEntity
  8
FISHER & PAYKEL
 62
   250
420
  1316376
370
     9
100
AcDbSpline
210
0.0
220
0.0
230
1.0
 70
     8
 71
     3
 72
     8
 73
     4
 74
     0
 42
0.0000000001
 43
0.0000000001
 40
7.850000000000023
 40
7.850000000000023
 40
7.850000000000023
 40
7.850000000000023
 40
8.850000000000023
 40
8.850000000000023
 40
8.850000000000023
 40
8.850000000000023
 10
-480.6569718637039
 20
-1463.556750338717
 30
0.0
 10
-482.7948394519148
 20
-1463.556750338717
 30
0.0
 10
-484.4388102375682
 20
-1465.165442781331
 30
0.0
 10
-484.4388102375682
 20
-1467.40914539866
 30
0.0
  0
SPLINE
  5
2BD
330
1F
100
AcDbEntity
  8
FISHER & PAYKEL
 62
   250
420
  1316376
370
     9
100
AcDbSpline
210
0.0
220
0.0
230
1.0
 70
     8
 71
     3
 72
     8
 73
     4
 74
     0
 42
0.0000000001
 43
0.0000000001
 40
6.850000000000023
 40
6.850000000000023
 40
6.850000000000023
 40
6.850000000000023
 40
7.850000000000023
 40
7.850000000000023
 40
7.850000000000023
 40
7.850000000000023
 10
-477.1926385771977
 20
-1467.23980935207
 30
0.0
 10
-477.1926385771977
 20
-1465.017273740564
 30
0.0
 10
-478.4556032580221
 20
-1463.556750338717
 30
0.0
 10
-480.6569718637039
 20
-1463.556750338717
 30
0.0
  0
LINE
  5
2BE
330
1F
100
AcDbEntity
  8
FISHER & PAYKEL
 62
   250
420
  1316376
370
     9
100
AcDbLine
 10
-477.1926385771977
 20
-1473.649884282398
 30
0.0
 11
-477.1926385771977
 21
-1467.23980935207
 31
0.0
  0
LINE
  5
2BF
330
1F
100
AcDbEntity
  8
FISHER & PAYKEL
 62
   250
420
  1316376
370
     9
100
AcDbLine
 10
-476.1483996232204
 20
-1473.649884282398
 30
0.0
 11
-477.1926385771977
 21
-1473.649884282398
 31
0.0
  0
LINE
  5
2C0
330
1F
100
AcDbEntity
  8
FISHER & PAYKEL
 62
   250
420
  1316376
370
     9
100
AcDbLine
 10
-476.1483996232204
 20
-1467.049306299655
 30
0.0
 11
-476.1483996232204
 21
-1473.649884282398
 31
0.0
  0
SPLINE
  5
2C1
330
1F
100
AcDbEntity
  8
FISHER & PAYKEL
 62
   250
420
  1316376
370
     9
100
AcDbSpline
210
0.0
220
0.0
230
1.0
 70
     8
 71
     3
 72
     8
 73
     4
 74
     0
 42
0.0000000001
 43
0.0000000001
 40
1.866000000000042
 40
1.866000000000042
 40
1.866000000000042
 40
1.866000000000042
 40
2.866000000000042
 40
2.866000000000042
 40
2.866000000000042
 40
2.866000000000042
 10
-480.5088028229371
 20
-1462.607762910947
 30
0.0
 10
-477.7535642315303
 20
-1462.607762910947
 30
0.0
 10
-476.1483996232204
 20
-1464.466931589143
 30
0.0
 10
-476.1483996232204
 20
-1467.049306299655
 30
0.0
  0
SPLINE
  5
2C2
330
1F
100
AcDbEntity
  8
FISHER & PAYKEL
 62
   250
420
  1316376
370
     9
100
AcDbSpline
210
0.0
220
0.0
230
1.0
 70
     8
 71
     3
 72
     8
 73
     4
 74
     0
 42
0.0000000001
 43
0.0000000001
 40
0.8660000000000423
 40
0.8660000000000423
 40
0.8660000000000423
 40
0.8660000000000423
 40
1.866000000000042
 40
1.866000000000042
 40
1.866000000000042
 40
1.866000000000042
 10
-484.4388102375682
 20
-1464.869104699797
 30
0.0
 10
-483.7120763709489
 20
-1463.599084350365
 30
0.0
 10
-482.4914457017725
 20
-1462.607762910947
 30
0.0
 10
-480.5088028229371
 20
-1462.607762910947
 30
0.0
  0
LINE
  5
2C3
330
1F
100
AcDbEntity
  8
FISHER & PAYKEL
 62
   250
420
  1316376
370
     9
100
AcDbLine
 10
-484.4388102375682
 20
-1462.861766980833
 30
0.0
 11
-484.4388102375682
 21
-1464.869104699797
 31
0.0
  0
LINE
  5
2C4
330
1F
100
AcDbEntity
  8
FISHER & PAYKEL
 62
   250
420
  1316376
370
     9
100
AcDbLine
 10
-485.4865770258497
 20
-1462.861766980833
 30
0.0
 11
-484.4388102375682
 21
-1462.861766980833
 31
0.0
  0
POLYLINE
  5
2C5
330
1F
100
AcDbEntity
  8
FISHER & PAYKEL
 62
   250
420
  1316376
370
     9
100
AcDb2dPolyline
 66
     1
 10
0.0
 20
0.0
 30
0.0
 70
     1
  0
VERTEX
  5
2C6
330
2C5
100
AcDbEntity
  8
FISHER & PAYKEL
 62
   250
420
  1316376
370
     9
100
AcDbVertex
100
AcDb2dVertex
 10
-490.9296725734574
 20
-1458.839683090868
 30
0.0
  0
VERTEX
  5
2C7
330
2C5
100
AcDbEntity
  8
FISHER & PAYKEL
 62
   250
420
  1316376
370
     9
100
AcDbVertex
100
AcDb2dVertex
 10
-489.8184047677042
 20
-1458.839683090868
 30
0.0
  0
VERTEX
  5
2C8
330
2C5
100
AcDbEntity
  8
FISHER & PAYKEL
 62
   250
420
  1316376
370
     9
100
AcDbVertex
100
AcDb2dVertex
 10
-489.8184047677042
 20
-1473.646003664663
 30
0.0
  0
VERTEX
  5
2C9
330
2C5
100
AcDbEntity
  8
FISHER & PAYKEL
 62
   250
420
  1316376
370
     9
100
AcDbVertex
100
AcDb2dVertex
 10
-490.9296725734574
 20
-1473.646003664663
 30
0.0
  0
SEQEND
  5
2CA
330
2C5
100
AcDbEntity
  8
FISHER & PAYKEL
 62
   250
420
  1316376
370
     9
  0
SPLINE
  5
2CB
330
1F
100
AcDbEntity
  8
FISHER & PAYKEL
 62
   250
420
  1316376
370
     9
100
AcDbSpline
210
0.0
220
0.0
230
1.0
 70
     8
 71
     3
 72
     8
 73
     4
 74
     0
 42
0.0000000001
 43
0.0000000001
 40
3.024000000000001
 40
3.024000000000001
 40
3.024000000000001
 40
3.024000000000001
 40
4.024000000000001
 40
4.024000000000001
 40
4.024000000000001
 40
4.024000000000001
 10
-1014.569293363762
 20
-1423.655886010436
 30
0.0
 10
-1011.471854844869
 20
-1423.655886010436
 30
0.0
 10
-1009.549185149201
 20
-1420.459668131032
 30
0.0
 10
-1009.549185149201
 20
-1417.03414102187
 30
0.0
  0
SPLINE
  5
2CC
330
1F
100
AcDbEntity
  8
FISHER & PAYKEL
 62
   250
420
  1316376
370
     9
100
AcDbSpline
210
0.0
220
0.0
230
1.0
 70
     8
 71
     3
 72
     8
 73
     4
 74
     0
 42
0.0000000001
 43
0.0000000001
 40
2.024000000000001
 40
2.024000000000001
 40
2.024000000000001
 40
2.024000000000001
 40
3.024000000000001
 40
3.024000000000001
 40
3.024000000000001
 40
3.024000000000001
 10
-1019.635263424274
 20
-1416.988279175918
 30
0.0
 10
-1019.635263424274
 20
-1420.417334119385
 30
0.0
 10
-1017.670259716958
 20
-1423.655886010436
 30
0.0
 10
-1014.569293363762
 20
-1423.655886010436
 30
0.0
  0
LINE
  5
2CD
330
1F
100
AcDbEntity
  8
FISHER & PAYKEL
 62
   250
420
  1316376
370
     9
100
AcDbLine
 10
-1019.635263424274
 20
-1416.949472998574
 30
0.0
 11
-1019.635263424274
 21
-1416.988279175918
 31
0.0
  0
SPLINE
  5
2CE
330
1F
100
AcDbEntity
  8
FISHER & PAYKEL
 62
   250
420
  1316376
370
     9
100
AcDbSpline
210
0.0
220
0.0
230
1.0
 70
     8
 71
     3
 72
     8
 73
     4
 74
     0
 42
0.0000000001
 43
0.0000000001
 40
1.012999999999977
 40
1.012999999999977
 40
1.012999999999977
 40
1.012999999999977
 40
2.012999999999977
 40
2.012999999999977
 40
2.012999999999977
 40
2.012999999999977
 10
-1014.615155209714
 20
-1410.327728010008
 30
0.0
 10
-1017.712593728606
 20
-1410.327728010008
 30
0.0
 10
-1019.635263424274
 20
-1413.499251049284
 30
0.0
 10
-1019.635263424274
 20
-1416.949472998574
 30
0.0
  0
SPLINE
  5
2CF
330
1F
100
AcDbEntity
  8
FISHER & PAYKEL
 62
   250
420
  1316376
370
     9
100
AcDbSpline
210
0.0
220
0.0
230
1.0
 70
     8
 71
     3
 72
     8
 73
     4
 74
     0
 42
0.0000000001
 43
0.0000000001
 40
0.0129999999999768
 40
0.0129999999999768
 40
0.0129999999999768
 40
0.0129999999999768
 40
1.012999999999977
 40
1.012999999999977
 40
1.012999999999977
 40
1.012999999999977
 10
-1009.549185149201
 20
-1416.988279175918
 30
0.0
 10
-1009.549185149201
 20
-1413.541585060932
 30
0.0
 10
-1011.514188856517
 20
-1410.327728010008
 30
0.0
 10
-1014.615155209714
 20
-1410.327728010008
 30
0.0
  0
LINE
  5
2D0
330
1F
100
AcDbEntity
  8
FISHER & PAYKEL
 62
   250
420
  1316376
370
     9
100
AcDbLine
 10
-1009.549185149201
 20
-1417.03414102187
 30
0.0
 11
-1009.549185149201
 21
-1416.988279175918
 31
0.0
  0
SPLINE
  5
2D1
330
1F
100
AcDbEntity
  8
FISHER & PAYKEL
 62
   250
420
  1316376
370
     9
100
AcDbSpline
210
0.0
220
0.0
230
1.0
 70
     8
 71
     3
 72
     8
 73
     4
 74
     0
 42
0.0000000001
 43
0.0000000001
 40
5.024000000000001
 40
5.024000000000001
 40
5.024000000000001
 40
5.024000000000001
 40
6.024000000000001
 40
6.024000000000001
 40
6.024000000000001
 40
6.024000000000001
 10
-1014.615155209714
 20
-1424.647207449854
 30
0.0
 10
-1018.418160589402
 20
-1424.647207449854
 30
0.0
 10
-1020.792393075979
 20
-1421.115845311572
 30
0.0
 10
-1020.792393075979
 20
-1417.03414102187
 30
0.0
  0
SPLINE
  5
2D2
330
1F
100
AcDbEntity
  8
FISHER & PAYKEL
 62
   250
420
  1316376
370
     9
100
AcDbSpline
210
0.0
220
0.0
230
1.0
 70
     8
 71
     3
 72
     8
 73
     4
 74
     0
 42
0.0000000001
 43
0.0000000001
 40
4.024000000000001
 40
4.024000000000001
 40
4.024000000000001
 40
4.024000000000001
 40
5.024000000000001
 40
5.024000000000001
 40
5.024000000000001
 40
5.024000000000001
 10
-1008.395583331801
 20
-1416.988279175918
 30
0.0
 10
-1008.395583331801
 20
-1421.073511299924
 30
0.0
 10
-1010.808621995722
 20
-1424.647207449854
 30
0.0
 10
-1014.615155209714
 20
-1424.647207449854
 30
0.0
  0
LINE
  5
2D3
330
1F
100
AcDbEntity
  8
FISHER & PAYKEL
 62
   250
420
  1316376
370
     9
100
AcDbLine
 10
-1008.395583331801
 20
-1416.949472998574
 30
0.0
 11
-1008.395583331801
 21
-1416.988279175918
 31
0.0
  0
SPLINE
  5
2D4
330
1F
100
AcDbEntity
  8
FISHER & PAYKEL
 62
   250
420
  1316376
370
     9
100
AcDbSpline
210
0.0
220
0.0
230
1.0
 70
     8
 71
     3
 72
     8
 73
     4
 74
     0
 42
0.0000000001
 43
0.0000000001
 40
3.012999999999977
 40
3.012999999999977
 40
3.012999999999977
 40
3.012999999999977
 40
4.012999999999977
 40
4.012999999999977
 40
4.012999999999977
 40
4.012999999999977
 10
-1014.569293363762
 20
-1409.329350901982
 30
0.0
 10
-1010.766287984074
 20
-1409.329350901982
 30
0.0
 10
-1008.395583331801
 20
-1412.864240874568
 30
0.0
 10
-1008.395583331801
 20
-1416.949472998574
 30
0.0
  0
SPLINE
  5
2D5
330
1F
100
AcDbEntity
  8
FISHER & PAYKEL
 62
   250
420
  1316376
370
     9
100
AcDbSpline
210
0.0
220
0.0
230
1.0
 70
     8
 71
     3
 72
     8
 73
     4
 74
     0
 42
0.0000000001
 43
0.0000000001
 40
2.012999999999977
 40
2.012999999999977
 40
2.012999999999977
 40
2.012999999999977
 40
3.012999999999977
 40
3.012999999999977
 40
3.012999999999977
 40
3.012999999999977
 10
-1020.792393075979
 20
-1416.988279175918
 30
0.0
 10
-1020.792393075979
 20
-1412.906574886216
 30
0.0
 10
-1018.375826577754
 20
-1409.329350901982
 30
0.0
 10
-1014.569293363762
 20
-1409.329350901982
 30
0.0
  0
LINE
  5
2D6
330
1F
100
AcDbEntity
  8
FISHER & PAYKEL
 62
   250
420
  1316376
370
     9
100
AcDbLine
 10
-1020.792393075979
 20
-1417.03414102187
 30
0.0
 11
-1020.792393075979
 21
-1416.988279175918
 31
0.0
  0
SPLINE
  5
2D7
330
1F
100
AcDbEntity
  8
FISHER & PAYKEL
 62
   250
420
  1316376
370
     9
100
AcDbSpline
210
0.0
220
0.0
230
1.0
 70
     8
 71
     3
 72
     8
 73
     4
 74
     0
 42
0.0000000001
 43
0.0000000001
 40
3.024000000000001
 40
3.024000000000001
 40
3.024000000000001
 40
3.024000000000001
 40
4.024000000000001
 40
4.024000000000001
 40
4.024000000000001
 40
4.024000000000001
 10
-500.2703194600994
 20
-1423.655886010436
 30
0.0
 10
-497.1728809412069
 20
-1423.655886010436
 30
0.0
 10
-495.2502112455389
 20
-1420.459668131032
 30
0.0
 10
-495.2502112455389
 20
-1417.03414102187
 30
0.0
  0
SPLINE
  5
2D8
330
1F
100
AcDbEntity
  8
FISHER & PAYKEL
 62
   250
420
  1316376
370
     9
100
AcDbSpline
210
0.0
220
0.0
230
1.0
 70
     8
 71
     3
 72
     8
 73
     4
 74
     0
 42
0.0000000001
 43
0.0000000001
 40
2.024000000000001
 40
2.024000000000001
 40
2.024000000000001
 40
2.024000000000001
 40
3.024000000000001
 40
3.024000000000001
 40
3.024000000000001
 40
3.024000000000001
 10
-505.3362895206116
 20
-1416.988279175918
 30
0.0
 10
-505.3362895206116
 20
-1420.417334119385
 30
0.0
 10
-503.3712858132959
 20
-1423.655886010436
 30
0.0
 10
-500.2703194600994
 20
-1423.655886010436
 30
0.0
  0
LINE
  5
2D9
330
1F
100
AcDbEntity
  8
FISHER & PAYKEL
 62
   250
420
  1316376
370
     9
100
AcDbLine
 10
-505.3362895206116
 20
-1416.949472998574
 30
0.0
 11
-505.3362895206116
 21
-1416.988279175918
 31
0.0
  0
SPLINE
  5
2DA
330
1F
100
AcDbEntity
  8
FISHER & PAYKEL
 62
   250
420
  1316376
370
     9
100
AcDbSpline
210
0.0
220
0.0
230
1.0
 70
     8
 71
     3
 72
     8
 73
     4
 74
     0
 42
0.0000000001
 43
0.0000000001
 40
1.012999999999977
 40
1.012999999999977
 40
1.012999999999977
 40
1.012999999999977
 40
2.012999999999977
 40
2.012999999999977
 40
2.012999999999977
 40
2.012999999999977
 10
-500.3161813060511
 20
-1410.327728010008
 30
0.0
 10
-503.4100919906397
 20
-1410.327728010008
 30
0.0
 10
-505.3362895206116
 20
-1413.499251049284
 30
0.0
 10
-505.3362895206116
 20
-1416.949472998574
 30
0.0
  0
SPLINE
  5
2DB
330
1F
100
AcDbEntity
  8
FISHER & PAYKEL
 62
   250
420
  1316376
370
     9
100
AcDbSpline
210
0.0
220
0.0
230
1.0
 70
     8
 71
     3
 72
     8
 73
     4
 74
     0
 42
0.0000000001
 43
0.0000000001
 40
0.0129999999999768
 40
0.0129999999999768
 40
0.0129999999999768
 40
0.0129999999999768
 40
1.012999999999977
 40
1.012999999999977
 40
1.012999999999977
 40
1.012999999999977
 10
-495.2502112455389
 20
-1416.988279175918
 30
0.0
 10
-495.2502112455389
 20
-1413.541585060932
 30
0.0
 10
-497.2187427871585
 20
-1410.327728010008
 30
0.0
 10
-500.3161813060511
 20
-1410.327728010008
 30
0.0
  0
LINE
  5
2DC
330
1F
100
AcDbEntity
  8
FISHER & PAYKEL
 62
   250
420
  1316376
370
     9
100
AcDbLine
 10
-495.2502112455389
 20
-1417.03414102187
 30
0.0
 11
-495.2502112455389
 21
-1416.988279175918
 31
0.0
  0
SPLINE
  5
2DD
330
1F
100
AcDbEntity
  8
FISHER & PAYKEL
 62
   250
420
  1316376
370
     9
100
AcDbSpline
210
0.0
220
0.0
230
1.0
 70
     8
 71
     3
 72
     8
 73
     4
 74
     0
 42
0.0000000001
 43
0.0000000001
 40
5.024000000000001
 40
5.024000000000001
 40
5.024000000000001
 40
5.024000000000001
 40
6.024000000000001
 40
6.024000000000001
 40
6.024000000000001
 40
6.024000000000001
 10
-500.3161813060511
 20
-1424.647207449854
 30
0.0
 10
-504.1191866857392
 20
-1424.647207449854
 30
0.0
 10
-506.4934191723163
 20
-1421.115845311572
 30
0.0
 10
-506.4934191723163
 20
-1417.03414102187
 30
0.0
  0
SPLINE
  5
2DE
330
1F
100
AcDbEntity
  8
FISHER & PAYKEL
 62
   250
420
  1316376
370
     9
100
AcDbSpline
210
0.0
220
0.0
230
1.0
 70
     8
 71
     3
 72
     8
 73
     4
 74
     0
 42
0.0000000001
 43
0.0000000001
 40
4.024000000000001
 40
4.024000000000001
 40
4.024000000000001
 40
4.024000000000001
 40
5.024000000000001
 40
5.024000000000001
 40
5.024000000000001
 40
5.024000000000001
 10
-494.0966094281381
 20
-1416.988279175918
 30
0.0
 10
-494.0966094281381
 20
-1421.073511299924
 30
0.0
 10
-496.5096480920591
 20
-1424.647207449854
 30
0.0
 10
-500.3161813060511
 20
-1424.647207449854
 30
0.0
  0
LINE
  5
2DF
330
1F
100
AcDbEntity
  8
FISHER & PAYKEL
 62
   250
420
  1316376
370
     9
100
AcDbLine
 10
-494.0966094281381
 20
-1416.949472998574
 30
0.0
 11
-494.0966094281381
 21
-1416.988279175918
 31
0.0
  0
SPLINE
  5
2E0
330
1F
100
AcDbEntity
  8
FISHER & PAYKEL
 62
   250
420
  1316376
370
     9
100
AcDbSpline
210
0.0
220
0.0
230
1.0
 70
     8
 71
     3
 72
     8
 73
     4
 74
     0
 42
0.0000000001
 43
0.0000000001
 40
3.012999999999977
 40
3.012999999999977
 40
3.012999999999977
 40
3.012999999999977
 40
4.012999999999977
 40
4.012999999999977
 40
4.012999999999977
 40
4.012999999999977
 10
-500.2703194600994
 20
-1409.329350901982
 30
0.0
 10
-496.4673140804115
 20
-1409.329350901982
 30
0.0
 10
-494.0966094281381
 20
-1412.864240874568
 30
0.0
 10
-494.0966094281381
 20
-1416.949472998574
 30
0.0
  0
SPLINE
  5
2E1
330
1F
100
AcDbEntity
  8
FISHER & PAYKEL
 62
   250
420
  1316376
370
     9
100
AcDbSpline
210
0.0
220
0.0
230
1.0
 70
     8
 71
     3
 72
     8
 73
     4
 74
     0
 42
0.0000000001
 43
0.0000000001
 40
2.012999999999977
 40
2.012999999999977
 40
2.012999999999977
 40
2.012999999999977
 40
3.012999999999977
 40
3.012999999999977
 40
3.012999999999977
 40
3.012999999999977
 10
-506.4934191723163
 20
-1416.988279175918
 30
0.0
 10
-506.4934191723163
 20
-1412.906574886216
 30
0.0
 10
-504.0768526740914
 20
-1409.329350901982
 30
0.0
 10
-500.2703194600994
 20
-1409.329350901982
 30
0.0
  0
LINE
  5
2E2
330
1F
100
AcDbEntity
  8
FISHER & PAYKEL
 62
   250
420
  1316376
370
     9
100
AcDbLine
 10
-506.4934191723163
 20
-1417.03414102187
 30
0.0
 11
-506.4934191723163
 21
-1416.988279175918
 31
0.0
  0
LINE
  5
2E3
330
1F
100
AcDbEntity
  8
FISHER & PAYKEL
 62
   250
420
  1316376
370
     9
100
AcDbLine
 10
-519.428223647851
 20
-1424.391792246246
 30
0.0
 11
-519.428223647851
 21
-1423.569806853419
 31
0.0
  0
LINE
  5
2E4
330
1F
100
AcDbEntity
  8
FISHER & PAYKEL
 62
   250
420
  1316376
370
     9
100
AcDbLine
 10
-509.2116155035311
 20
-1424.391792246246
 30
0.0
 11
-519.428223647851
 21
-1424.391792246246
 31
0.0
  0
LINE
  5
2E5
330
1F
100
AcDbEntity
  8
FISHER & PAYKEL
 62
   250
420
  1316376
370
     9
100
AcDbLine
 10
-509.2116155035311
 20
-1423.340497623661
 30
0.0
 11
-509.2116155035311
 21
-1424.391792246246
 31
0.0
  0
LINE
  5
2E6
330
1F
100
AcDbEntity
  8
FISHER & PAYKEL
 62
   250
420
  1316376
370
     9
100
AcDbLine
 10
-517.6748899987739
 20
-1423.340497623661
 30
0.0
 11
-509.2116155035311
 21
-1423.340497623661
 31
0.0
  0
LINE
  5
2E7
330
1F
100
AcDbEntity
  8
FISHER & PAYKEL
 62
   250
420
  1316376
370
     9
100
AcDbLine
 10
-513.1028167408186
 20
-1419.234098493831
 30
0.0
 11
-517.6748899987739
 21
-1423.340497623661
 31
0.0
  0
SPLINE
  5
2E8
330
1F
100
AcDbEntity
  8
FISHER & PAYKEL
 62
   250
420
  1316376
370
     9
100
AcDbSpline
210
0.0
220
0.0
230
1.0
 70
     8
 71
     3
 72
     8
 73
     4
 74
     0
 42
0.0000000001
 43
0.0000000001
 40
7.416640541397529
 40
7.416640541397529
 40
7.416640541397529
 40
7.416640541397529
 40
8.416640541397529
 40
8.416640541397529
 40
8.416640541397529
 40
8.416640541397529
 10
-509.3633123786022
 20
-1413.480200744043
 30
0.0
 10
-509.3633123786022
 20
-1415.512233303134
 30
0.0
 10
-510.4745801843552
 20
-1416.863393841557
 30
0.0
 10
-513.1028167408186
 20
-1419.234098493831
 30
0.0
  0
LINE
  5
2E9
330
1F
100
AcDbEntity
  8
FISHER & PAYKEL
 62
   250
420
  1316376
370
     9
100
AcDbLine
 10
-509.3633123786022
 20
-1413.437866732395
 30
0.0
 11
-509.3633123786022
 21
-1413.480200744043
 31
0.0
  0
SPLINE
  5
2EA
330
1F
100
AcDbEntity
  8
FISHER & PAYKEL
 62
   250
420
  1316376
370
     9
100
AcDbSpline
210
0.0
220
0.0
230
1.0
 70
     8
 71
     3
 72
     8
 73
     4
 74
     0
 42
0.0000000001
 43
0.0000000001
 40
6.404640541397528
 40
6.404640541397528
 40
6.404640541397528
 40
6.404640541397528
 40
7.404640541397528
 40
7.404640541397528
 40
7.404640541397528
 40
7.404640541397528
 10
-513.8083836016143
 20
-1409.377329448516
 30
0.0
 10
-511.2683429027503
 20
-1409.377329448516
 30
0.0
 10
-509.3633123786022
 20
-1411.130663097593
 30
0.0
 10
-509.3633123786022
 20
-1413.437866732395
 30
0.0
  0
SPLINE
  5
2EB
330
1F
100
AcDbEntity
  8
FISHER & PAYKEL
 62
   250
420
  1316376
370
     9
100
AcDbSpline
210
0.0
220
0.0
230
1.0
 70
     8
 71
     3
 72
     8
 73
     4
 74
     0
 42
0.0000000001
 43
0.0000000001
 40
5.404640541397528
 40
5.404640541397528
 40
5.404640541397528
 40
5.404640541397528
 40
6.404640541397528
 40
6.404640541397528
 40
6.404640541397528
 40
6.404640541397528
 10
-519.1283577320131
 20
-1412.548852487792
 30
0.0
 10
-517.826586873845
 20
-1410.580320946173
 30
0.0
 10
-516.4366201580777
 20
-1409.377329448516
 30
0.0
 10
-513.8083836016143
 20
-1409.377329448516
 30
0.0
  0
LINE
  5
2EC
330
1F
100
AcDbEntity
  8
FISHER & PAYKEL
 62
   250
420
  1316376
370
     9
100
AcDbLine
 10
-518.295788836274
 20
-1413.099194639213
 30
0.0
 11
-519.1283577320131
 21
-1412.548852487792
 31
0.0
  0
SPLINE
  5
2ED
330
1F
100
AcDbEntity
  8
FISHER & PAYKEL
 62
   250
420
  1316376
370
     9
100
AcDbSpline
210
0.0
220
0.0
230
1.0
 70
     8
 71
     3
 72
     8
 73
     4
 74
     0
 42
0.0000000001
 43
0.0000000001
 40
4.121741266036095
 40
4.121741266036095
 40
4.121741266036095
 40
4.121741266036095
 40
5.121741266036095
 40
5.121741266036095
 40
5.121741266036095
 40
5.121741266036095
 10
-513.9177464650376
 20
-1410.34748388211
 30
0.0
 10
-515.8192491548815
 20
-1410.34748388211
 30
0.0
 10
-517.053991161274
 20
-1411.321166150008
 30
0.0
 10
-518.295788836274
 20
-1413.099194639213
 30
0.0
  0
SPLINE
  5
2EE
330
1F
100
AcDbEntity
  8
FISHER & PAYKEL
 62
   250
420
  1316376
370
     9
100
AcDbSpline
210
0.0
220
0.0
230
1.0
 70
     8
 71
     3
 72
     8
 73
     4
 74
     0
 42
0.0000000001
 43
0.0000000001
 40
3.121741266036095
 40
3.121741266036095
 40
3.121741266036095
 40
3.121741266036095
 40
4.121741266036095
 40
4.121741266036095
 40
4.121741266036095
 40
4.121741266036095
 10
-510.5380812018269
 20
-1413.519006921386
 30
0.0
 10
-510.5380812018269
 20
-1411.596337225718
 30
0.0
 10
-512.1220788043128
 20
-1410.34748388211
 30
0.0
 10
-513.9177464650376
 20
-1410.34748388211
 30
0.0
  0
SPLINE
  5
2EF
330
1F
100
AcDbEntity
  8
FISHER & PAYKEL
 62
   250
420
  1316376
370
     9
100
AcDbSpline
210
0.0
220
0.0
230
1.0
 70
     8
 71
     3
 72
     8
 73
     4
 74
     0
 42
0.0000000001
 43
0.0000000001
 40
2.121741266036095
 40
2.121741266036095
 40
2.121741266036095
 40
2.121741266036095
 40
3.121741266036095
 40
3.121741266036095
 40
3.121741266036095
 40
3.121741266036095
 10
-513.8507176132617
 20
-1418.57792131329
 30
0.0
 10
-511.3953449376935
 20
-1416.355385701784
 30
0.0
 10
-510.5380812018269
 20
-1415.085365352352
 30
0.0
 10
-510.5380812018269
 20
-1413.519006921386
 30
0.0
  0
LINE
  5
2F0
330
1F
100
AcDbEntity
  8
FISHER & PAYKEL
 62
   250
420
  1316376
370
     9
100
AcDbLine
 10
-519.428223647851
 20
-1423.569806853419
 30
0.0
 11
-513.8507176132617
 21
-1418.57792131329
 31
0.0
  0
SPLINE
  5
2F1
330
1F
100
AcDbEntity
  8
FISHER & PAYKEL
 62
   250
420
  1316376
370
     9
100
AcDbSpline
210
0.0
220
0.0
230
1.0
 70
     8
 71
     3
 72
     8
 73
     4
 74
     0
 42
0.0000000001
 43
0.0000000001
 40
3.024000000000001
 40
3.024000000000001
 40
3.024000000000001
 40
3.024000000000001
 40
4.024000000000001
 40
4.024000000000001
 40
4.024000000000001
 40
4.024000000000001
 10
-756.996113512023
 20
-1423.655886010436
 30
0.0
 10
-753.8986749931304
 20
-1423.655886010436
 30
0.0
 10
-751.9760052974624
 20
-1420.459668131032
 30
0.0
 10
-751.9760052974624
 20
-1417.03414102187
 30
0.0
  0
SPLINE
  5
2F2
330
1F
100
AcDbEntity
  8
FISHER & PAYKEL
 62
   250
420
  1316376
370
     9
100
AcDbSpline
210
0.0
220
0.0
230
1.0
 70
     8
 71
     3
 72
     8
 73
     4
 74
     0
 42
0.0000000001
 43
0.0000000001
 40
2.024000000000001
 40
2.024000000000001
 40
2.024000000000001
 40
2.024000000000001
 40
3.024000000000001
 40
3.024000000000001
 40
3.024000000000001
 40
3.024000000000001
 10
-762.062083572535
 20
-1416.988279175918
 30
0.0
 10
-762.062083572535
 20
-1420.417334119385
 30
0.0
 10
-760.0970798652194
 20
-1423.655886010436
 30
0.0
 10
-756.996113512023
 20
-1423.655886010436
 30
0.0
  0
LINE
  5
2F3
330
1F
100
AcDbEntity
  8
FISHER & PAYKEL
 62
   250
420
  1316376
370
     9
100
AcDbLine
 10
-762.062083572535
 20
-1416.949472998574
 30
0.0
 11
-762.062083572535
 21
-1416.988279175918
 31
0.0
  0
SPLINE
  5
2F4
330
1F
100
AcDbEntity
  8
FISHER & PAYKEL
 62
   250
420
  1316376
370
     9
100
AcDbSpline
210
0.0
220
0.0
230
1.0
 70
     8
 71
     3
 72
     8
 73
     4
 74
     0
 42
0.0000000001
 43
0.0000000001
 40
1.012999999999977
 40
1.012999999999977
 40
1.012999999999977
 40
1.012999999999977
 40
2.012999999999977
 40
2.012999999999977
 40
2.012999999999977
 40
2.012999999999977
 10
-757.0419753579746
 20
-1410.327728010008
 30
0.0
 10
-760.1394138768673
 20
-1410.327728010008
 30
0.0
 10
-762.062083572535
 20
-1413.499251049284
 30
0.0
 10
-762.062083572535
 20
-1416.949472998574
 30
0.0
  0
SPLINE
  5
2F5
330
1F
100
AcDbEntity
  8
FISHER & PAYKEL
 62
   250
420
  1316376
370
     9
100
AcDbSpline
210
0.0
220
0.0
230
1.0
 70
     8
 71
     3
 72
     8
 73
     4
 74
     0
 42
0.0000000001
 43
0.0000000001
 40
0.0129999999999768
 40
0.0129999999999768
 40
0.0129999999999768
 40
0.0129999999999768
 40
1.012999999999977
 40
1.012999999999977
 40
1.012999999999977
 40
1.012999999999977
 10
-751.9760052974624
 20
-1416.988279175918
 30
0.0
 10
-751.9760052974624
 20
-1413.541585060932
 30
0.0
 10
-753.941009004778
 20
-1410.327728010008
 30
0.0
 10
-757.0419753579746
 20
-1410.327728010008
 30
0.0
  0
LINE
  5
2F6
330
1F
100
AcDbEntity
  8
FISHER & PAYKEL
 62
   250
420
  1316376
370
     9
100
AcDbLine
 10
-751.9760052974624
 20
-1417.03414102187
 30
0.0
 11
-751.9760052974624
 21
-1416.988279175918
 31
0.0
  0
SPLINE
  5
2F7
330
1F
100
AcDbEntity
  8
FISHER & PAYKEL
 62
   250
420
  1316376
370
     9
100
AcDbSpline
210
0.0
220
0.0
230
1.0
 70
     8
 71
     3
 72
     8
 73
     4
 74
     0
 42
0.0000000001
 43
0.0000000001
 40
5.024000000000001
 40
5.024000000000001
 40
5.024000000000001
 40
5.024000000000001
 40
6.024000000000001
 40
6.024000000000001
 40
6.024000000000001
 40
6.024000000000001
 10
-757.0419753579746
 20
-1424.647207449854
 30
0.0
 10
-760.8449807376627
 20
-1424.647207449854
 30
0.0
 10
-763.2192132242398
 20
-1421.115845311572
 30
0.0
 10
-763.2192132242398
 20
-1417.03414102187
 30
0.0
  0
SPLINE
  5
2F8
330
1F
100
AcDbEntity
  8
FISHER & PAYKEL
 62
   250
420
  1316376
370
     9
100
AcDbSpline
210
0.0
220
0.0
230
1.0
 70
     8
 71
     3
 72
     8
 73
     4
 74
     0
 42
0.0000000001
 43
0.0000000001
 40
4.024000000000001
 40
4.024000000000001
 40
4.024000000000001
 40
4.024000000000001
 40
5.024000000000001
 40
5.024000000000001
 40
5.024000000000001
 40
5.024000000000001
 10
-750.8224034800618
 20
-1416.988279175918
 30
0.0
 10
-750.8224034800618
 20
-1421.073511299924
 30
0.0
 10
-753.2354421439826
 20
-1424.647207449854
 30
0.0
 10
-757.0419753579746
 20
-1424.647207449854
 30
0.0
  0
LINE
  5
2F9
330
1F
100
AcDbEntity
  8
FISHER & PAYKEL
 62
   250
420
  1316376
370
     9
100
AcDbLine
 10
-750.8224034800618
 20
-1416.949472998574
 30
0.0
 11
-750.8224034800618
 21
-1416.988279175918
 31
0.0
  0
SPLINE
  5
2FA
330
1F
100
AcDbEntity
  8
FISHER & PAYKEL
 62
   250
420
  1316376
370
     9
100
AcDbSpline
210
0.0
220
0.0
230
1.0
 70
     8
 71
     3
 72
     8
 73
     4
 74
     0
 42
0.0000000001
 43
0.0000000001
 40
3.012999999999977
 40
3.012999999999977
 40
3.012999999999977
 40
3.012999999999977
 40
4.012999999999977
 40
4.012999999999977
 40
4.012999999999977
 40
4.012999999999977
 10
-756.996113512023
 20
-1409.329350901982
 30
0.0
 10
-753.1931081323349
 20
-1409.329350901982
 30
0.0
 10
-750.8224034800618
 20
-1412.864240874568
 30
0.0
 10
-750.8224034800618
 20
-1416.949472998574
 30
0.0
  0
SPLINE
  5
2FB
330
1F
100
AcDbEntity
  8
FISHER & PAYKEL
 62
   250
420
  1316376
370
     9
100
AcDbSpline
210
0.0
220
0.0
230
1.0
 70
     8
 71
     3
 72
     8
 73
     4
 74
     0
 42
0.0000000001
 43
0.0000000001
 40
2.012999999999977
 40
2.012999999999977
 40
2.012999999999977
 40
2.012999999999977
 40
3.012999999999977
 40
3.012999999999977
 40
3.012999999999977
 40
3.012999999999977
 10
-763.2192132242398
 20
-1416.988279175918
 30
0.0
 10
-763.2192132242398
 20
-1412.906574886216
 30
0.0
 10
-760.802646726015
 20
-1409.329350901982
 30
0.0
 10
-756.996113512023
 20
-1409.329350901982
 30
0.0
  0
LINE
  5
2FC
330
1F
100
AcDbEntity
  8
FISHER & PAYKEL
 62
   250
420
  1316376
370
     9
100
AcDbLine
 10
-763.2192132242398
 20
-1417.03414102187
 30
0.0
 11
-763.2192132242398
 21
-1416.988279175918
 31
0.0
  0
POLYLINE
  5
2FD
330
1F
100
AcDbEntity
  8
FISHER & PAYKEL
 62
   250
420
  1316376
370
     9
100
AcDb2dPolyline
 66
     1
 10
0.0
 20
0.0
 30
0.0
 70
     1
  0
VERTEX
  5
2FE
330
2FD
100
AcDbEntity
  8
FISHER & PAYKEL
 62
   250
420
  1316376
370
     9
100
AcDbVertex
100
AcDb2dVertex
 10
-767.911585631961
 20
-1410.62265495782
 30
0.0
  0
VERTEX
  5
2FF
330
2FD
100
AcDbEntity
  8
FISHER & PAYKEL
 62
   250
420
  1316376
370
     9
100
AcDbVertex
100
AcDb2dVertex
 10
-770.7973540926147
 20
-1411.596337225718
 30
0.0
  0
VERTEX
  5
300
330
2FD
100
AcDbEntity
  8
FISHER & PAYKEL
 62
   250
420
  1316376
370
     9
100
AcDbVertex
100
AcDb2dVertex
 10
-771.0972200084528
 20
-1410.72848998694
 30
0.0
  0
VERTEX
  5
301
330
2FD
100
AcDbEntity
  8
FISHER & PAYKEL
 62
   250
420
  1316376
370
     9
100
AcDbVertex
100
AcDb2dVertex
 10
-767.6787485678984
 20
-1409.479636643332
 30
0.0
  0
VERTEX
  5
302
330
2FD
100
AcDbEntity
  8
FISHER & PAYKEL
 62
   250
420
  1316376
370
     9
100
AcDbVertex
100
AcDb2dVertex
 10
-766.8214848320316
 20
-1409.479636643332
 30
0.0
  0
VERTEX
  5
303
330
2FD
100
AcDbEntity
  8
FISHER & PAYKEL
 62
   250
420
  1316376
370
     9
100
AcDbVertex
100
AcDb2dVertex
 10
-766.8214848320316
 20
-1424.391792246246
 30
0.0
  0
VERTEX
  5
304
330
2FD
100
AcDbEntity
  8
FISHER & PAYKEL
 62
   250
420
  1316376
370
     9
100
AcDbVertex
100
AcDb2dVertex
 10
-767.911585631961
 20
-1424.391792246246
 30
0.0
  0
SEQEND
  5
305
330
2FD
100
AcDbEntity
  8
FISHER & PAYKEL
 62
   250
420
  1316376
370
     9
  0
SPLINE
  5
306
330
1F
100
AcDbEntity
  8
FISHER & PAYKEL
 62
   250
420
  1316376
370
     9
100
AcDbSpline
210
0.0
220
0.0
230
1.0
 70
     8
 71
     3
 72
     8
 73
     4
 74
     0
 42
0.0000000001
 43
0.0000000001
 40
16.02270906300447
 40
16.02270906300447
 40
16.02270906300447
 40
16.02270906300447
 40
17.02270906300447
 40
17.02270906300447
 40
17.02270906300447
 40
17.02270906300447
 10
-887.5990089292953
 20
-1424.648971367006
 30
0.0
 10
-889.6275131704496
 20
-1424.648971367006
 30
0.0
 10
-891.5290154372195
 20
-1423.569454584743
 30
0.0
 10
-892.8343150363984
 20
-1422.257099708909
 30
0.0
  0
SPLINE
  5
307
330
1F
100
AcDbEntity
  8
FISHER & PAYKEL
 62
   250
420
  1316376
370
     9
100
AcDbSpline
210
0.0
220
0.0
230
1.0
 70
     8
 71
     3
 72
     8
 73
     4
 74
     0
 42
0.0000000001
 43
0.0000000001
 40
15.02270906300447
 40
15.02270906300447
 40
15.02270906300447
 40
15.02270906300447
 40
16.02270906300447
 40
16.02270906300447
 40
16.02270906300447
 40
16.02270906300447
 10
-882.3848698280163
 20
-1419.886395056636
 30
0.0
 10
-882.3848698280163
 20
-1422.680439825386
 30
0.0
 10
-884.5862384336984
 20
-1424.648971367006
 30
0.0
 10
-887.5990089292953
 20
-1424.648971367006
 30
0.0
  0
LINE
  5
308
330
1F
100
AcDbEntity
  8
FISHER & PAYKEL
 62
   250
420
  1316376
370
     9
100
AcDbLine
 10
-882.3848698280163
 20
-1419.844061044988
 30
0.0
 11
-882.3848698280163
 21
-1419.886395056636
 31
0.0
  0
SPLINE
  5
309
330
1F
100
AcDbEntity
  8
FISHER & PAYKEL
 62
   250
420
  1316376
370
     9
100
AcDbSpline
210
0.0
220
0.0
230
1.0
 70
     8
 71
     3
 72
     8
 73
     4
 74
     0
 42
0.0000000001
 43
0.0000000001
 40
14.01070906300447
 40
14.01070906300447
 40
14.01070906300447
 40
14.01070906300447
 40
15.01070906300447
 40
15.01070906300447
 40
15.01070906300447
 40
15.01070906300447
 10
-887.514340906
 20
-1415.381350650456
 30
0.0
 10
-884.6285724453461
 20
-1415.381350650456
 30
0.0
 10
-882.3848698280163
 20
-1417.201713151309
 30
0.0
 10
-882.3848698280163
 20
-1419.844061044988
 30
0.0
  0
SPLINE
  5
30A
330
1F
100
AcDbEntity
  8
FISHER & PAYKEL
 62
   250
420
  1316376
370
     9
100
AcDbSpline
210
0.0
220
0.0
230
1.0
 70
     8
 71
     3
 72
     8
 73
     4
 74
     0
 42
0.0000000001
 43
0.0000000001
 40
13.01070906300447
 40
13.01070906300447
 40
13.01070906300447
 40
13.01070906300447
 40
14.01070906300447
 40
14.01070906300447
 40
14.01070906300447
 40
14.01070906300447
 10
-890.8269773174353
 20
-1416.185696871763
 30
0.0
 10
-889.8638785524491
 20
-1415.720022743638
 30
0.0
 10
-888.9007797874634
 20
-1415.381350650456
 30
0.0
 10
-887.514340906
 20
-1415.381350650456
 30
0.0
  0
LINE
  5
30B
330
1F
100
AcDbEntity
  8
FISHER & PAYKEL
 62
   250
420
  1316376
370
     9
100
AcDbLine
 10
-890.4636103841254
 20
-1410.643469180214
 30
0.0
 11
-890.8269773174353
 21
-1416.185696871763
 31
0.0
  0
LINE
  5
30C
330
1F
100
AcDbEntity
  8
FISHER & PAYKEL
 62
   250
420
  1316376
370
     9
100
AcDbLine
 10
-883.0481026771639
 20
-1410.643469180214
 30
0.0
 11
-890.4636103841254
 21
-1410.643469180214
 31
0.0
  0
LINE
  5
30D
330
1F
100
AcDbEntity
  8
FISHER & PAYKEL
 62
   250
420
  1316376
370
     9
100
AcDbLine
 10
-883.0481026771639
 20
-1409.585118889021
 30
0.0
 11
-883.0481026771639
 21
-1410.643469180214
 31
0.0
  0
LINE
  5
30E
330
1F
100
AcDbEntity
  8
FISHER & PAYKEL
 62
   250
420
  1316376
370
     9
100
AcDbLine
 10
-891.4443483206313
 20
-1409.585118889021
 30
0.0
 11
-883.0481026771639
 21
-1409.585118889021
 31
0.0
  0
LINE
  5
30F
330
1F
100
AcDbEntity
  8
FISHER & PAYKEL
 62
   250
420
  1316376
370
     9
100
AcDbLine
 10
-891.8747441057168
 20
-1416.757206029008
 30
0.0
 11
-891.4443483206313
 21
-1409.585118889021
 31
0.0
  0
LINE
  5
310
330
1F
100
AcDbEntity
  8
FISHER & PAYKEL
 62
   250
420
  1316376
370
     9
100
AcDbLine
 10
-891.0174803698502
 20
-1417.311076014732
 30
0.0
 11
-891.8747441057168
 21
-1416.757206029008
 31
0.0
  0
SPLINE
  5
311
330
1F
100
AcDbEntity
  8
FISHER & PAYKEL
 62
   250
420
  1316376
370
     9
100
AcDbSpline
210
0.0
220
0.0
230
1.0
 70
     8
 71
     3
 72
     8
 73
     4
 74
     0
 42
0.0000000001
 43
0.0000000001
 40
3.328372795275658
 40
3.328372795275658
 40
3.328372795275658
 40
3.328372795275658
 40
4.328372795275659
 40
4.328372795275659
 40
4.328372795275659
 40
4.328372795275659
 10
-887.6413429409432
 20
-1416.376199924178
 30
0.0
 10
-889.0313096567105
 20
-1416.376199924178
 30
0.0
 10
-890.0755486106879
 20
-1416.799540040655
 30
0.0
 10
-891.0174803698502
 20
-1417.311076014732
 30
0.0
  0
SPLINE
  5
312
330
1F
100
AcDbEntity
  8
FISHER & PAYKEL
 62
   250
420
  1316376
370
     9
100
AcDbSpline
210
0.0
220
0.0
230
1.0
 70
     8
 71
     3
 72
     8
 73
     4
 74
     0
 42
0.0000000001
 43
0.0000000001
 40
2.328372795275658
 40
2.328372795275658
 40
2.328372795275658
 40
2.328372795275658
 40
3.328372795275658
 40
3.328372795275658
 40
3.328372795275658
 40
3.328372795275658
 10
-883.538471645417
 20
-1419.886395056636
 30
0.0
 10
-883.538471645417
 20
-1417.836723326025
 30
0.0
 10
-885.2247764427183
 20
-1416.376199924178
 30
0.0
 10
-887.6413429409432
 20
-1416.376199924178
 30
0.0
  0
LINE
  5
313
330
1F
100
AcDbEntity
  8
FISHER & PAYKEL
 62
   250
420
  1316376
370
     9
100
AcDbLine
 10
-883.538471645417
 20
-1419.932256902588
 30
0.0
 11
-883.538471645417
 21
-1419.886395056636
 31
0.0
  0
SPLINE
  5
314
330
1F
100
AcDbEntity
  8
FISHER & PAYKEL
 62
   250
420
  1316376
370
     9
100
AcDbSpline
210
0.0
220
0.0
230
1.0
 70
     8
 71
     3
 72
     8
 73
     4
 74
     0
 42
0.0000000001
 43
0.0000000001
 40
1.315372795275624
 40
1.315372795275624
 40
1.315372795275624
 40
1.315372795275624
 40
2.315372795275624
 40
2.315372795275624
 40
2.315372795275624
 40
2.315372795275624
 10
-887.5566749176477
 20
-1423.654122093284
 30
0.0
 10
-885.1824424310706
 20
-1423.654122093284
 30
0.0
 10
-883.538471645417
 20
-1422.003095639023
 30
0.0
 10
-883.538471645417
 20
-1419.932256902588
 30
0.0
  0
SPLINE
  5
315
330
1F
100
AcDbEntity
  8
FISHER & PAYKEL
 62
   250
420
  1316376
370
     9
100
AcDbSpline
210
0.0
220
0.0
230
1.0
 70
     8
 71
     3
 72
     8
 73
     4
 74
     0
 42
0.0000000001
 43
0.0000000001
 40
0.3153727952756245
 40
0.3153727952756245
 40
0.3153727952756245
 40
0.3153727952756245
 40
1.315372795275624
 40
1.315372795275624
 40
1.315372795275624
 40
1.315372795275624
 10
-892.0440801523076
 20
-1421.473920493426
 30
0.0
 10
-890.696447448188
 20
-1422.80744186033
 30
0.0
 10
-889.1371446858299
 20
-1423.654122093284
 30
0.0
 10
-887.5566749176477
 20
-1423.654122093284
 30
0.0
  0
LINE
  5
316
330
1F
100
AcDbEntity
  8
FISHER & PAYKEL
 62
   250
420
  1316376
370
     9
100
AcDbLine
 10
-892.8343150363984
 20
-1422.257099708909
 30
0.0
 11
-892.0440801523076
 21
-1421.473920493426
 31
0.0
  0
LINE
  5
317
330
1F
100
AcDbEntity
  8
FISHER & PAYKEL
 62
     5
420
      255
100
AcDbLine
 10
765.9894005910194
 20
194.2389984880794
 30
0.0
 11
765.9894005910194
 21
-929.5962094699206
 31
0.0
  0
ENDSEC
  0
SECTION
  2
OBJECTS
  0
DICTIONARY
  5
C
330
0
100
AcDbDictionary
281
     1
  3
ACAD_DETAILVIEWSTYLE
350
353
  3
ACAD_GROUP
350
D
  3
ACAD_LAYOUT
350
1A
  3
ACAD_MATERIAL
350
43
  3
ACAD_MLEADERSTYLE
350
5B
  3
ACAD_MLINESTYLE
350
17
  3
ACAD_PLOTSETTINGS
350
19
  3
ACAD_PLOTSTYLENAME
350
E
  3
ACAD_SCALELIST
350
47
  3
ACAD_SECTIONVIEWSTYLE
350
354
  3
ACAD_TABLESTYLE
350
59
  3
ACAD_VISUALSTYLE
350
2A
  3
ACDB_RECOMPOSE_DATA
350
350
  3
AcDbVariableDictionary
350
318
  0
SUN
  5
5D
330
29
100
AcDbSun
 90
        1
290
     0
 63
     7
421
 16777215
 40
1.0
291
     1
 91
  2455826
 92
 54000000
292
     0
 70
     2
 71
   256
280
     1
  0
DICTIONARY
  5
353
102
{ACAD_REACTORS
330
C
102
}
330
C
100
AcDbDictionary
281
     1
  0
DICTIONARY
  5
D
102
{ACAD_REACTORS
330
C
102
}
330
C
100
AcDbDictionary
281
     1
  0
DICTIONARY
  5
1A
102
{ACAD_REACTORS
330
C
102
}
330
C
100
AcDbDictionary
281
     1
  3
Layout1
350
1E
  3
Layout2
350
26
  3
Model
350
22
  0
DICTIONARY
  5
43
102
{ACAD_REACTORS
330
C
102
}
330
C
100
AcDbDictionary
281
     1
  3
ByBlock
350
45
  3
ByLayer
350
44
  3
Global
350
46
  0
DICTIONARY
  5
5B
102
{ACAD_REACTORS
330
C
102
}
330
C
100
AcDbDictionary
281
     1
  3
Standard
350
5C
  0
DICTIONARY
  5
17
102
{ACAD_REACTORS
330
C
102
}
330
C
100
AcDbDictionary
281
     1
  3
Standard
350
18
  0
DICTIONARY
  5
19
102
{ACAD_REACTORS
330
C
102
}
330
C
100
AcDbDictionary
281
     1
  0
ACDBDICTIONARYWDFLT
  5
E
102
{ACAD_REACTORS
330
C
102
}
330
C
100
AcDbDictionary
281
     1
  3
Normal
350
F
100
AcDbDictionaryWithDefault
340
F
  0
DICTIONARY
  5
47
102
{ACAD_REACTORS
330
C
102
}
330
C
100
AcDbDictionary
281
     1
  3
A0
350
48
  3
A1
350
49
  3
A2
350
4A
  3
A3
350
4B
  3
A4
350
4C
  3
A5
350
4D
  3
A6
350
4E
  3
A7
350
4F
  3
A8
350
50
  3
A9
350
51
  3
B1
350
52
  3
B2
350
53
  3
B3
350
54
  3
B4
350
55
  3
B5
350
56
  3
B6
350
57
  3
B7
350
58
  0
DICTIONARY
  5
354
102
{ACAD_REACTORS
330
C
102
}
330
C
100
AcDbDictionary
281
     1
  0
DICTIONARY
  5
59
102
{ACAD_REACTORS
330
C
102
}
330
C
100
AcDbDictionary
281
     1
  3
Standard
350
5A
  0
DICTIONARY
  5
2A
102
{ACAD_REACTORS
330
C
102
}
330
C
100
AcDbDictionary
281
     1
  3
2dWireframe
350
2F
  3
Basic
350
32
  3
Brighten
350
36
  3
ColorChange
350
3A
  3
Conceptual
350
34
  3
Dim
350
35
  3
EdgeColorOff
350
3D
  3
Facepattern
350
39
  3
Flat
350
2B
  3
FlatWithEdges
350
2C
  3
Gouraud
350
2D
  3
GouraudWithEdges
350
2E
  3
Hidden
350
31
  3
JitterOff
350
3B
  3
Linepattern
350
38
  3
OverhangOff
350
3C
  3
Realistic
350
33
  3
Shaded
350
42
  3
Shaded with edges
350
41
  3
Shades of Gray
350
3E
  3
Sketchy
350
3F
  3
Thicken
350
37
  3
Wireframe
350
30
  3
X-Ray
350
40
  0
XRECORD
  5
350
102
{ACAD_REACTORS
330
C
102
}
330
C
100
AcDbXrecord
280
     1
 90
        1
330
5A
  0
DICTIONARY
  5
318
102
{ACAD_REACTORS
330
C
102
}
330
C
100
AcDbDictionary
281
     1
  3
CANNOSCALE
350
319
  3
CMLEADERSTYLE
350
352
  3
CTABLESTYLE
350
351
  3
XCLIPFRAME
350
31A
  0
LAYOUT
  5
1E
102
{ACAD_REACTORS
330
1A
102
}
330
1A
100
AcDbPlotSettings
  1

  2
none_device
  4

  6

 40
0.0
 41
0.0
 42
0.0
 43
0.0
 44
0.0
 45
0.0
 46
0.0
 47
0.0
 48
0.0
 49
0.0
140
0.0
141
0.0
142
1.0
143
1.0
 70
   688
 72
     0
 73
     0
 74
     5
  7

 75
    16
 76
     0
 77
     2
 78
   300
147
1.0
148
0.0
149
0.0
100
AcDbLayout
  1
Layout1
 70
     1
 71
     1
 10
0.0
 20
0.0
 11
12.0
 21
9.0
 12
0.0
 22
0.0
 32
0.0
 14
1.000000000000000E+20
 24
1.000000000000000E+20
 34
1.000000000000000E+20
 15
-1.000000000000000E+20
 25
-1.000000000000000E+20
 35
-1.000000000000000E+20
146
0.0
 13
0.0
 23
0.0
 33
0.0
 16
1.0
 26
0.0
 36
0.0
 17
0.0
 27
1.0
 37
0.0
 76
     0
330
1B
  0
LAYOUT
  5
26
102
{ACAD_REACTORS
330
1A
102
}
330
1A
100
AcDbPlotSettings
  1

  2
none_device
  4

  6

 40
0.0
 41
0.0
 42
0.0
 43
0.0
 44
0.0
 45
0.0
 46
0.0
 47
0.0
 48
0.0
 49
0.0
140
0.0
141
0.0
142
1.0
143
1.0
 70
   688
 72
     0
 73
     0
 74
     5
  7

 75
    16
 76
     0
 77
     2
 78
   300
147
1.0
148
0.0
149
0.0
100
AcDbLayout
  1
Layout2
 70
     1
 71
     2
 10
0.0
 20
0.0
 11
0.0
 21
0.0
 12
0.0
 22
0.0
 32
0.0
 14
0.0
 24
0.0
 34
0.0
 15
0.0
 25
0.0
 35
0.0
146
0.0
 13
0.0
 23
0.0
 33
0.0
 16
1.0
 26
0.0
 36
0.0
 17
0.0
 27
1.0
 37
0.0
 76
     0
330
23
  0
LAYOUT
  5
22
102
{ACAD_REACTORS
330
1A
102
}
330
1A
100
AcDbPlotSettings
  1

  2
none_device
  4
Letter_(8.50_x_11.00_Inches)
  6

 40
6.35
 41
6.35
 42
6.35000508
 43
6.35000508
 44
215.9
 45
279.4
 46
0.0
 47
0.0
 48
0.0
 49
0.0
140
0.0
141
0.0
142
1.0
143
1.0
 70
  1712
 72
     0
 73
     0
 74
     0
  7

 75
     0
 76
     0
 77
     2
 78
   300
147
1.0
148
0.0
149
0.0
100
AcDbLayout
  1
Model
 70
     1
 71
     0
 10
0.0
 20
0.0
 11
12.0
 21
9.0
 12
0.0
 22
0.0
 32
0.0
 14
1.000000000000000E+20
 24
1.000000000000000E+20
 34
1.000000000000000E+20
 15
-1.000000000000000E+20
 25
-1.000000000000000E+20
 35
-1.000000000000000E+20
146
0.0
 13
0.0
 23
0.0
 33
0.0
 16
1.0
 26
0.0
 36
0.0
 17
0.0
 27
1.0
 37
0.0
 76
     0
330
1F
331
29
  0
MATERIAL
  5
45
102
{ACAD_REACTORS
330
43
102
}
330
43
100
AcDbMaterial
  1
ByBlock
 72
     1
 94
      127
  0
MATERIAL
  5
44
102
{ACAD_REACTORS
330
43
102
}
330
43
100
AcDbMaterial
  1
ByLayer
 72
     1
 94
      127
  0
MATERIAL
  5
46
102
{ACAD_REACTORS
330
43
102
}
330
43
100
AcDbMaterial
  1
Global
 72
     1
 94
      127
  0
MLEADERSTYLE
  5
5C
102
{ACAD_REACTORS
330
5B
102
}
102
{ACAD_XDICTIONARY
360
34E
102
}
330
5B
100
AcDbMLeaderStyle
170
     2
171
     1
172
     0
 90
        2
 40
0.0
 41
0.0
173
     1
 91
-1056964608
340
14
 92
       -2
290
     1
 42
0.09
291
     1
 43
0.36
  3
Standard
341
0
 44
0.18
300

342
11
174
     1
178
     6
175
     1
176
     0
 93
-1056964608
 45
0.18
292
     0
297
     0
 46
0.18
343
0
 94
-1056964608
 47
1.0
 49
1.0
140
1.0
293
     1
141
0.0
294
     1
177
     0
142
1.0
295
     0
296
     0
143
0.125
1001
ACAD_MLEADERVER
1070
     2
  0
MLINESTYLE
  5
18
102
{ACAD_REACTORS
330
17
102
}
330
17
100
AcDbMlineStyle
  2
Standard
 70
     0
  3

 62
   256
 51
90.0
 52
90.0
 71
     2
 49
0.5
 62
   256
  6
BYLAYER
 49
-0.5
 62
   256
  6
BYLAYER
  0
ACDBPLACEHOLDER
  5
F
102
{ACAD_REACTORS
330
E
102
}
330
E
  0
SCALE
  5
48
102
{ACAD_REACTORS
330
47
102
}
330
47
100
AcDbScale
 70
     0
300
1:1
140
1.0
141
1.0
290
     1
  0
SCALE
  5
49
102
{ACAD_REACTORS
330
47
102
}
330
47
100
AcDbScale
 70
     0
300
1/128" = 1'-0"
140
0.0078125
141
12.0
290
     0
  0
SCALE
  5
4A
102
{ACAD_REACTORS
330
47
102
}
330
47
100
AcDbScale
 70
     0
300
1/64" = 1'-0"
140
0.015625
141
12.0
290
     0
  0
SCALE
  5
4B
102
{ACAD_REACTORS
330
47
102
}
330
47
100
AcDbScale
 70
     0
300
1/32" = 1'-0"
140
0.03125
141
12.0
290
     0
  0
SCALE
  5
4C
102
{ACAD_REACTORS
330
47
102
}
330
47
100
AcDbScale
 70
     0
300
1/16" = 1'-0"
140
0.0625
141
12.0
290
     0
  0
SCALE
  5
4D
102
{ACAD_REACTORS
330
47
102
}
330
47
100
AcDbScale
 70
     0
300
3/32" = 1'-0"
140
0.09375
141
12.0
290
     0
  0
SCALE
  5
4E
102
{ACAD_REACTORS
330
47
102
}
330
47
100
AcDbScale
 70
     0
300
1/8" = 1'-0"
140
0.125
141
12.0
290
     0
  0
SCALE
  5
4F
102
{ACAD_REACTORS
330
47
102
}
330
47
100
AcDbScale
 70
     0
300
3/16" = 1'-0"
140
0.1875
141
12.0
290
     0
  0
SCALE
  5
50
102
{ACAD_REACTORS
330
47
102
}
330
47
100
AcDbScale
 70
     0
300
1/4" = 1'-0"
140
0.25
141
12.0
290
     0
  0
SCALE
  5
51
102
{ACAD_REACTORS
330
47
102
}
330
47
100
AcDbScale
 70
     0
300
3/8" = 1'-0"
140
0.375
141
12.0
290
     0
  0
SCALE
  5
52
102
{ACAD_REACTORS
330
47
102
}
330
47
100
AcDbScale
 70
     0
300
1/2" = 1'-0"
140
0.5
141
12.0
290
     0
  0
SCALE
  5
53
102
{ACAD_REACTORS
330
47
102
}
330
47
100
AcDbScale
 70
     0
300
3/4" = 1'-0"
140
0.75
141
12.0
290
     0
  0
SCALE
  5
54
102
{ACAD_REACTORS
330
47
102
}
330
47
100
AcDbScale
 70
     0
300
1" = 1'-0"
140
1.0
141
12.0
290
     0
  0
SCALE
  5
55
102
{ACAD_REACTORS
330
47
102
}
330
47
100
AcDbScale
 70
     0
300
1-1/2" = 1'-0"
140
1.5
141
12.0
290
     0
  0
SCALE
  5
56
102
{ACAD_REACTORS
330
47
102
}
330
47
100
AcDbScale
 70
     0
300
3" = 1'-0"
140
3.0
141
12.0
290
     0
  0
SCALE
  5
57
102
{ACAD_REACTORS
330
47
102
}
330
47
100
AcDbScale
 70
     0
300
6" = 1'-0"
140
6.0
141
12.0
290
     0
  0
SCALE
  5
58
102
{ACAD_REACTORS
330
47
102
}
330
47
100
AcDbScale
 70
     0
300
1'-0" = 1'-0"
140
12.0
141
12.0
290
     0
  0
TABLESTYLE
  5
5A
102
{ACAD_REACTORS
330
59
102
}
102
{ACAD_XDICTIONARY
360
34B
102
}
330
59
100
AcDbTableStyle
  3
Standard
 70
     0
 71
     0
 40
0.06
 41
0.06
280
     0
281
     0
  7
Standard
140
0.18
170
     2
 62
     0
 63
   257
283
     0
 90
        4
 91
        0
  1

274
    -2
284
     1
 64
     0
275
    -2
285
     1
 65
     0
276
    -2
286
     1
 66
     0
277
    -2
287
     1
 67
     0
278
    -2
288
     1
 68
     0
279
    -2
289
     1
 69
     0
  7
Standard
140
0.25
170
     5
 62
     0
 63
   257
283
     0
 90
        4
 91
        0
  1

274
    -2
284
     1
 64
     0
275
    -2
285
     1
 65
     0
276
    -2
286
     1
 66
     0
277
    -2
287
     1
 67
     0
278
    -2
288
     1
 68
     0
279
    -2
289
     1
 69
     0
  7
Standard
140
0.18
170
     5
 62
     0
 63
   257
283
     0
 90
        4
 91
        0
  1

274
    -2
284
     1
 64
     0
275
    -2
285
     1
 65
     0
276
    -2
286
     1
 66
     0
277
    -2
287
     1
 67
     0
278
    -2
288
     1
 68
     0
279
    -2
289
     1
 69
     0
  0
VISUALSTYLE
  5
2F
102
{ACAD_REACTORS
330
2A
102
}
102
{ACAD_XDICTIONARY
360
323
102
}
330
2A
100
AcDbVisualStyle
  2
2dWireframe
 70
     4
 71
     0
 72
     2
 73
     0
 90
        0
 40
0.6
 41
30.0
 62
     5
 63
     7
421
 16777215
 74
     1
 91
        4
 64
     7
 65
   257
 75
     1
175
     1
 42
1.0
 92
        0
 66
   257
 43
1.0
 76
     1
 77
     6
 78
     2
 67
     7
 79
     5
170
     0
171
     0
290
     0
174
     0
 93
        1
 44
0.0
173
     0
291
     0
 45
0.0
  0
VISUALSTYLE
  5
32
102
{ACAD_REACTORS
330
2A
102
}
102
{ACAD_XDICTIONARY
360
329
102
}
330
2A
100
AcDbVisualStyle
  2
Basic
 70
     7
 71
     1
 72
     0
 73
     1
 90
        0
 40
0.6
 41
30.0
 62
     5
 63
     7
421
 16777215
 74
     0
 91
        4
 64
     7
 65
   257
 75
     1
175
     1
 42
1.0
 92
        8
 66
     7
 43
1.0
 76
     1
 77
     6
 78
     2
 67
     7
 79
     5
170
     0
171
     0
290
     0
174
     0
 93
        1
 44
0.0
173
     0
291
     1
 45
0.0
  0
VISUALSTYLE
  5
36
102
{ACAD_REACTORS
330
2A
102
}
102
{ACAD_XDICTIONARY
360
331
102
}
330
2A
100
AcDbVisualStyle
  2
Brighten
 70
    12
 71
     2
 72
     2
 73
     0
 90
        0
 40
0.6
 41
30.0
 62
     5
 63
     7
421
 16777215
 74
     1
 91
        4
 64
     7
 65
   257
 75
     1
175
     1
 42
1.0
 92
        8
 66
     7
 43
1.0
 76
     1
 77
     6
 78
     2
 67
     7
 79
     5
170
     0
171
     0
290
     0
174
     0
 93
        1
 44
50.0
173
     0
291
     1
 45
0.0
  0
VISUALSTYLE
  5
3A
102
{ACAD_REACTORS
330
2A
102
}
102
{ACAD_XDICTIONARY
360
339
102
}
330
2A
100
AcDbVisualStyle
  2
ColorChange
 70
    16
 71
     2
 72
     2
 73
     3
 90
        0
 40
0.6
 41
30.0
 62
     5
 63
     8
421
  8421504
 74
     1
 91
        4
 64
     7
 65
   257
 75
     1
175
     1
 42
1.0
 92
        8
 66
     8
424
  8421504
 43
1.0
 76
     1
 77
     6
 78
     2
 67
     7
 79
     5
170
     0
171
     0
290
     0
174
     0
 93
        1
 44
0.0
173
     0
291
     1
 45
0.0
  0
VISUALSTYLE
  5
34
102
{ACAD_REACTORS
330
2A
102
}
102
{ACAD_XDICTIONARY
360
32D
102
}
330
2A
100
AcDbVisualStyle
  2
Conceptual
 70
     9
 71
     3
 72
     2
 73
     0
 90
        0
 40
0.6
 41
30.0
 62
     5
 63
     7
421
 16777215
 74
     2
 91
        2
 64
     7
 65
   257
 75
     1
175
     1
 42
179.0
 92
        8
 66
     7
 43
1.0
 76
     1
 77
     6
 78
     2
 67
     7
 79
     3
170
     0
171
     0
290
     0
174
     0
 93
        1
 44
0.0
173
     0
291
     0
 45
0.0
  0
VISUALSTYLE
  5
35
102
{ACAD_REACTORS
330
2A
102
}
102
{ACAD_XDICTIONARY
360
32F
102
}
330
2A
100
AcDbVisualStyle
  2
Dim
 70
    11
 71
     2
 72
     2
 73
     0
 90
        0
 40
0.6
 41
30.0
 62
     5
 63
     7
421
 16777215
 74
     1
 91
        4
 64
     7
 65
   257
 75
     1
175
     1
 42
1.0
 92
        8
 66
     7
 43
1.0
 76
     1
 77
     6
 78
     2
 67
     7
 79
     5
170
     0
171
     0
290
     0
174
     0
 93
        1
 44
-50.0
173
     0
291
     1
 45
0.0
  0
VISUALSTYLE
  5
3D
102
{ACAD_REACTORS
330
2A
102
}
102
{ACAD_XDICTIONARY
360
33F
102
}
330
2A
100
AcDbVisualStyle
  2
EdgeColorOff
 70
    22
 71
     2
 72
     2
 73
     0
 90
        0
 40
0.6
 41
30.0
 62
     5
 63
     7
421
 16777215
 74
     1
 91
        4
 64
     7
 65
   257
 75
     1
175
     1
 42
1.0
 92
        8
 66
     7
 43
1.0
 76
     1
 77
     6
 78
     2
 67
     7
 79
     5
170
     0
171
     0
290
     0
174
     0
 93
        1
 44
0.0
173
     0
291
     1
 45
0.0
  0
VISUALSTYLE
  5
39
102
{ACAD_REACTORS
330
2A
102
}
102
{ACAD_XDICTIONARY
360
337
102
}
330
2A
100
AcDbVisualStyle
  2
Facepattern
 70
    15
 71
     2
 72
     2
 73
     0
 90
        0
 40
0.6
 41
30.0
 62
     5
 63
     7
421
 16777215
 74
     1
 91
        4
 64
     7
 65
   257
 75
     1
175
     1
 42
1.0
 92
        8
 66
     7
 43
1.0
 76
     1
 77
     6
 78
     2
 67
     7
 79
     5
170
     0
171
     0
290
     0
174
     0
 93
        1
 44
0.0
173
     0
291
     1
 45
0.0
  0
VISUALSTYLE
  5
2B
102
{ACAD_REACTORS
330
2A
102
}
102
{ACAD_XDICTIONARY
360
31B
102
}
330
2A
100
AcDbVisualStyle
  2
Flat
 70
     0
 71
     2
 72
     1
 73
     1
 90
        2
 40
0.6
 41
30.0
 62
     5
 63
     7
421
 16777215
 74
     0
 91
        0
 64
     7
 65
   257
 75
     1
175
     1
 42
1.0
 92
        8
 66
     7
 43
1.0
 76
     1
 77
     6
 78
     2
 67
     7
 79
     5
170
     0
171
     0
290
     0
174
     0
 93
       13
 44
0.0
173
     0
291
     1
 45
0.0
  0
VISUALSTYLE
  5
2C
102
{ACAD_REACTORS
330
2A
102
}
102
{ACAD_XDICTIONARY
360
31D
102
}
330
2A
100
AcDbVisualStyle
  2
FlatWithEdges
 70
     1
 71
     2
 72
     1
 73
     1
 90
        2
 40
0.6
 41
30.0
 62
     5
 63
     7
421
 16777215
 74
     1
 91
        0
 64
     7
 65
   257
 75
     1
175
     1
 42
1.0
 92
        0
 66
   257
 43
1.0
 76
     1
 77
     6
 78
     2
 67
     7
 79
     5
170
     0
171
     0
290
     0
174
     0
 93
       13
 44
0.0
173
     0
291
     1
 45
0.0
  0
VISUALSTYLE
  5
2D
102
{ACAD_REACTORS
330
2A
102
}
102
{ACAD_XDICTIONARY
360
31F
102
}
330
2A
100
AcDbVisualStyle
  2
Gouraud
 70
     2
 71
     2
 72
     2
 73
     1
 90
        2
 40
0.6
 41
30.0
 62
     5
 63
     7
421
 16777215
 74
     0
 91
        0
 64
     7
 65
   257
 75
     1
175
     1
 42
1.0
 92
        0
 66
     7
 43
1.0
 76
     1
 77
     6
 78
     2
 67
     7
 79
     5
170
     0
171
     0
290
     0
174
     0
 93
       13
 44
0.0
173
     0
291
     1
 45
0.0
  0
VISUALSTYLE
  5
2E
102
{ACAD_REACTORS
330
2A
102
}
102
{ACAD_XDICTIONARY
360
321
102
}
330
2A
100
AcDbVisualStyle
  2
GouraudWithEdges
 70
     3
 71
     2
 72
     2
 73
     1
 90
        2
 40
0.6
 41
30.0
 62
     5
 63
     7
421
 16777215
 74
     1
 91
        0
 64
     7
 65
   257
 75
     1
175
     1
 42
1.0
 92
        0
 66
   257
 43
1.0
 76
     1
 77
     6
 78
     2
 67
     7
 79
     5
170
     0
171
     0
290
     0
174
     0
 93
       13
 44
0.0
173
     0
291
     1
 45
0.0
  0
VISUALSTYLE
  5
31
102
{ACAD_REACTORS
330
2A
102
}
102
{ACAD_XDICTIONARY
360
327
102
}
330
2A
100
AcDbVisualStyle
  2
Hidden
 70
     6
 71
     1
 72
     2
 73
     2
 90
        0
 40
0.6
 41
30.0
 62
     5
 63
     7
421
 16777215
 74
     2
 91
        2
 64
     7
 65
   257
 75
     2
175
     1
 42
40.0
 92
        0
 66
   257
 43
1.0
 76
     1
 77
     6
 78
     2
 67
     7
 79
     3
170
     0
171
     0
290
     0
174
     0
 93
        1
 44
0.0
173
     0
291
     0
 45
0.0
  0
VISUALSTYLE
  5
3B
102
{ACAD_REACTORS
330
2A
102
}
102
{ACAD_XDICTIONARY
360
33B
102
}
330
2A
100
AcDbVisualStyle
  2
JitterOff
 70
    20
 71
     2
 72
     2
 73
     0
 90
        0
 40
0.6
 41
30.0
 62
     5
 63
     7
421
 16777215
 74
     1
 91
        4
 64
     7
 65
   257
 75
     1
175
     1
 42
1.0
 92
       10
 66
     7
 43
1.0
 76
     1
 77
     6
 78
     2
 67
     7
 79
     5
170
     0
171
     0
290
     0
174
     0
 93
        1
 44
0.0
173
     0
291
     1
 45
0.0
  0
VISUALSTYLE
  5
38
102
{ACAD_REACTORS
330
2A
102
}
102
{ACAD_XDICTIONARY
360
335
102
}
330
2A
100
AcDbVisualStyle
  2
Linepattern
 70
    14
 71
     2
 72
     2
 73
     0
 90
        0
 40
0.6
 41
30.0
 62
     5
 63
     7
421
 16777215
 74
     1
 91
        4
 64
     7
 65
   257
 75
     7
175
     7
 42
1.0
 92
        8
 66
     7
 43
1.0
 76
     1
 77
     6
 78
     2
 67
     7
 79
     5
170
     0
171
     0
290
     0
174
     0
 93
        1
 44
0.0
173
     0
291
     1
 45
0.0
  0
VISUALSTYLE
  5
3C
102
{ACAD_REACTORS
330
2A
102
}
102
{ACAD_XDICTIONARY
360
33D
102
}
330
2A
100
AcDbVisualStyle
  2
OverhangOff
 70
    21
 71
     2
 72
     2
 73
     0
 90
        0
 40
0.6
 41
30.0
 62
     5
 63
     7
421
 16777215
 74
     1
 91
        4
 64
     7
 65
   257
 75
     1
175
     1
 42
1.0
 92
        9
 66
     7
 43
1.0
 76
     1
 77
     6
 78
     2
 67
     7
 79
     5
170
     0
171
     0
290
     0
174
     0
 93
        1
 44
0.0
173
     0
291
     1
 45
0.0
  0
VISUALSTYLE
  5
33
102
{ACAD_REACTORS
330
2A
102
}
102
{ACAD_XDICTIONARY
360
32B
102
}
330
2A
100
AcDbVisualStyle
  2
Realistic
 70
     8
 71
     2
 72
     3
 73
     0
 90
        2
 40
0.6
 41
30.0
 62
     5
 63
     7
421
 16777215
 74
     0
 91
        0
 64
     7
 65
   257
 75
     1
175
     1
 42
1.0
 92
        8
 66
   257
 43
1.0
 76
     1
 77
     6
 78
     2
 67
     7
 79
     3
170
     0
171
     0
290
     0
174
     0
 93
       13
 44
0.0
173
     0
291
     0
 45
0.0
  0
VISUALSTYLE
  5
42
102
{ACAD_REACTORS
330
2A
102
}
102
{ACAD_XDICTIONARY
360
349
102
}
330
2A
100
AcDbVisualStyle
  2
Shaded
 70
    27
 71
     2
 72
     2
 73
     1
 90
        2
 40
0.6
 41
30.0
 62
     5
 63
     7
421
 16777215
 74
     0
 91
        4
 64
     7
 65
   257
 75
     1
175
     1
 42
1.0
 92
        8
 66
   257
 43
1.0
 76
     1
 77
     6
 78
     2
 67
     8
425
  7895160
 79
     3
170
     0
171
     0
290
     0
174
     0
 93
        5
 44
0.0
173
     0
291
     0
 45
0.0
  0
VISUALSTYLE
  5
41
102
{ACAD_REACTORS
330
2A
102
}
102
{ACAD_XDICTIONARY
360
347
102
}
330
2A
100
AcDbVisualStyle
  2
Shaded with edges
 70
    26
 71
     2
 72
     2
 73
     1
 90
        2
 40
0.6
 41
30.0
 62
     5
 63
     7
421
 16777215
 74
     1
 91
       10
 64
     7
 65
   257
 75
     2
175
     1
 42
1.0
 92
        8
 66
   257
 43
1.0
 76
     1
 77
     6
 78
     2
 67
     7
 79
     3
170
     0
171
     0
290
     0
174
     0
 93
        5
 44
0.0
173
     0
291
     0
 45
0.0
  0
VISUALSTYLE
  5
3E
102
{ACAD_REACTORS
330
2A
102
}
102
{ACAD_XDICTIONARY
360
341
102
}
330
2A
100
AcDbVisualStyle
  2
Shades of Gray
 70
    23
 71
     2
 72
     2
 73
     3
 90
        0
 40
0.6
 41
30.0
 62
     5
 63
     7
421
 16777215
 74
     2
 91
        2
 64
     7
 65
     7
 75
     1
175
     1
 42
40.0
 92
        8
 66
     7
 43
1.0
 76
     1
 77
     6
 78
     2
 67
     7
 79
     3
170
     0
171
     0
290
     0
174
     0
 93
        1
 44
0.0
173
     0
291
     0
 45
0.0
  0
VISUALSTYLE
  5
3F
102
{ACAD_REACTORS
330
2A
102
}
102
{ACAD_XDICTIONARY
360
343
102
}
330
2A
100
AcDbVisualStyle
  2
Sketchy
 70
    24
 71
     1
 72
     2
 73
     2
 90
        0
 40
0.6
 41
30.0
 62
     5
 63
     7
421
 16777215
 74
     2
 91
        2
 64
     7
 65
     7
 75
     1
175
     1
 42
40.0
 92
       11
 66
     7
 43
1.0
 76
     1
 77
     6
 78
     2
 67
     7
 79
     6
170
     0
171
     0
290
     0
174
     0
 93
        1
 44
0.0
173
     0
291
     0
 45
0.0
  0
VISUALSTYLE
  5
37
102
{ACAD_REACTORS
330
2A
102
}
102
{ACAD_XDICTIONARY
360
333
102
}
330
2A
100
AcDbVisualStyle
  2
Thicken
 70
    13
 71
     2
 72
     2
 73
     0
 90
        0
 40
0.6
 41
30.0
 62
     5
 63
     7
421
 16777215
 74
     1
 91
        4
 64
     7
 65
   257
 75
     1
175
     1
 42
1.0
 92
       12
 66
     7
 43
1.0
 76
     1
 77
     6
 78
     2
 67
     7
 79
     5
170
     0
171
     0
290
     0
174
     0
 93
        1
 44
0.0
173
     0
291
     1
 45
0.0
  0
VISUALSTYLE
  5
30
102
{ACAD_REACTORS
330
2A
102
}
102
{ACAD_XDICTIONARY
360
325
102
}
330
2A
100
AcDbVisualStyle
  2
Wireframe
 70
     5
 71
     0
 72
     2
 73
     0
 90
        0
 40
0.6
 41
30.0
 62
     5
 63
     7
421
 16777215
 74
     1
 91
        4
 64
     7
 65
   257
 75
     1
175
     1
 42
1.0
 92
        0
 66
   257
 43
1.0
 76
     1
 77
     6
 78
     2
 67
     7
 79
     3
170
     0
171
     0
290
     0
174
     0
 93
        1
 44
0.0
173
     0
291
     0
 45
0.0
  0
VISUALSTYLE
  5
40
102
{ACAD_REACTORS
330
2A
102
}
102
{ACAD_XDICTIONARY
360
345
102
}
330
2A
100
AcDbVisualStyle
  2
X-Ray
 70
    25
 71
     2
 72
     2
 73
     1
 90
        1
 40
0.5
 41
30.0
 62
     5
 63
     7
421
 16777215
 74
     1
 91
        0
 64
     7
 65
   257
 75
     1
175
     1
 42
1.0
 92
        8
 66
     7
 43
1.0
 76
     1
 77
     6
 78
     2
 67
     7
 79
     3
170
     0
171
     0
290
     0
174
     0
 93
       13
 44
0.0
173
     0
291
     0
 45
0.0
  0
DICTIONARYVAR
  5
319
102
{ACAD_REACTORS
330
318
102
}
330
318
100
DictionaryVariables
280
     0
  1
1:1
  0
DICTIONARYVAR
  5
352
102
{ACAD_REACTORS
330
318
102
}
330
318
100
DictionaryVariables
280
     0
  1
Standard
  0
DICTIONARYVAR
  5
351
102
{ACAD_REACTORS
330
318
102
}
330
318
100
DictionaryVariables
280
     0
  1
Standard
  0
DICTIONARYVAR
  5
31A
102
{ACAD_REACTORS
330
318
102
}
330
318
100
DictionaryVariables
280
     0
  1
2
  0
DICTIONARY
  5
34E
330
5C
100
AcDbDictionary
280
     1
281
     1
  3
ACAD_XREC_ROUNDTRIP
360
34F
  0
DICTIONARY
  5
34B
330
5A
100
AcDbDictionary
280
     1
281
     1
  3
ACAD_ROUNDTRIP_2008_TABLESTYLE_CELLSTYLEMAP
360
34C
  0
DICTIONARY
  5
323
330
2F
100
AcDbDictionary
280
     1
281
     1
  3
ACAD_XREC_ROUNDTRIP
360
324
  0
DICTIONARY
  5
329
330
32
100
AcDbDictionary
280
     1
281
     1
  3
ACAD_XREC_ROUNDTRIP
360
32A
  0
DICTIONARY
  5
331
330
36
100
AcDbDictionary
280
     1
281
     1
  3
ACAD_XREC_ROUNDTRIP
360
332
  0
DICTIONARY
  5
339
330
3A
100
AcDbDictionary
280
     1
281
     1
  3
ACAD_XREC_ROUNDTRIP
360
33A
  0
DICTIONARY
  5
32D
330
34
100
AcDbDictionary
280
     1
281
     1
  3
ACAD_XREC_ROUNDTRIP
360
32E
  0
DICTIONARY
  5
32F
330
35
100
AcDbDictionary
280
     1
281
     1
  3
ACAD_XREC_ROUNDTRIP
360
330
  0
DICTIONARY
  5
33F
330
3D
100
AcDbDictionary
280
     1
281
     1
  3
ACAD_XREC_ROUNDTRIP
360
340
  0
DICTIONARY
  5
337
330
39
100
AcDbDictionary
280
     1
281
     1
  3
ACAD_XREC_ROUNDTRIP
360
338
  0
DICTIONARY
  5
31B
330
2B
100
AcDbDictionary
280
     1
281
     1
  3
ACAD_XREC_ROUNDTRIP
360
31C
  0
DICTIONARY
  5
31D
330
2C
100
AcDbDictionary
280
     1
281
     1
  3
ACAD_XREC_ROUNDTRIP
360
31E
  0
DICTIONARY
  5
31F
330
2D
100
AcDbDictionary
280
     1
281
     1
  3
ACAD_XREC_ROUNDTRIP
360
320
  0
DICTIONARY
  5
321
330
2E
100
AcDbDictionary
280
     1
281
     1
  3
ACAD_XREC_ROUNDTRIP
360
322
  0
DICTIONARY
  5
327
330
31
100
AcDbDictionary
280
     1
281
     1
  3
ACAD_XREC_ROUNDTRIP
360
328
  0
DICTIONARY
  5
33B
330
3B
100
AcDbDictionary
280
     1
281
     1
  3
ACAD_XREC_ROUNDTRIP
360
33C
  0
DICTIONARY
  5
335
330
38
100
AcDbDictionary
280
     1
281
     1
  3
ACAD_XREC_ROUNDTRIP
360
336
  0
DICTIONARY
  5
33D
330
3C
100
AcDbDictionary
280
     1
281
     1
  3
ACAD_XREC_ROUNDTRIP
360
33E
  0
DICTIONARY
  5
32B
330
33
100
AcDbDictionary
280
     1
281
     1
  3
ACAD_XREC_ROUNDTRIP
360
32C
  0
DICTIONARY
  5
349
330
42
100
AcDbDictionary
280
     1
281
     1
  3
ACAD_XREC_ROUNDTRIP
360
34A
  0
DICTIONARY
  5
347
330
41
100
AcDbDictionary
280
     1
281
     1
  3
ACAD_XREC_ROUNDTRIP
360
348
  0
DICTIONARY
  5
341
330
3E
100
AcDbDictionary
280
     1
281
     1
  3
ACAD_XREC_ROUNDTRIP
360
342
  0
DICTIONARY
  5
343
330
3F
100
AcDbDictionary
280
     1
281
     1
  3
ACAD_XREC_ROUNDTRIP
360
344
  0
DICTIONARY
  5
333
330
37
100
AcDbDictionary
280
     1
281
     1
  3
ACAD_XREC_ROUNDTRIP
360
334
  0
DICTIONARY
  5
325
330
30
100
AcDbDictionary
280
     1
281
     1
  3
ACAD_XREC_ROUNDTRIP
360
326
  0
DICTIONARY
  5
345
330
40
100
AcDbDictionary
280
     1
281
     1
  3
ACAD_XREC_ROUNDTRIP
360
346
  0
XRECORD
  5
34F
102
{ACAD_REACTORS
330
34E
102
}
330
34E
100
AcDbXrecord
280
     1
102
ACAD_ROUNDTRIP_2010_MLEADER_STYLE
  0
CELLSTYLEMAP
  5
34C
102
{ACAD_REACTORS
330
34B
102
}
330
34B
100
AcDbCellStyleMap
 90
        3
300
CELLSTYLE
  1
TABLEFORMAT_BEGIN
 90
        5
170
     1
 91
        0
 92
    32768
 62
   257
 93
        1
300
CONTENTFORMAT
  1
CONTENTFORMAT_BEGIN
 90
        0
 91
        0
 92
        4
 93
        0
300

 40
0.0
140
1.0
 94
        5
 62
     0
340
11
144
0.25
309
CONTENTFORMAT_END
171
     1
301
MARGIN
  1
CELLMARGIN_BEGIN
 40
0.06
 40
0.06
 40
0.06
 40
0.06
 40
0.06
 40
0.06
309
CELLMARGIN_END
 94
        6
 95
        1
302
GRIDFORMAT
  1
GRIDFORMAT_BEGIN
 90
        0
 91
        1
 62
     0
 92
       -2
340
14
 93
        0
 40
0.045
309
GRIDFORMAT_END
 95
        2
302
GRIDFORMAT
  1
GRIDFORMAT_BEGIN
 90
        0
 91
        1
 62
     0
 92
       -2
340
14
 93
        0
 40
0.045
309
GRIDFORMAT_END
 95
        4
302
GRIDFORMAT
  1
GRIDFORMAT_BEGIN
 90
        0
 91
        1
 62
     0
 92
       -2
340
14
 93
        0
 40
0.045
309
GRIDFORMAT_END
 95
        8
302
GRIDFORMAT
  1
GRIDFORMAT_BEGIN
 90
        0
 91
        1
 62
     0
 92
       -2
340
14
 93
        0
 40
0.045
309
GRIDFORMAT_END
 95
       16
302
GRIDFORMAT
  1
GRIDFORMAT_BEGIN
 90
        0
 91
        1
 62
     0
 92
       -2
340
14
 93
        0
 40
0.045
309
GRIDFORMAT_END
 95
       32
302
GRIDFORMAT
  1
GRIDFORMAT_BEGIN
 90
        0
 91
        1
 62
     0
 92
       -2
340
14
 93
        0
 40
0.045
309
GRIDFORMAT_END
309
TABLEFORMAT_END
  1
CELLSTYLE_BEGIN
 90
        1
 91
        1
300
_TITLE
309
CELLSTYLE_END
300
CELLSTYLE
  1
TABLEFORMAT_BEGIN
 90
        5
170
     1
 91
        0
 92
        0
 62
   257
 93
        1
300
CONTENTFORMAT
  1
CONTENTFORMAT_BEGIN
 90
        0
 91
        0
 92
        4
 93
        0
300

 40
0.0
140
1.0
 94
        5
 62
     0
340
11
144
0.18
309
CONTENTFORMAT_END
171
     1
301
MARGIN
  1
CELLMARGIN_BEGIN
 40
0.06
 40
0.06
 40
0.06
 40
0.06
 40
0.06
 40
0.06
309
CELLMARGIN_END
 94
        6
 95
        1
302
GRIDFORMAT
  1
GRIDFORMAT_BEGIN
 90
        0
 91
        1
 62
     0
 92
       -2
340
14
 93
        0
 40
0.045
309
GRIDFORMAT_END
 95
        2
302
GRIDFORMAT
  1
GRIDFORMAT_BEGIN
 90
        0
 91
        1
 62
     0
 92
       -2
340
14
 93
        0
 40
0.045
309
GRIDFORMAT_END
 95
        4
302
GRIDFORMAT
  1
GRIDFORMAT_BEGIN
 90
        0
 91
        1
 62
     0
 92
       -2
340
14
 93
        0
 40
0.045
309
GRIDFORMAT_END
 95
        8
302
GRIDFORMAT
  1
GRIDFORMAT_BEGIN
 90
        0
 91
        1
 62
     0
 92
       -2
340
14
 93
        0
 40
0.045
309
GRIDFORMAT_END
 95
       16
302
GRIDFORMAT
  1
GRIDFORMAT_BEGIN
 90
        0
 91
        1
 62
     0
 92
       -2
340
14
 93
        0
 40
0.045
309
GRIDFORMAT_END
 95
       32
302
GRIDFORMAT
  1
GRIDFORMAT_BEGIN
 90
        0
 91
        1
 62
     0
 92
       -2
340
14
 93
        0
 40
0.045
309
GRIDFORMAT_END
309
TABLEFORMAT_END
  1
CELLSTYLE_BEGIN
 90
        2
 91
        1
300
_HEADER
309
CELLSTYLE_END
300
CELLSTYLE
  1
TABLEFORMAT_BEGIN
 90
        5
170
     1
 91
        0
 92
        0
 62
   257
 93
        1
300
CONTENTFORMAT
  1
CONTENTFORMAT_BEGIN
 90
        0
 91
        0
 92
        4
 93
        0
300

 40
0.0
140
1.0
 94
        2
 62
     0
340
11
144
0.18
309
CONTENTFORMAT_END
171
     1
301
MARGIN
  1
CELLMARGIN_BEGIN
 40
0.06
 40
0.06
 40
0.06
 40
0.06
 40
0.06
 40
0.06
309
CELLMARGIN_END
 94
        6
 95
        1
302
GRIDFORMAT
  1
GRIDFORMAT_BEGIN
 90
        0
 91
        1
 62
     0
 92
       -2
340
14
 93
        0
 40
0.045
309
GRIDFORMAT_END
 95
        2
302
GRIDFORMAT
  1
GRIDFORMAT_BEGIN
 90
        0
 91
        1
 62
     0
 92
       -2
340
14
 93
        0
 40
0.045
309
GRIDFORMAT_END
 95
        4
302
GRIDFORMAT
  1
GRIDFORMAT_BEGIN
 90
        0
 91
        1
 62
     0
 92
       -2
340
14
 93
        0
 40
0.045
309
GRIDFORMAT_END
 95
        8
302
GRIDFORMAT
  1
GRIDFORMAT_BEGIN
 90
        0
 91
        1
 62
     0
 92
       -2
340
14
 93
        0
 40
0.045
309
GRIDFORMAT_END
 95
       16
302
GRIDFORMAT
  1
GRIDFORMAT_BEGIN
 90
        0
 91
        1
 62
     0
 92
       -2
340
14
 93
        0
 40
0.045
309
GRIDFORMAT_END
 95
       32
302
GRIDFORMAT
  1
GRIDFORMAT_BEGIN
 90
        0
 91
        1
 62
     0
 92
       -2
340
14
 93
        0
 40
0.045
309
GRIDFORMAT_END
309
TABLEFORMAT_END
  1
CELLSTYLE_BEGIN
 90
        3
 91
        2
300
_DATA
309
CELLSTYLE_END
  0
XRECORD
  5
324
102
{ACAD_REACTORS
330
323
102
}
330
323
100
AcDbXrecord
280
     1
102
RTVSPropertyOp0
 70
     1
102
RTVSPropertyOp1
 70
     1
102
RTVSPropertyOp2
 70
     1
102
RTVSPropertyOp3
 70
     1
102
RTVSPropertyOp4
 70
     1
102
RTVSPropertyOp5
 70
     1
102
RTVSPropertyOp6
 70
     1
102
RTVSPropertyOp7
 70
     1
102
RTVSPropertyOp8
 70
     1
102
RTVSPropertyOp9
 70
     1
102
RTVSPropertyOp10
 70
     1
102
RTVSPropertyOp11
 70
     1
102
RTVSPropertyOp12
 70
     1
102
RTVSPropertyOp13
 70
     1
102
RTVSPropertyOp14
 70
     1
102
RTVSPropertyOp15
 70
     1
102
RTVSPropertyOp16
 70
     1
102
RTVSPropertyOp17
 70
     1
102
RTVSPropertyOp18
 70
     1
102
RTVSPropertyOp19
 70
     1
102
RTVSPropertyOp20
 70
     1
102
RTVSPropertyOp21
 70
     1
102
RTVSPropertyOp22
 70
     1
102
RTVSPropertyOp23
 70
     1
102
RTVSPropertyOp24
 70
     1
102
RTVSPropertyOp25
 70
     1
102
RTVSPropertyOp26
 70
     1
102
RTVSPropertyOp27
 70
     1
102
RTVSPropertyOp28
 70
     1
102
RTVSPropertyOp29
 70
     1
102
RTVSPropertyOp30
 70
     1
102
RTVSPropertyOp31
 70
     1
102
RTVSPropertyOp32
 70
     1
102
RTVSPropertyOp33
 70
     1
102
RTVSPropertyOp34
 70
     1
102
RTVSPropertyOp35
 70
     1
102
RTVSPropertyOp36
 70
     1
102
RTVSPropertyOp37
 70
     1
102
RTVSPropertyOp38
 70
     1
102
RTVSPropertyOp39
 70
     1
102
RTVSPropertyOp40
 70
     1
102
RTVSPropertyOp41
 70
     1
102
RTVSPropertyOp42
 70
     1
102
RTVSPropertyOp43
 70
     1
102
RTVSPropertyOp44
 70
     1
102
RTVSPropertyOp45
 70
     1
102
RTVSPropertyOp46
 70
     1
102
RTVSPropertyOp47
 70
     1
102
RTVSPropertyOp48
 70
     1
102
RTVSPropertyOp49
 70
     1
102
RTVSPropertyOp50
 70
     1
102
RTVSPropertyOp51
 70
     0
102
RTVSPropertyOp52
 70
     0
102
RTVSPropertyOp53
 70
     1
102
RTVSPropertyOp54
 70
     1
102
RTVSPropertyOp55
 70
     1
102
RTVSPropertyOp56
 70
     1
102
RTVSPropertyOp57
 70
     1
102
RTVSPost2010Prop28
280
     1
102
RTVSPost2010PropOp28
 70
     1
102
RTVSPost2010Prop29
280
     1
102
RTVSPost2010PropOp29
 70
     1
102
RTVSPost2010Prop30
280
     0
102
RTVSPost2010PropOp30
 70
     1
102
RTVSPost2010Prop31
280
     0
102
RTVSPost2010PropOp31
 70
     1
102
RTVSPost2010Prop32
280
     0
102
RTVSPost2010PropOp32
 70
     1
102
RTVSPost2010Prop33
280
     0
102
RTVSPost2010PropOp33
 70
     1
102
RTVSPost2010Prop34
280
     0
102
RTVSPost2010PropOp34
 70
     1
102
RTVSPost2010Prop35
280
     0
102
RTVSPost2010PropOp35
 70
     1
102
RTVSPost2010Prop36
280
     0
102
RTVSPost2010PropOp36
 70
     1
102
RTVSPost2010Prop37
 90
       50
102
RTVSPost2010PropOp37
 70
     1
102
RTVSPost2010Prop38
140
0.0
102
RTVSPost2010PropOp38
 70
     1
102
RTVSPost2010Prop39
140
1.0
102
RTVSPost2010PropOp39
 70
     1
102
RTVSPost2010Prop40
 90
        0
102
RTVSPost2010PropOp40
 70
     1
102
RTVSPost2010Prop41ColorIndex
 90
       18
102
RTVSPost2010Prop41ColorRGB
 90
        0
102
RTVSPost2010PropOp41
 70
     1
102
RTVSPost2010Prop42
 90
       50
102
RTVSPost2010PropOp42
 70
     1
102
RTVSPost2010Prop43
 90
        3
102
RTVSPost2010PropOp43
 70
     1
102
RTVSPost2010Prop44ColorIndex
 90
        5
102
RTVSPost2010Prop44ColorRGB
 90
      255
102
RTVSPost2010PropOp44
 70
     1
102
RTVSPost2010Prop45
280
     0
102
RTVSPost2010PropOp45
 70
     1
102
RTVSPost2010Prop46
 90
       50
102
RTVSPost2010PropOp46
 70
     1
102
RTVSPost2010Prop47
 90
       50
102
RTVSPost2010PropOp47
 70
     1
102
RTVSPost2010Prop48
 90
       50
102
RTVSPost2010PropOp48
 70
     1
102
RTVSPost2010Prop49
280
     0
102
RTVSPost2010PropOp49
 70
     1
102
RTVSPost2010Prop50
 90
       50
102
RTVSPost2010PropOp50
 70
     1
102
RTVSPost2010Prop51ColorIndex
 90
      256
102
RTVSPost2010Prop51ColorRGB
 90
-16777216
102
RTVSPost2010PropOp51
 70
     0
102
RTVSPost2010Prop52
140
1.0
102
RTVSPost2010PropOp52
 70
     0
102
RTVSPost2010Prop53
 90
        2
102
RTVSPost2010PropOp53
 70
     1
102
RTVSPost2010Prop54
  1
strokes_ogs.tif
102
RTVSPost2010PropOp54
 70
     1
102
RTVSPost2010Prop55
280
     0
102
RTVSPost2010PropOp55
 70
     1
102
RTVSPost2010Prop56
140
1.0
102
RTVSPost2010PropOp56
 70
     1
102
RTVSPost2010Prop57
140
1.0
102
RTVSPost2010PropOp57
 70
     1
  0
XRECORD
  5
32A
102
{ACAD_REACTORS
330
329
102
}
330
329
100
AcDbXrecord
280
     1
102
RTVSPropertyOp0
 70
     1
102
RTVSPropertyOp1
 70
     1
102
RTVSPropertyOp2
 70
     1
102
RTVSPropertyOp3
 70
     1
102
RTVSPropertyOp4
 70
     1
102
RTVSPropertyOp5
 70
     1
102
RTVSPropertyOp6
 70
     1
102
RTVSPropertyOp7
 70
     1
102
RTVSPropertyOp8
 70
     1
102
RTVSPropertyOp9
 70
     1
102
RTVSPropertyOp10
 70
     1
102
RTVSPropertyOp11
 70
     1
102
RTVSPropertyOp12
 70
     1
102
RTVSPropertyOp13
 70
     1
102
RTVSPropertyOp14
 70
     1
102
RTVSPropertyOp15
 70
     1
102
RTVSPropertyOp16
 70
     1
102
RTVSPropertyOp17
 70
     1
102
RTVSPropertyOp18
 70
     1
102
RTVSPropertyOp19
 70
     1
102
RTVSPropertyOp20
 70
     1
102
RTVSPropertyOp21
 70
     1
102
RTVSPropertyOp22
 70
     1
102
RTVSPropertyOp23
 70
     1
102
RTVSPropertyOp24
 70
     1
102
RTVSPropertyOp25
 70
     1
102
RTVSPropertyOp26
 70
     1
102
RTVSPropertyOp27
 70
     1
102
RTVSPropertyOp28
 70
     1
102
RTVSPropertyOp29
 70
     1
102
RTVSPropertyOp30
 70
     1
102
RTVSPropertyOp31
 70
     1
102
RTVSPropertyOp32
 70
     1
102
RTVSPropertyOp33
 70
     1
102
RTVSPropertyOp34
 70
     1
102
RTVSPropertyOp35
 70
     1
102
RTVSPropertyOp36
 70
     1
102
RTVSPropertyOp37
 70
     1
102
RTVSPropertyOp38
 70
     1
102
RTVSPropertyOp39
 70
     1
102
RTVSPropertyOp40
 70
     1
102
RTVSPropertyOp41
 70
     1
102
RTVSPropertyOp42
 70
     1
102
RTVSPropertyOp43
 70
     1
102
RTVSPropertyOp44
 70
     1
102
RTVSPropertyOp45
 70
     1
102
RTVSPropertyOp46
 70
     1
102
RTVSPropertyOp47
 70
     1
102
RTVSPropertyOp48
 70
     1
102
RTVSPropertyOp49
 70
     1
102
RTVSPropertyOp50
 70
     1
102
RTVSPropertyOp51
 70
     0
102
RTVSPropertyOp52
 70
     0
102
RTVSPropertyOp53
 70
     1
102
RTVSPropertyOp54
 70
     1
102
RTVSPropertyOp55
 70
     1
102
RTVSPropertyOp56
 70
     1
102
RTVSPropertyOp57
 70
     1
102
RTVSPost2010Prop28
280
     0
102
RTVSPost2010PropOp28
 70
     1
102
RTVSPost2010Prop29
280
     1
102
RTVSPost2010PropOp29
 70
     1
102
RTVSPost2010Prop30
280
     1
102
RTVSPost2010PropOp30
 70
     1
102
RTVSPost2010Prop31
280
     0
102
RTVSPost2010PropOp31
 70
     1
102
RTVSPost2010Prop32
280
     0
102
RTVSPost2010PropOp32
 70
     1
102
RTVSPost2010Prop33
280
     0
102
RTVSPost2010PropOp33
 70
     1
102
RTVSPost2010Prop34
280
     0
102
RTVSPost2010PropOp34
 70
     1
102
RTVSPost2010Prop35
280
     0
102
RTVSPost2010PropOp35
 70
     1
102
RTVSPost2010Prop36
280
     0
102
RTVSPost2010PropOp36
 70
     1
102
RTVSPost2010Prop37
 90
       50
102
RTVSPost2010PropOp37
 70
     1
102
RTVSPost2010Prop38
140
0.0
102
RTVSPost2010PropOp38
 70
     1
102
RTVSPost2010Prop39
140
1.0
102
RTVSPost2010PropOp39
 70
     1
102
RTVSPost2010Prop40
 90
        0
102
RTVSPost2010PropOp40
 70
     1
102
RTVSPost2010Prop41ColorIndex
 90
       18
102
RTVSPost2010Prop41ColorRGB
 90
        0
102
RTVSPost2010PropOp41
 70
     1
102
RTVSPost2010Prop42
 90
       50
102
RTVSPost2010PropOp42
 70
     1
102
RTVSPost2010Prop43
 90
        3
102
RTVSPost2010PropOp43
 70
     1
102
RTVSPost2010Prop44ColorIndex
 90
        5
102
RTVSPost2010Prop44ColorRGB
 90
      255
102
RTVSPost2010PropOp44
 70
     1
102
RTVSPost2010Prop45
280
     0
102
RTVSPost2010PropOp45
 70
     1
102
RTVSPost2010Prop46
 90
       50
102
RTVSPost2010PropOp46
 70
     1
102
RTVSPost2010Prop47
 90
       50
102
RTVSPost2010PropOp47
 70
     1
102
RTVSPost2010Prop48
 90
       50
102
RTVSPost2010PropOp48
 70
     1
102
RTVSPost2010Prop49
280
     0
102
RTVSPost2010PropOp49
 70
     1
102
RTVSPost2010Prop50
 90
       50
102
RTVSPost2010PropOp50
 70
     1
102
RTVSPost2010Prop51ColorIndex
 90
      256
102
RTVSPost2010Prop51ColorRGB
 90
-16777216
102
RTVSPost2010PropOp51
 70
     0
102
RTVSPost2010Prop52
140
1.0
102
RTVSPost2010PropOp52
 70
     0
102
RTVSPost2010Prop53
 90
        2
102
RTVSPost2010PropOp53
 70
     1
102
RTVSPost2010Prop54
  1
strokes_ogs.tif
102
RTVSPost2010PropOp54
 70
     1
102
RTVSPost2010Prop55
280
     0
102
RTVSPost2010PropOp55
 70
     1
102
RTVSPost2010Prop56
140
1.0
102
RTVSPost2010PropOp56
 70
     1
102
RTVSPost2010Prop57
140
1.0
102
RTVSPost2010PropOp57
 70
     1
  0
XRECORD
  5
332
102
{ACAD_REACTORS
330
331
102
}
330
331
100
AcDbXrecord
280
     1
102
RTVSPropertyOp0
 70
     1
102
RTVSPropertyOp1
 70
     1
102
RTVSPropertyOp2
 70
     1
102
RTVSPropertyOp3
 70
     1
102
RTVSPropertyOp4
 70
     1
102
RTVSPropertyOp5
 70
     1
102
RTVSPropertyOp6
 70
     1
102
RTVSPropertyOp7
 70
     1
102
RTVSPropertyOp8
 70
     1
102
RTVSPropertyOp9
 70
     1
102
RTVSPropertyOp10
 70
     1
102
RTVSPropertyOp11
 70
     1
102
RTVSPropertyOp12
 70
     1
102
RTVSPropertyOp13
 70
     1
102
RTVSPropertyOp14
 70
     1
102
RTVSPropertyOp15
 70
     1
102
RTVSPropertyOp16
 70
     1
102
RTVSPropertyOp17
 70
     1
102
RTVSPropertyOp18
 70
     1
102
RTVSPropertyOp19
 70
     1
102
RTVSPropertyOp20
 70
     1
102
RTVSPropertyOp21
 70
     1
102
RTVSPropertyOp22
 70
     1
102
RTVSPropertyOp23
 70
     1
102
RTVSPropertyOp24
 70
     1
102
RTVSPropertyOp25
 70
     1
102
RTVSPropertyOp26
 70
     1
102
RTVSPropertyOp27
 70
     1
102
RTVSPropertyOp28
 70
     1
102
RTVSPropertyOp29
 70
     1
102
RTVSPropertyOp30
 70
     1
102
RTVSPropertyOp31
 70
     1
102
RTVSPropertyOp32
 70
     1
102
RTVSPropertyOp33
 70
     1
102
RTVSPropertyOp34
 70
     1
102
RTVSPropertyOp35
 70
     1
102
RTVSPropertyOp36
 70
     1
102
RTVSPropertyOp37
 70
     1
102
RTVSPropertyOp38
 70
     1
102
RTVSPropertyOp39
 70
     1
102
RTVSPropertyOp40
 70
     1
102
RTVSPropertyOp41
 70
     1
102
RTVSPropertyOp42
 70
     1
102
RTVSPropertyOp43
 70
     1
102
RTVSPropertyOp44
 70
     1
102
RTVSPropertyOp45
 70
     1
102
RTVSPropertyOp46
 70
     1
102
RTVSPropertyOp47
 70
     1
102
RTVSPropertyOp48
 70
     1
102
RTVSPropertyOp49
 70
     1
102
RTVSPropertyOp50
 70
     1
102
RTVSPropertyOp51
 70
     0
102
RTVSPropertyOp52
 70
     0
102
RTVSPropertyOp53
 70
     1
102
RTVSPropertyOp54
 70
     1
102
RTVSPropertyOp55
 70
     1
102
RTVSPropertyOp56
 70
     1
102
RTVSPropertyOp57
 70
     1
102
RTVSPost2010Prop28
280
     0
102
RTVSPost2010PropOp28
 70
     1
102
RTVSPost2010Prop29
280
     1
102
RTVSPost2010PropOp29
 70
     1
102
RTVSPost2010Prop30
280
     1
102
RTVSPost2010PropOp30
 70
     1
102
RTVSPost2010Prop31
280
     0
102
RTVSPost2010PropOp31
 70
     1
102
RTVSPost2010Prop32
280
     0
102
RTVSPost2010PropOp32
 70
     1
102
RTVSPost2010Prop33
280
     0
102
RTVSPost2010PropOp33
 70
     1
102
RTVSPost2010Prop34
280
     0
102
RTVSPost2010PropOp34
 70
     1
102
RTVSPost2010Prop35
280
     0
102
RTVSPost2010PropOp35
 70
     1
102
RTVSPost2010Prop36
280
     0
102
RTVSPost2010PropOp36
 70
     1
102
RTVSPost2010Prop37
 90
       50
102
RTVSPost2010PropOp37
 70
     1
102
RTVSPost2010Prop38
140
0.0
102
RTVSPost2010PropOp38
 70
     1
102
RTVSPost2010Prop39
140
1.0
102
RTVSPost2010PropOp39
 70
     1
102
RTVSPost2010Prop40
 90
        0
102
RTVSPost2010PropOp40
 70
     1
102
RTVSPost2010Prop41ColorIndex
 90
       18
102
RTVSPost2010Prop41ColorRGB
 90
        0
102
RTVSPost2010PropOp41
 70
     1
102
RTVSPost2010Prop42
 90
       50
102
RTVSPost2010PropOp42
 70
     1
102
RTVSPost2010Prop43
 90
        3
102
RTVSPost2010PropOp43
 70
     1
102
RTVSPost2010Prop44ColorIndex
 90
        5
102
RTVSPost2010Prop44ColorRGB
 90
      255
102
RTVSPost2010PropOp44
 70
     1
102
RTVSPost2010Prop45
280
     0
102
RTVSPost2010PropOp45
 70
     1
102
RTVSPost2010Prop46
 90
       50
102
RTVSPost2010PropOp46
 70
     1
102
RTVSPost2010Prop47
 90
       50
102
RTVSPost2010PropOp47
 70
     1
102
RTVSPost2010Prop48
 90
       50
102
RTVSPost2010PropOp48
 70
     1
102
RTVSPost2010Prop49
280
     0
102
RTVSPost2010PropOp49
 70
     1
102
RTVSPost2010Prop50
 90
       50
102
RTVSPost2010PropOp50
 70
     1
102
RTVSPost2010Prop51ColorIndex
 90
      256
102
RTVSPost2010Prop51ColorRGB
 90
-16777216
102
RTVSPost2010PropOp51
 70
     0
102
RTVSPost2010Prop52
140
1.0
102
RTVSPost2010PropOp52
 70
     0
102
RTVSPost2010Prop53
 90
        2
102
RTVSPost2010PropOp53
 70
     1
102
RTVSPost2010Prop54
  1
strokes_ogs.tif
102
RTVSPost2010PropOp54
 70
     1
102
RTVSPost2010Prop55
280
     0
102
RTVSPost2010PropOp55
 70
     1
102
RTVSPost2010Prop56
140
1.0
102
RTVSPost2010PropOp56
 70
     1
102
RTVSPost2010Prop57
140
1.0
102
RTVSPost2010PropOp57
 70
     1
  0
XRECORD
  5
33A
102
{ACAD_REACTORS
330
339
102
}
330
339
100
AcDbXrecord
280
     1
102
RTVSPropertyOp0
 70
     1
102
RTVSPropertyOp1
 70
     1
102
RTVSPropertyOp2
 70
     1
102
RTVSPropertyOp3
 70
     1
102
RTVSPropertyOp4
 70
     1
102
RTVSPropertyOp5
 70
     1
102
RTVSPropertyOp6
 70
     1
102
RTVSPropertyOp7
 70
     1
102
RTVSPropertyOp8
 70
     1
102
RTVSPropertyOp9
 70
     1
102
RTVSPropertyOp10
 70
     1
102
RTVSPropertyOp11
 70
     1
102
RTVSPropertyOp12
 70
     1
102
RTVSPropertyOp13
 70
     1
102
RTVSPropertyOp14
 70
     1
102
RTVSPropertyOp15
 70
     1
102
RTVSPropertyOp16
 70
     1
102
RTVSPropertyOp17
 70
     1
102
RTVSPropertyOp18
 70
     1
102
RTVSPropertyOp19
 70
     1
102
RTVSPropertyOp20
 70
     1
102
RTVSPropertyOp21
 70
     1
102
RTVSPropertyOp22
 70
     1
102
RTVSPropertyOp23
 70
     1
102
RTVSPropertyOp24
 70
     1
102
RTVSPropertyOp25
 70
     1
102
RTVSPropertyOp26
 70
     1
102
RTVSPropertyOp27
 70
     1
102
RTVSPropertyOp28
 70
     1
102
RTVSPropertyOp29
 70
     1
102
RTVSPropertyOp30
 70
     1
102
RTVSPropertyOp31
 70
     1
102
RTVSPropertyOp32
 70
     1
102
RTVSPropertyOp33
 70
     1
102
RTVSPropertyOp34
 70
     1
102
RTVSPropertyOp35
 70
     1
102
RTVSPropertyOp36
 70
     1
102
RTVSPropertyOp37
 70
     1
102
RTVSPropertyOp38
 70
     1
102
RTVSPropertyOp39
 70
     1
102
RTVSPropertyOp40
 70
     1
102
RTVSPropertyOp41
 70
     1
102
RTVSPropertyOp42
 70
     1
102
RTVSPropertyOp43
 70
     1
102
RTVSPropertyOp44
 70
     1
102
RTVSPropertyOp45
 70
     1
102
RTVSPropertyOp46
 70
     1
102
RTVSPropertyOp47
 70
     1
102
RTVSPropertyOp48
 70
     1
102
RTVSPropertyOp49
 70
     1
102
RTVSPropertyOp50
 70
     1
102
RTVSPropertyOp51
 70
     0
102
RTVSPropertyOp52
 70
     0
102
RTVSPropertyOp53
 70
     1
102
RTVSPropertyOp54
 70
     1
102
RTVSPropertyOp55
 70
     1
102
RTVSPropertyOp56
 70
     1
102
RTVSPropertyOp57
 70
     1
102
RTVSPost2010Prop28
280
     0
102
RTVSPost2010PropOp28
 70
     1
102
RTVSPost2010Prop29
280
     1
102
RTVSPost2010PropOp29
 70
     1
102
RTVSPost2010Prop30
280
     1
102
RTVSPost2010PropOp30
 70
     1
102
RTVSPost2010Prop31
280
     0
102
RTVSPost2010PropOp31
 70
     1
102
RTVSPost2010Prop32
280
     0
102
RTVSPost2010PropOp32
 70
     1
102
RTVSPost2010Prop33
280
     0
102
RTVSPost2010PropOp33
 70
     1
102
RTVSPost2010Prop34
280
     0
102
RTVSPost2010PropOp34
 70
     1
102
RTVSPost2010Prop35
280
     0
102
RTVSPost2010PropOp35
 70
     1
102
RTVSPost2010Prop36
280
     0
102
RTVSPost2010PropOp36
 70
     1
102
RTVSPost2010Prop37
 90
       50
102
RTVSPost2010PropOp37
 70
     1
102
RTVSPost2010Prop38
140
0.0
102
RTVSPost2010PropOp38
 70
     1
102
RTVSPost2010Prop39
140
1.0
102
RTVSPost2010PropOp39
 70
     1
102
RTVSPost2010Prop40
 90
        0
102
RTVSPost2010PropOp40
 70
     1
102
RTVSPost2010Prop41ColorIndex
 90
       18
102
RTVSPost2010Prop41ColorRGB
 90
        0
102
RTVSPost2010PropOp41
 70
     1
102
RTVSPost2010Prop42
 90
       50
102
RTVSPost2010PropOp42
 70
     1
102
RTVSPost2010Prop43
 90
        3
102
RTVSPost2010PropOp43
 70
     1
102
RTVSPost2010Prop44ColorIndex
 90
        5
102
RTVSPost2010Prop44ColorRGB
 90
      255
102
RTVSPost2010PropOp44
 70
     1
102
RTVSPost2010Prop45
280
     0
102
RTVSPost2010PropOp45
 70
     1
102
RTVSPost2010Prop46
 90
       50
102
RTVSPost2010PropOp46
 70
     1
102
RTVSPost2010Prop47
 90
       50
102
RTVSPost2010PropOp47
 70
     1
102
RTVSPost2010Prop48
 90
       50
102
RTVSPost2010PropOp48
 70
     1
102
RTVSPost2010Prop49
280
     0
102
RTVSPost2010PropOp49
 70
     1
102
RTVSPost2010Prop50
 90
       50
102
RTVSPost2010PropOp50
 70
     1
102
RTVSPost2010Prop51ColorIndex
 90
      256
102
RTVSPost2010Prop51ColorRGB
 90
-16777216
102
RTVSPost2010PropOp51
 70
     0
102
RTVSPost2010Prop52
140
1.0
102
RTVSPost2010PropOp52
 70
     0
102
RTVSPost2010Prop53
 90
        2
102
RTVSPost2010PropOp53
 70
     1
102
RTVSPost2010Prop54
  1
strokes_ogs.tif
102
RTVSPost2010PropOp54
 70
     1
102
RTVSPost2010Prop55
280
     0
102
RTVSPost2010PropOp55
 70
     1
102
RTVSPost2010Prop56
140
1.0
102
RTVSPost2010PropOp56
 70
     1
102
RTVSPost2010Prop57
140
1.0
102
RTVSPost2010PropOp57
 70
     1
  0
XRECORD
  5
32E
102
{ACAD_REACTORS
330
32D
102
}
330
32D
100
AcDbXrecord
280
     1
102
RTVSPropertyOp0
 70
     1
102
RTVSPropertyOp1
 70
     1
102
RTVSPropertyOp2
 70
     1
102
RTVSPropertyOp3
 70
     1
102
RTVSPropertyOp4
 70
     1
102
RTVSPropertyOp5
 70
     1
102
RTVSPropertyOp6
 70
     1
102
RTVSPropertyOp7
 70
     1
102
RTVSPropertyOp8
 70
     1
102
RTVSPropertyOp9
 70
     1
102
RTVSPropertyOp10
 70
     1
102
RTVSPropertyOp11
 70
     1
102
RTVSPropertyOp12
 70
     1
102
RTVSPropertyOp13
 70
     1
102
RTVSPropertyOp14
 70
     1
102
RTVSPropertyOp15
 70
     1
102
RTVSPropertyOp16
 70
     1
102
RTVSPropertyOp17
 70
     1
102
RTVSPropertyOp18
 70
     1
102
RTVSPropertyOp19
 70
     1
102
RTVSPropertyOp20
 70
     1
102
RTVSPropertyOp21
 70
     1
102
RTVSPropertyOp22
 70
     1
102
RTVSPropertyOp23
 70
     1
102
RTVSPropertyOp24
 70
     1
102
RTVSPropertyOp25
 70
     1
102
RTVSPropertyOp26
 70
     1
102
RTVSPropertyOp27
 70
     1
102
RTVSPropertyOp28
 70
     1
102
RTVSPropertyOp29
 70
     1
102
RTVSPropertyOp30
 70
     1
102
RTVSPropertyOp31
 70
     1
102
RTVSPropertyOp32
 70
     1
102
RTVSPropertyOp33
 70
     1
102
RTVSPropertyOp34
 70
     1
102
RTVSPropertyOp35
 70
     1
102
RTVSPropertyOp36
 70
     1
102
RTVSPropertyOp37
 70
     1
102
RTVSPropertyOp38
 70
     1
102
RTVSPropertyOp39
 70
     1
102
RTVSPropertyOp40
 70
     1
102
RTVSPropertyOp41
 70
     1
102
RTVSPropertyOp42
 70
     1
102
RTVSPropertyOp43
 70
     1
102
RTVSPropertyOp44
 70
     1
102
RTVSPropertyOp45
 70
     1
102
RTVSPropertyOp46
 70
     1
102
RTVSPropertyOp47
 70
     1
102
RTVSPropertyOp48
 70
     1
102
RTVSPropertyOp49
 70
     1
102
RTVSPropertyOp50
 70
     1
102
RTVSPropertyOp51
 70
     0
102
RTVSPropertyOp52
 70
     0
102
RTVSPropertyOp53
 70
     1
102
RTVSPropertyOp54
 70
     1
102
RTVSPropertyOp55
 70
     1
102
RTVSPropertyOp56
 70
     1
102
RTVSPropertyOp57
 70
     1
102
RTVSPost2010Prop28
280
     0
102
RTVSPost2010PropOp28
 70
     1
102
RTVSPost2010Prop29
280
     1
102
RTVSPost2010PropOp29
 70
     1
102
RTVSPost2010Prop30
280
     1
102
RTVSPost2010PropOp30
 70
     1
102
RTVSPost2010Prop31
280
     0
102
RTVSPost2010PropOp31
 70
     1
102
RTVSPost2010Prop32
280
     0
102
RTVSPost2010PropOp32
 70
     1
102
RTVSPost2010Prop33
280
     0
102
RTVSPost2010PropOp33
 70
     1
102
RTVSPost2010Prop34
280
     0
102
RTVSPost2010PropOp34
 70
     1
102
RTVSPost2010Prop35
280
     0
102
RTVSPost2010PropOp35
 70
     1
102
RTVSPost2010Prop36
280
     0
102
RTVSPost2010PropOp36
 70
     1
102
RTVSPost2010Prop37
 90
       50
102
RTVSPost2010PropOp37
 70
     1
102
RTVSPost2010Prop38
140
0.0
102
RTVSPost2010PropOp38
 70
     1
102
RTVSPost2010Prop39
140
1.0
102
RTVSPost2010PropOp39
 70
     1
102
RTVSPost2010Prop40
 90
        0
102
RTVSPost2010PropOp40
 70
     1
102
RTVSPost2010Prop41ColorIndex
 90
       18
102
RTVSPost2010Prop41ColorRGB
 90
        0
102
RTVSPost2010PropOp41
 70
     1
102
RTVSPost2010Prop42
 90
       50
102
RTVSPost2010PropOp42
 70
     1
102
RTVSPost2010Prop43
 90
        3
102
RTVSPost2010PropOp43
 70
     1
102
RTVSPost2010Prop44ColorIndex
 90
        5
102
RTVSPost2010Prop44ColorRGB
 90
      255
102
RTVSPost2010PropOp44
 70
     1
102
RTVSPost2010Prop45
280
     0
102
RTVSPost2010PropOp45
 70
     1
102
RTVSPost2010Prop46
 90
       50
102
RTVSPost2010PropOp46
 70
     1
102
RTVSPost2010Prop47
 90
       50
102
RTVSPost2010PropOp47
 70
     1
102
RTVSPost2010Prop48
 90
       50
102
RTVSPost2010PropOp48
 70
     1
102
RTVSPost2010Prop49
280
     0
102
RTVSPost2010PropOp49
 70
     1
102
RTVSPost2010Prop50
 90
       50
102
RTVSPost2010PropOp50
 70
     1
102
RTVSPost2010Prop51ColorIndex
 90
      256
102
RTVSPost2010Prop51ColorRGB
 90
-16777216
102
RTVSPost2010PropOp51
 70
     0
102
RTVSPost2010Prop52
140
1.0
102
RTVSPost2010PropOp52
 70
     0
102
RTVSPost2010Prop53
 90
        2
102
RTVSPost2010PropOp53
 70
     1
102
RTVSPost2010Prop54
  1
strokes_ogs.tif
102
RTVSPost2010PropOp54
 70
     1
102
RTVSPost2010Prop55
280
     0
102
RTVSPost2010PropOp55
 70
     1
102
RTVSPost2010Prop56
140
1.0
102
RTVSPost2010PropOp56
 70
     1
102
RTVSPost2010Prop57
140
1.0
102
RTVSPost2010PropOp57
 70
     1
  0
XRECORD
  5
330
102
{ACAD_REACTORS
330
32F
102
}
330
32F
100
AcDbXrecord
280
     1
102
RTVSPropertyOp0
 70
     1
102
RTVSPropertyOp1
 70
     1
102
RTVSPropertyOp2
 70
     1
102
RTVSPropertyOp3
 70
     1
102
RTVSPropertyOp4
 70
     1
102
RTVSPropertyOp5
 70
     1
102
RTVSPropertyOp6
 70
     1
102
RTVSPropertyOp7
 70
     1
102
RTVSPropertyOp8
 70
     1
102
RTVSPropertyOp9
 70
     1
102
RTVSPropertyOp10
 70
     1
102
RTVSPropertyOp11
 70
     1
102
RTVSPropertyOp12
 70
     1
102
RTVSPropertyOp13
 70
     1
102
RTVSPropertyOp14
 70
     1
102
RTVSPropertyOp15
 70
     1
102
RTVSPropertyOp16
 70
     1
102
RTVSPropertyOp17
 70
     1
102
RTVSPropertyOp18
 70
     1
102
RTVSPropertyOp19
 70
     1
102
RTVSPropertyOp20
 70
     1
102
RTVSPropertyOp21
 70
     1
102
RTVSPropertyOp22
 70
     1
102
RTVSPropertyOp23
 70
     1
102
RTVSPropertyOp24
 70
     1
102
RTVSPropertyOp25
 70
     1
102
RTVSPropertyOp26
 70
     1
102
RTVSPropertyOp27
 70
     1
102
RTVSPropertyOp28
 70
     1
102
RTVSPropertyOp29
 70
     1
102
RTVSPropertyOp30
 70
     1
102
RTVSPropertyOp31
 70
     1
102
RTVSPropertyOp32
 70
     1
102
RTVSPropertyOp33
 70
     1
102
RTVSPropertyOp34
 70
     1
102
RTVSPropertyOp35
 70
     1
102
RTVSPropertyOp36
 70
     1
102
RTVSPropertyOp37
 70
     1
102
RTVSPropertyOp38
 70
     1
102
RTVSPropertyOp39
 70
     1
102
RTVSPropertyOp40
 70
     1
102
RTVSPropertyOp41
 70
     1
102
RTVSPropertyOp42
 70
     1
102
RTVSPropertyOp43
 70
     1
102
RTVSPropertyOp44
 70
     1
102
RTVSPropertyOp45
 70
     1
102
RTVSPropertyOp46
 70
     1
102
RTVSPropertyOp47
 70
     1
102
RTVSPropertyOp48
 70
     1
102
RTVSPropertyOp49
 70
     1
102
RTVSPropertyOp50
 70
     1
102
RTVSPropertyOp51
 70
     0
102
RTVSPropertyOp52
 70
     0
102
RTVSPropertyOp53
 70
     1
102
RTVSPropertyOp54
 70
     1
102
RTVSPropertyOp55
 70
     1
102
RTVSPropertyOp56
 70
     1
102
RTVSPropertyOp57
 70
     1
102
RTVSPost2010Prop28
280
     0
102
RTVSPost2010PropOp28
 70
     1
102
RTVSPost2010Prop29
280
     1
102
RTVSPost2010PropOp29
 70
     1
102
RTVSPost2010Prop30
280
     1
102
RTVSPost2010PropOp30
 70
     1
102
RTVSPost2010Prop31
280
     0
102
RTVSPost2010PropOp31
 70
     1
102
RTVSPost2010Prop32
280
     0
102
RTVSPost2010PropOp32
 70
     1
102
RTVSPost2010Prop33
280
     0
102
RTVSPost2010PropOp33
 70
     1
102
RTVSPost2010Prop34
280
     0
102
RTVSPost2010PropOp34
 70
     1
102
RTVSPost2010Prop35
280
     0
102
RTVSPost2010PropOp35
 70
     1
102
RTVSPost2010Prop36
280
     0
102
RTVSPost2010PropOp36
 70
     1
102
RTVSPost2010Prop37
 90
       50
102
RTVSPost2010PropOp37
 70
     1
102
RTVSPost2010Prop38
140
0.0
102
RTVSPost2010PropOp38
 70
     1
102
RTVSPost2010Prop39
140
1.0
102
RTVSPost2010PropOp39
 70
     1
102
RTVSPost2010Prop40
 90
        0
102
RTVSPost2010PropOp40
 70
     1
102
RTVSPost2010Prop41ColorIndex
 90
       18
102
RTVSPost2010Prop41ColorRGB
 90
        0
102
RTVSPost2010PropOp41
 70
     1
102
RTVSPost2010Prop42
 90
       50
102
RTVSPost2010PropOp42
 70
     1
102
RTVSPost2010Prop43
 90
        3
102
RTVSPost2010PropOp43
 70
     1
102
RTVSPost2010Prop44ColorIndex
 90
        5
102
RTVSPost2010Prop44ColorRGB
 90
      255
102
RTVSPost2010PropOp44
 70
     1
102
RTVSPost2010Prop45
280
     0
102
RTVSPost2010PropOp45
 70
     1
102
RTVSPost2010Prop46
 90
       50
102
RTVSPost2010PropOp46
 70
     1
102
RTVSPost2010Prop47
 90
       50
102
RTVSPost2010PropOp47
 70
     1
102
RTVSPost2010Prop48
 90
       50
102
RTVSPost2010PropOp48
 70
     1
102
RTVSPost2010Prop49
280
     0
102
RTVSPost2010PropOp49
 70
     1
102
RTVSPost2010Prop50
 90
       50
102
RTVSPost2010PropOp50
 70
     1
102
RTVSPost2010Prop51ColorIndex
 90
      256
102
RTVSPost2010Prop51ColorRGB
 90
-16777216
102
RTVSPost2010PropOp51
 70
     0
102
RTVSPost2010Prop52
140
1.0
102
RTVSPost2010PropOp52
 70
     0
102
RTVSPost2010Prop53
 90
        2
102
RTVSPost2010PropOp53
 70
     1
102
RTVSPost2010Prop54
  1
strokes_ogs.tif
102
RTVSPost2010PropOp54
 70
     1
102
RTVSPost2010Prop55
280
     0
102
RTVSPost2010PropOp55
 70
     1
102
RTVSPost2010Prop56
140
1.0
102
RTVSPost2010PropOp56
 70
     1
102
RTVSPost2010Prop57
140
1.0
102
RTVSPost2010PropOp57
 70
     1
  0
XRECORD
  5
340
102
{ACAD_REACTORS
330
33F
102
}
330
33F
100
AcDbXrecord
280
     1
102
RTVSPropertyOp0
 70
     0
102
RTVSPropertyOp1
 70
     0
102
RTVSPropertyOp2
 70
     0
102
RTVSPropertyOp3
 70
     0
102
RTVSPropertyOp4
 70
     0
102
RTVSPropertyOp5
 70
     0
102
RTVSPropertyOp6
 70
     0
102
RTVSPropertyOp7
 70
     0
102
RTVSPropertyOp8
 70
     0
102
RTVSPropertyOp9
 70
     0
102
RTVSPropertyOp10
 70
     0
102
RTVSPropertyOp11
 70
     0
102
RTVSPropertyOp12
 70
     0
102
RTVSPropertyOp13
 70
     0
102
RTVSPropertyOp14
 70
     2
102
RTVSPropertyOp15
 70
     0
102
RTVSPropertyOp16
 70
     0
102
RTVSPropertyOp17
 70
     0
102
RTVSPropertyOp18
 70
     0
102
RTVSPropertyOp19
 70
     0
102
RTVSPropertyOp20
 70
     0
102
RTVSPropertyOp21
 70
     0
102
RTVSPropertyOp22
 70
     0
102
RTVSPropertyOp23
 70
     0
102
RTVSPropertyOp24
 70
     0
102
RTVSPropertyOp25
 70
     0
102
RTVSPropertyOp26
 70
     0
102
RTVSPropertyOp27
 70
     0
102
RTVSPropertyOp28
 70
     0
102
RTVSPropertyOp29
 70
     0
102
RTVSPropertyOp30
 70
     0
102
RTVSPropertyOp31
 70
     0
102
RTVSPropertyOp32
 70
     0
102
RTVSPropertyOp33
 70
     0
102
RTVSPropertyOp34
 70
     0
102
RTVSPropertyOp35
 70
     0
102
RTVSPropertyOp36
 70
     0
102
RTVSPropertyOp37
 70
     0
102
RTVSPropertyOp38
 70
     0
102
RTVSPropertyOp39
 70
     0
102
RTVSPropertyOp40
 70
     0
102
RTVSPropertyOp41
 70
     0
102
RTVSPropertyOp42
 70
     0
102
RTVSPropertyOp43
 70
     0
102
RTVSPropertyOp44
 70
     0
102
RTVSPropertyOp45
 70
     0
102
RTVSPropertyOp46
 70
     0
102
RTVSPropertyOp47
 70
     0
102
RTVSPropertyOp48
 70
     0
102
RTVSPropertyOp49
 70
     0
102
RTVSPropertyOp50
 70
     0
102
RTVSPropertyOp51
 70
     0
102
RTVSPropertyOp52
 70
     0
102
RTVSPropertyOp53
 70
     0
102
RTVSPropertyOp54
 70
     0
102
RTVSPropertyOp55
 70
     0
102
RTVSPropertyOp56
 70
     0
102
RTVSPropertyOp57
 70
     0
102
RTVSPost2010Prop28
280
     0
102
RTVSPost2010PropOp28
 70
     0
102
RTVSPost2010Prop29
280
     1
102
RTVSPost2010PropOp29
 70
     0
102
RTVSPost2010Prop30
280
     1
102
RTVSPost2010PropOp30
 70
     0
102
RTVSPost2010Prop31
280
     0
102
RTVSPost2010PropOp31
 70
     0
102
RTVSPost2010Prop32
280
     0
102
RTVSPost2010PropOp32
 70
     0
102
RTVSPost2010Prop33
280
     0
102
RTVSPost2010PropOp33
 70
     0
102
RTVSPost2010Prop34
280
     0
102
RTVSPost2010PropOp34
 70
     0
102
RTVSPost2010Prop35
280
     0
102
RTVSPost2010PropOp35
 70
     0
102
RTVSPost2010Prop36
280
     0
102
RTVSPost2010PropOp36
 70
     0
102
RTVSPost2010Prop37
 90
       50
102
RTVSPost2010PropOp37
 70
     0
102
RTVSPost2010Prop38
140
0.0
102
RTVSPost2010PropOp38
 70
     0
102
RTVSPost2010Prop39
140
1.0
102
RTVSPost2010PropOp39
 70
     0
102
RTVSPost2010Prop40
 90
        0
102
RTVSPost2010PropOp40
 70
     0
102
RTVSPost2010Prop41ColorIndex
 90
       18
102
RTVSPost2010Prop41ColorRGB
 90
        0
102
RTVSPost2010PropOp41
 70
     0
102
RTVSPost2010Prop42
 90
       50
102
RTVSPost2010PropOp42
 70
     0
102
RTVSPost2010Prop43
 90
        3
102
RTVSPost2010PropOp43
 70
     0
102
RTVSPost2010Prop44ColorIndex
 90
        5
102
RTVSPost2010Prop44ColorRGB
 90
      255
102
RTVSPost2010PropOp44
 70
     0
102
RTVSPost2010Prop45
280
     0
102
RTVSPost2010PropOp45
 70
     0
102
RTVSPost2010Prop46
 90
       50
102
RTVSPost2010PropOp46
 70
     0
102
RTVSPost2010Prop47
 90
       50
102
RTVSPost2010PropOp47
 70
     0
102
RTVSPost2010Prop48
 90
       50
102
RTVSPost2010PropOp48
 70
     0
102
RTVSPost2010Prop49
280
     0
102
RTVSPost2010PropOp49
 70
     0
102
RTVSPost2010Prop50
 90
       50
102
RTVSPost2010PropOp50
 70
     0
102
RTVSPost2010Prop51ColorIndex
 90
      256
102
RTVSPost2010Prop51ColorRGB
 90
-16777216
102
RTVSPost2010PropOp51
 70
     0
102
RTVSPost2010Prop52
140
1.0
102
RTVSPost2010PropOp52
 70
     0
102
RTVSPost2010Prop53
 90
        2
102
RTVSPost2010PropOp53
 70
     0
102
RTVSPost2010Prop54
  1
strokes_ogs.tif
102
RTVSPost2010PropOp54
 70
     0
102
RTVSPost2010Prop55
280
     0
102
RTVSPost2010PropOp55
 70
     0
102
RTVSPost2010Prop56
140
1.0
102
RTVSPost2010PropOp56
 70
     0
102
RTVSPost2010Prop57
140
1.0
102
RTVSPost2010PropOp57
 70
     0
  0
XRECORD
  5
338
102
{ACAD_REACTORS
330
337
102
}
330
337
100
AcDbXrecord
280
     1
102
RTVSPropertyOp0
 70
     1
102
RTVSPropertyOp1
 70
     1
102
RTVSPropertyOp2
 70
     1
102
RTVSPropertyOp3
 70
     1
102
RTVSPropertyOp4
 70
     1
102
RTVSPropertyOp5
 70
     1
102
RTVSPropertyOp6
 70
     1
102
RTVSPropertyOp7
 70
     1
102
RTVSPropertyOp8
 70
     1
102
RTVSPropertyOp9
 70
     1
102
RTVSPropertyOp10
 70
     1
102
RTVSPropertyOp11
 70
     1
102
RTVSPropertyOp12
 70
     1
102
RTVSPropertyOp13
 70
     1
102
RTVSPropertyOp14
 70
     1
102
RTVSPropertyOp15
 70
     1
102
RTVSPropertyOp16
 70
     1
102
RTVSPropertyOp17
 70
     1
102
RTVSPropertyOp18
 70
     1
102
RTVSPropertyOp19
 70
     1
102
RTVSPropertyOp20
 70
     1
102
RTVSPropertyOp21
 70
     1
102
RTVSPropertyOp22
 70
     1
102
RTVSPropertyOp23
 70
     1
102
RTVSPropertyOp24
 70
     1
102
RTVSPropertyOp25
 70
     1
102
RTVSPropertyOp26
 70
     1
102
RTVSPropertyOp27
 70
     1
102
RTVSPropertyOp28
 70
     1
102
RTVSPropertyOp29
 70
     1
102
RTVSPropertyOp30
 70
     1
102
RTVSPropertyOp31
 70
     1
102
RTVSPropertyOp32
 70
     1
102
RTVSPropertyOp33
 70
     1
102
RTVSPropertyOp34
 70
     1
102
RTVSPropertyOp35
 70
     1
102
RTVSPropertyOp36
 70
     1
102
RTVSPropertyOp37
 70
     1
102
RTVSPropertyOp38
 70
     1
102
RTVSPropertyOp39
 70
     1
102
RTVSPropertyOp40
 70
     1
102
RTVSPropertyOp41
 70
     1
102
RTVSPropertyOp42
 70
     1
102
RTVSPropertyOp43
 70
     1
102
RTVSPropertyOp44
 70
     1
102
RTVSPropertyOp45
 70
     1
102
RTVSPropertyOp46
 70
     1
102
RTVSPropertyOp47
 70
     1
102
RTVSPropertyOp48
 70
     1
102
RTVSPropertyOp49
 70
     1
102
RTVSPropertyOp50
 70
     1
102
RTVSPropertyOp51
 70
     0
102
RTVSPropertyOp52
 70
     0
102
RTVSPropertyOp53
 70
     1
102
RTVSPropertyOp54
 70
     1
102
RTVSPropertyOp55
 70
     1
102
RTVSPropertyOp56
 70
     1
102
RTVSPropertyOp57
 70
     1
102
RTVSPost2010Prop28
280
     0
102
RTVSPost2010PropOp28
 70
     1
102
RTVSPost2010Prop29
280
     1
102
RTVSPost2010PropOp29
 70
     1
102
RTVSPost2010Prop30
280
     1
102
RTVSPost2010PropOp30
 70
     1
102
RTVSPost2010Prop31
280
     0
102
RTVSPost2010PropOp31
 70
     1
102
RTVSPost2010Prop32
280
     0
102
RTVSPost2010PropOp32
 70
     1
102
RTVSPost2010Prop33
280
     0
102
RTVSPost2010PropOp33
 70
     1
102
RTVSPost2010Prop34
280
     0
102
RTVSPost2010PropOp34
 70
     1
102
RTVSPost2010Prop35
280
     0
102
RTVSPost2010PropOp35
 70
     1
102
RTVSPost2010Prop36
280
     0
102
RTVSPost2010PropOp36
 70
     1
102
RTVSPost2010Prop37
 90
       50
102
RTVSPost2010PropOp37
 70
     1
102
RTVSPost2010Prop38
140
0.0
102
RTVSPost2010PropOp38
 70
     1
102
RTVSPost2010Prop39
140
1.0
102
RTVSPost2010PropOp39
 70
     1
102
RTVSPost2010Prop40
 90
        0
102
RTVSPost2010PropOp40
 70
     1
102
RTVSPost2010Prop41ColorIndex
 90
       18
102
RTVSPost2010Prop41ColorRGB
 90
        0
102
RTVSPost2010PropOp41
 70
     1
102
RTVSPost2010Prop42
 90
       50
102
RTVSPost2010PropOp42
 70
     1
102
RTVSPost2010Prop43
 90
        3
102
RTVSPost2010PropOp43
 70
     1
102
RTVSPost2010Prop44ColorIndex
 90
        5
102
RTVSPost2010Prop44ColorRGB
 90
      255
102
RTVSPost2010PropOp44
 70
     1
102
RTVSPost2010Prop45
280
     0
102
RTVSPost2010PropOp45
 70
     1
102
RTVSPost2010Prop46
 90
       50
102
RTVSPost2010PropOp46
 70
     1
102
RTVSPost2010Prop47
 90
       50
102
RTVSPost2010PropOp47
 70
     1
102
RTVSPost2010Prop48
 90
       50
102
RTVSPost2010PropOp48
 70
     1
102
RTVSPost2010Prop49
280
     0
102
RTVSPost2010PropOp49
 70
     1
102
RTVSPost2010Prop50
 90
       50
102
RTVSPost2010PropOp50
 70
     1
102
RTVSPost2010Prop51ColorIndex
 90
      256
102
RTVSPost2010Prop51ColorRGB
 90
-16777216
102
RTVSPost2010PropOp51
 70
     0
102
RTVSPost2010Prop52
140
1.0
102
RTVSPost2010PropOp52
 70
     0
102
RTVSPost2010Prop53
 90
        2
102
RTVSPost2010PropOp53
 70
     1
102
RTVSPost2010Prop54
  1
strokes_ogs.tif
102
RTVSPost2010PropOp54
 70
     1
102
RTVSPost2010Prop55
280
     0
102
RTVSPost2010PropOp55
 70
     1
102
RTVSPost2010Prop56
140
1.0
102
RTVSPost2010PropOp56
 70
     1
102
RTVSPost2010Prop57
140
1.0
102
RTVSPost2010PropOp57
 70
     1
  0
XRECORD
  5
31C
102
{ACAD_REACTORS
330
31B
102
}
330
31B
100
AcDbXrecord
280
     1
102
RTVSPropertyOp0
 70
     1
102
RTVSPropertyOp1
 70
     1
102
RTVSPropertyOp2
 70
     1
102
RTVSPropertyOp3
 70
     1
102
RTVSPropertyOp4
 70
     1
102
RTVSPropertyOp5
 70
     1
102
RTVSPropertyOp6
 70
     1
102
RTVSPropertyOp7
 70
     1
102
RTVSPropertyOp8
 70
     1
102
RTVSPropertyOp9
 70
     1
102
RTVSPropertyOp10
 70
     1
102
RTVSPropertyOp11
 70
     1
102
RTVSPropertyOp12
 70
     1
102
RTVSPropertyOp13
 70
     1
102
RTVSPropertyOp14
 70
     1
102
RTVSPropertyOp15
 70
     1
102
RTVSPropertyOp16
 70
     1
102
RTVSPropertyOp17
 70
     1
102
RTVSPropertyOp18
 70
     1
102
RTVSPropertyOp19
 70
     1
102
RTVSPropertyOp20
 70
     1
102
RTVSPropertyOp21
 70
     1
102
RTVSPropertyOp22
 70
     1
102
RTVSPropertyOp23
 70
     1
102
RTVSPropertyOp24
 70
     1
102
RTVSPropertyOp25
 70
     1
102
RTVSPropertyOp26
 70
     1
102
RTVSPropertyOp27
 70
     1
102
RTVSPropertyOp28
 70
     1
102
RTVSPropertyOp29
 70
     1
102
RTVSPropertyOp30
 70
     1
102
RTVSPropertyOp31
 70
     1
102
RTVSPropertyOp32
 70
     1
102
RTVSPropertyOp33
 70
     1
102
RTVSPropertyOp34
 70
     1
102
RTVSPropertyOp35
 70
     1
102
RTVSPropertyOp36
 70
     1
102
RTVSPropertyOp37
 70
     1
102
RTVSPropertyOp38
 70
     1
102
RTVSPropertyOp39
 70
     1
102
RTVSPropertyOp40
 70
     1
102
RTVSPropertyOp41
 70
     1
102
RTVSPropertyOp42
 70
     1
102
RTVSPropertyOp43
 70
     1
102
RTVSPropertyOp44
 70
     1
102
RTVSPropertyOp45
 70
     1
102
RTVSPropertyOp46
 70
     1
102
RTVSPropertyOp47
 70
     1
102
RTVSPropertyOp48
 70
     1
102
RTVSPropertyOp49
 70
     1
102
RTVSPropertyOp50
 70
     1
102
RTVSPropertyOp51
 70
     0
102
RTVSPropertyOp52
 70
     0
102
RTVSPropertyOp53
 70
     1
102
RTVSPropertyOp54
 70
     1
102
RTVSPropertyOp55
 70
     1
102
RTVSPropertyOp56
 70
     1
102
RTVSPropertyOp57
 70
     1
102
RTVSPost2010Prop28
280
     0
102
RTVSPost2010PropOp28
 70
     1
102
RTVSPost2010Prop29
280
     1
102
RTVSPost2010PropOp29
 70
     1
102
RTVSPost2010Prop30
280
     1
102
RTVSPost2010PropOp30
 70
     1
102
RTVSPost2010Prop31
280
     0
102
RTVSPost2010PropOp31
 70
     1
102
RTVSPost2010Prop32
280
     0
102
RTVSPost2010PropOp32
 70
     1
102
RTVSPost2010Prop33
280
     0
102
RTVSPost2010PropOp33
 70
     1
102
RTVSPost2010Prop34
280
     0
102
RTVSPost2010PropOp34
 70
     1
102
RTVSPost2010Prop35
280
     0
102
RTVSPost2010PropOp35
 70
     1
102
RTVSPost2010Prop36
280
     0
102
RTVSPost2010PropOp36
 70
     1
102
RTVSPost2010Prop37
 90
       50
102
RTVSPost2010PropOp37
 70
     1
102
RTVSPost2010Prop38
140
0.0
102
RTVSPost2010PropOp38
 70
     1
102
RTVSPost2010Prop39
140
1.0
102
RTVSPost2010PropOp39
 70
     1
102
RTVSPost2010Prop40
 90
        0
102
RTVSPost2010PropOp40
 70
     1
102
RTVSPost2010Prop41ColorIndex
 90
       18
102
RTVSPost2010Prop41ColorRGB
 90
        0
102
RTVSPost2010PropOp41
 70
     1
102
RTVSPost2010Prop42
 90
       50
102
RTVSPost2010PropOp42
 70
     1
102
RTVSPost2010Prop43
 90
        3
102
RTVSPost2010PropOp43
 70
     1
102
RTVSPost2010Prop44ColorIndex
 90
        5
102
RTVSPost2010Prop44ColorRGB
 90
      255
102
RTVSPost2010PropOp44
 70
     1
102
RTVSPost2010Prop45
280
     0
102
RTVSPost2010PropOp45
 70
     1
102
RTVSPost2010Prop46
 90
       50
102
RTVSPost2010PropOp46
 70
     1
102
RTVSPost2010Prop47
 90
       50
102
RTVSPost2010PropOp47
 70
     1
102
RTVSPost2010Prop48
 90
       50
102
RTVSPost2010PropOp48
 70
     1
102
RTVSPost2010Prop49
280
     0
102
RTVSPost2010PropOp49
 70
     1
102
RTVSPost2010Prop50
 90
       50
102
RTVSPost2010PropOp50
 70
     1
102
RTVSPost2010Prop51ColorIndex
 90
      256
102
RTVSPost2010Prop51ColorRGB
 90
-16777216
102
RTVSPost2010PropOp51
 70
     0
102
RTVSPost2010Prop52
140
1.0
102
RTVSPost2010PropOp52
 70
     0
102
RTVSPost2010Prop53
 90
        2
102
RTVSPost2010PropOp53
 70
     1
102
RTVSPost2010Prop54
  1
strokes_ogs.tif
102
RTVSPost2010PropOp54
 70
     1
102
RTVSPost2010Prop55
280
     0
102
RTVSPost2010PropOp55
 70
     1
102
RTVSPost2010Prop56
140
1.0
102
RTVSPost2010PropOp56
 70
     1
102
RTVSPost2010Prop57
140
1.0
102
RTVSPost2010PropOp57
 70
     1
  0
XRECORD
  5
31E
102
{ACAD_REACTORS
330
31D
102
}
330
31D
100
AcDbXrecord
280
     1
102
RTVSPropertyOp0
 70
     1
102
RTVSPropertyOp1
 70
     1
102
RTVSPropertyOp2
 70
     1
102
RTVSPropertyOp3
 70
     1
102
RTVSPropertyOp4
 70
     1
102
RTVSPropertyOp5
 70
     1
102
RTVSPropertyOp6
 70
     1
102
RTVSPropertyOp7
 70
     1
102
RTVSPropertyOp8
 70
     1
102
RTVSPropertyOp9
 70
     1
102
RTVSPropertyOp10
 70
     1
102
RTVSPropertyOp11
 70
     1
102
RTVSPropertyOp12
 70
     1
102
RTVSPropertyOp13
 70
     1
102
RTVSPropertyOp14
 70
     1
102
RTVSPropertyOp15
 70
     1
102
RTVSPropertyOp16
 70
     1
102
RTVSPropertyOp17
 70
     1
102
RTVSPropertyOp18
 70
     1
102
RTVSPropertyOp19
 70
     1
102
RTVSPropertyOp20
 70
     1
102
RTVSPropertyOp21
 70
     1
102
RTVSPropertyOp22
 70
     1
102
RTVSPropertyOp23
 70
     1
102
RTVSPropertyOp24
 70
     1
102
RTVSPropertyOp25
 70
     1
102
RTVSPropertyOp26
 70
     1
102
RTVSPropertyOp27
 70
     1
102
RTVSPropertyOp28
 70
     1
102
RTVSPropertyOp29
 70
     1
102
RTVSPropertyOp30
 70
     1
102
RTVSPropertyOp31
 70
     1
102
RTVSPropertyOp32
 70
     1
102
RTVSPropertyOp33
 70
     1
102
RTVSPropertyOp34
 70
     1
102
RTVSPropertyOp35
 70
     1
102
RTVSPropertyOp36
 70
     1
102
RTVSPropertyOp37
 70
     1
102
RTVSPropertyOp38
 70
     1
102
RTVSPropertyOp39
 70
     1
102
RTVSPropertyOp40
 70
     1
102
RTVSPropertyOp41
 70
     1
102
RTVSPropertyOp42
 70
     1
102
RTVSPropertyOp43
 70
     1
102
RTVSPropertyOp44
 70
     1
102
RTVSPropertyOp45
 70
     1
102
RTVSPropertyOp46
 70
     1
102
RTVSPropertyOp47
 70
     1
102
RTVSPropertyOp48
 70
     1
102
RTVSPropertyOp49
 70
     1
102
RTVSPropertyOp50
 70
     1
102
RTVSPropertyOp51
 70
     0
102
RTVSPropertyOp52
 70
     0
102
RTVSPropertyOp53
 70
     1
102
RTVSPropertyOp54
 70
     1
102
RTVSPropertyOp55
 70
     1
102
RTVSPropertyOp56
 70
     1
102
RTVSPropertyOp57
 70
     1
102
RTVSPost2010Prop28
280
     0
102
RTVSPost2010PropOp28
 70
     1
102
RTVSPost2010Prop29
280
     1
102
RTVSPost2010PropOp29
 70
     1
102
RTVSPost2010Prop30
280
     1
102
RTVSPost2010PropOp30
 70
     1
102
RTVSPost2010Prop31
280
     0
102
RTVSPost2010PropOp31
 70
     1
102
RTVSPost2010Prop32
280
     0
102
RTVSPost2010PropOp32
 70
     1
102
RTVSPost2010Prop33
280
     0
102
RTVSPost2010PropOp33
 70
     1
102
RTVSPost2010Prop34
280
     0
102
RTVSPost2010PropOp34
 70
     1
102
RTVSPost2010Prop35
280
     0
102
RTVSPost2010PropOp35
 70
     1
102
RTVSPost2010Prop36
280
     0
102
RTVSPost2010PropOp36
 70
     1
102
RTVSPost2010Prop37
 90
       50
102
RTVSPost2010PropOp37
 70
     1
102
RTVSPost2010Prop38
140
0.0
102
RTVSPost2010PropOp38
 70
     1
102
RTVSPost2010Prop39
140
1.0
102
RTVSPost2010PropOp39
 70
     1
102
RTVSPost2010Prop40
 90
        0
102
RTVSPost2010PropOp40
 70
     1
102
RTVSPost2010Prop41ColorIndex
 90
       18
102
RTVSPost2010Prop41ColorRGB
 90
        0
102
RTVSPost2010PropOp41
 70
     1
102
RTVSPost2010Prop42
 90
       50
102
RTVSPost2010PropOp42
 70
     1
102
RTVSPost2010Prop43
 90
        3
102
RTVSPost2010PropOp43
 70
     1
102
RTVSPost2010Prop44ColorIndex
 90
        5
102
RTVSPost2010Prop44ColorRGB
 90
      255
102
RTVSPost2010PropOp44
 70
     1
102
RTVSPost2010Prop45
280
     0
102
RTVSPost2010PropOp45
 70
     1
102
RTVSPost2010Prop46
 90
       50
102
RTVSPost2010PropOp46
 70
     1
102
RTVSPost2010Prop47
 90
       50
102
RTVSPost2010PropOp47
 70
     1
102
RTVSPost2010Prop48
 90
       50
102
RTVSPost2010PropOp48
 70
     1
102
RTVSPost2010Prop49
280
     0
102
RTVSPost2010PropOp49
 70
     1
102
RTVSPost2010Prop50
 90
       50
102
RTVSPost2010PropOp50
 70
     1
102
RTVSPost2010Prop51ColorIndex
 90
      256
102
RTVSPost2010Prop51ColorRGB
 90
-16777216
102
RTVSPost2010PropOp51
 70
     0
102
RTVSPost2010Prop52
140
1.0
102
RTVSPost2010PropOp52
 70
     0
102
RTVSPost2010Prop53
 90
        2
102
RTVSPost2010PropOp53
 70
     1
102
RTVSPost2010Prop54
  1
strokes_ogs.tif
102
RTVSPost2010PropOp54
 70
     1
102
RTVSPost2010Prop55
280
     0
102
RTVSPost2010PropOp55
 70
     1
102
RTVSPost2010Prop56
140
1.0
102
RTVSPost2010PropOp56
 70
     1
102
RTVSPost2010Prop57
140
1.0
102
RTVSPost2010PropOp57
 70
     1
  0
XRECORD
  5
320
102
{ACAD_REACTORS
330
31F
102
}
330
31F
100
AcDbXrecord
280
     1
102
RTVSPropertyOp0
 70
     1
102
RTVSPropertyOp1
 70
     1
102
RTVSPropertyOp2
 70
     1
102
RTVSPropertyOp3
 70
     1
102
RTVSPropertyOp4
 70
     1
102
RTVSPropertyOp5
 70
     1
102
RTVSPropertyOp6
 70
     1
102
RTVSPropertyOp7
 70
     1
102
RTVSPropertyOp8
 70
     1
102
RTVSPropertyOp9
 70
     1
102
RTVSPropertyOp10
 70
     1
102
RTVSPropertyOp11
 70
     1
102
RTVSPropertyOp12
 70
     1
102
RTVSPropertyOp13
 70
     1
102
RTVSPropertyOp14
 70
     1
102
RTVSPropertyOp15
 70
     1
102
RTVSPropertyOp16
 70
     1
102
RTVSPropertyOp17
 70
     1
102
RTVSPropertyOp18
 70
     1
102
RTVSPropertyOp19
 70
     1
102
RTVSPropertyOp20
 70
     1
102
RTVSPropertyOp21
 70
     1
102
RTVSPropertyOp22
 70
     1
102
RTVSPropertyOp23
 70
     1
102
RTVSPropertyOp24
 70
     1
102
RTVSPropertyOp25
 70
     1
102
RTVSPropertyOp26
 70
     1
102
RTVSPropertyOp27
 70
     1
102
RTVSPropertyOp28
 70
     1
102
RTVSPropertyOp29
 70
     1
102
RTVSPropertyOp30
 70
     1
102
RTVSPropertyOp31
 70
     1
102
RTVSPropertyOp32
 70
     1
102
RTVSPropertyOp33
 70
     1
102
RTVSPropertyOp34
 70
     1
102
RTVSPropertyOp35
 70
     1
102
RTVSPropertyOp36
 70
     1
102
RTVSPropertyOp37
 70
     1
102
RTVSPropertyOp38
 70
     1
102
RTVSPropertyOp39
 70
     1
102
RTVSPropertyOp40
 70
     1
102
RTVSPropertyOp41
 70
     1
102
RTVSPropertyOp42
 70
     1
102
RTVSPropertyOp43
 70
     1
102
RTVSPropertyOp44
 70
     1
102
RTVSPropertyOp45
 70
     1
102
RTVSPropertyOp46
 70
     1
102
RTVSPropertyOp47
 70
     1
102
RTVSPropertyOp48
 70
     1
102
RTVSPropertyOp49
 70
     1
102
RTVSPropertyOp50
 70
     1
102
RTVSPropertyOp51
 70
     0
102
RTVSPropertyOp52
 70
     0
102
RTVSPropertyOp53
 70
     1
102
RTVSPropertyOp54
 70
     1
102
RTVSPropertyOp55
 70
     1
102
RTVSPropertyOp56
 70
     1
102
RTVSPropertyOp57
 70
     1
102
RTVSPost2010Prop28
280
     0
102
RTVSPost2010PropOp28
 70
     1
102
RTVSPost2010Prop29
280
     1
102
RTVSPost2010PropOp29
 70
     1
102
RTVSPost2010Prop30
280
     1
102
RTVSPost2010PropOp30
 70
     1
102
RTVSPost2010Prop31
280
     0
102
RTVSPost2010PropOp31
 70
     1
102
RTVSPost2010Prop32
280
     0
102
RTVSPost2010PropOp32
 70
     1
102
RTVSPost2010Prop33
280
     0
102
RTVSPost2010PropOp33
 70
     1
102
RTVSPost2010Prop34
280
     0
102
RTVSPost2010PropOp34
 70
     1
102
RTVSPost2010Prop35
280
     0
102
RTVSPost2010PropOp35
 70
     1
102
RTVSPost2010Prop36
280
     0
102
RTVSPost2010PropOp36
 70
     1
102
RTVSPost2010Prop37
 90
       50
102
RTVSPost2010PropOp37
 70
     1
102
RTVSPost2010Prop38
140
0.0
102
RTVSPost2010PropOp38
 70
     1
102
RTVSPost2010Prop39
140
1.0
102
RTVSPost2010PropOp39
 70
     1
102
RTVSPost2010Prop40
 90
        0
102
RTVSPost2010PropOp40
 70
     1
102
RTVSPost2010Prop41ColorIndex
 90
       18
102
RTVSPost2010Prop41ColorRGB
 90
        0
102
RTVSPost2010PropOp41
 70
     1
102
RTVSPost2010Prop42
 90
       50
102
RTVSPost2010PropOp42
 70
     1
102
RTVSPost2010Prop43
 90
        3
102
RTVSPost2010PropOp43
 70
     1
102
RTVSPost2010Prop44ColorIndex
 90
        5
102
RTVSPost2010Prop44ColorRGB
 90
      255
102
RTVSPost2010PropOp44
 70
     1
102
RTVSPost2010Prop45
280
     0
102
RTVSPost2010PropOp45
 70
     1
102
RTVSPost2010Prop46
 90
       50
102
RTVSPost2010PropOp46
 70
     1
102
RTVSPost2010Prop47
 90
       50
102
RTVSPost2010PropOp47
 70
     1
102
RTVSPost2010Prop48
 90
       50
102
RTVSPost2010PropOp48
 70
     1
102
RTVSPost2010Prop49
280
     0
102
RTVSPost2010PropOp49
 70
     1
102
RTVSPost2010Prop50
 90
       50
102
RTVSPost2010PropOp50
 70
     1
102
RTVSPost2010Prop51ColorIndex
 90
      256
102
RTVSPost2010Prop51ColorRGB
 90
-16777216
102
RTVSPost2010PropOp51
 70
     0
102
RTVSPost2010Prop52
140
1.0
102
RTVSPost2010PropOp52
 70
     0
102
RTVSPost2010Prop53
 90
        2
102
RTVSPost2010PropOp53
 70
     1
102
RTVSPost2010Prop54
  1
strokes_ogs.tif
102
RTVSPost2010PropOp54
 70
     1
102
RTVSPost2010Prop55
280
     0
102
RTVSPost2010PropOp55
 70
     1
102
RTVSPost2010Prop56
140
1.0
102
RTVSPost2010PropOp56
 70
     1
102
RTVSPost2010Prop57
140
1.0
102
RTVSPost2010PropOp57
 70
     1
  0
XRECORD
  5
322
102
{ACAD_REACTORS
330
321
102
}
330
321
100
AcDbXrecord
280
     1
102
RTVSPropertyOp0
 70
     1
102
RTVSPropertyOp1
 70
     1
102
RTVSPropertyOp2
 70
     1
102
RTVSPropertyOp3
 70
     1
102
RTVSPropertyOp4
 70
     1
102
RTVSPropertyOp5
 70
     1
102
RTVSPropertyOp6
 70
     1
102
RTVSPropertyOp7
 70
     1
102
RTVSPropertyOp8
 70
     1
102
RTVSPropertyOp9
 70
     1
102
RTVSPropertyOp10
 70
     1
102
RTVSPropertyOp11
 70
     1
102
RTVSPropertyOp12
 70
     1
102
RTVSPropertyOp13
 70
     1
102
RTVSPropertyOp14
 70
     1
102
RTVSPropertyOp15
 70
     1
102
RTVSPropertyOp16
 70
     1
102
RTVSPropertyOp17
 70
     1
102
RTVSPropertyOp18
 70
     1
102
RTVSPropertyOp19
 70
     1
102
RTVSPropertyOp20
 70
     1
102
RTVSPropertyOp21
 70
     1
102
RTVSPropertyOp22
 70
     1
102
RTVSPropertyOp23
 70
     1
102
RTVSPropertyOp24
 70
     1
102
RTVSPropertyOp25
 70
     1
102
RTVSPropertyOp26
 70
     1
102
RTVSPropertyOp27
 70
     1
102
RTVSPropertyOp28
 70
     1
102
RTVSPropertyOp29
 70
     1
102
RTVSPropertyOp30
 70
     1
102
RTVSPropertyOp31
 70
     1
102
RTVSPropertyOp32
 70
     1
102
RTVSPropertyOp33
 70
     1
102
RTVSPropertyOp34
 70
     1
102
RTVSPropertyOp35
 70
     1
102
RTVSPropertyOp36
 70
     1
102
RTVSPropertyOp37
 70
     1
102
RTVSPropertyOp38
 70
     1
102
RTVSPropertyOp39
 70
     1
102
RTVSPropertyOp40
 70
     1
102
RTVSPropertyOp41
 70
     1
102
RTVSPropertyOp42
 70
     1
102
RTVSPropertyOp43
 70
     1
102
RTVSPropertyOp44
 70
     1
102
RTVSPropertyOp45
 70
     1
102
RTVSPropertyOp46
 70
     1
102
RTVSPropertyOp47
 70
     1
102
RTVSPropertyOp48
 70
     1
102
RTVSPropertyOp49
 70
     1
102
RTVSPropertyOp50
 70
     1
102
RTVSPropertyOp51
 70
     0
102
RTVSPropertyOp52
 70
     0
102
RTVSPropertyOp53
 70
     1
102
RTVSPropertyOp54
 70
     1
102
RTVSPropertyOp55
 70
     1
102
RTVSPropertyOp56
 70
     1
102
RTVSPropertyOp57
 70
     1
102
RTVSPost2010Prop28
280
     0
102
RTVSPost2010PropOp28
 70
     1
102
RTVSPost2010Prop29
280
     1
102
RTVSPost2010PropOp29
 70
     1
102
RTVSPost2010Prop30
280
     1
102
RTVSPost2010PropOp30
 70
     1
102
RTVSPost2010Prop31
280
     0
102
RTVSPost2010PropOp31
 70
     1
102
RTVSPost2010Prop32
280
     0
102
RTVSPost2010PropOp32
 70
     1
102
RTVSPost2010Prop33
280
     0
102
RTVSPost2010PropOp33
 70
     1
102
RTVSPost2010Prop34
280
     0
102
RTVSPost2010PropOp34
 70
     1
102
RTVSPost2010Prop35
280
     0
102
RTVSPost2010PropOp35
 70
     1
102
RTVSPost2010Prop36
280
     0
102
RTVSPost2010PropOp36
 70
     1
102
RTVSPost2010Prop37
 90
       50
102
RTVSPost2010PropOp37
 70
     1
102
RTVSPost2010Prop38
140
0.0
102
RTVSPost2010PropOp38
 70
     1
102
RTVSPost2010Prop39
140
1.0
102
RTVSPost2010PropOp39
 70
     1
102
RTVSPost2010Prop40
 90
        0
102
RTVSPost2010PropOp40
 70
     1
102
RTVSPost2010Prop41ColorIndex
 90
       18
102
RTVSPost2010Prop41ColorRGB
 90
        0
102
RTVSPost2010PropOp41
 70
     1
102
RTVSPost2010Prop42
 90
       50
102
RTVSPost2010PropOp42
 70
     1
102
RTVSPost2010Prop43
 90
        3
102
RTVSPost2010PropOp43
 70
     1
102
RTVSPost2010Prop44ColorIndex
 90
        5
102
RTVSPost2010Prop44ColorRGB
 90
      255
102
RTVSPost2010PropOp44
 70
     1
102
RTVSPost2010Prop45
280
     0
102
RTVSPost2010PropOp45
 70
     1
102
RTVSPost2010Prop46
 90
       50
102
RTVSPost2010PropOp46
 70
     1
102
RTVSPost2010Prop47
 90
       50
102
RTVSPost2010PropOp47
 70
     1
102
RTVSPost2010Prop48
 90
       50
102
RTVSPost2010PropOp48
 70
     1
102
RTVSPost2010Prop49
280
     0
102
RTVSPost2010PropOp49
 70
     1
102
RTVSPost2010Prop50
 90
       50
102
RTVSPost2010PropOp50
 70
     1
102
RTVSPost2010Prop51ColorIndex
 90
      256
102
RTVSPost2010Prop51ColorRGB
 90
-16777216
102
RTVSPost2010PropOp51
 70
     0
102
RTVSPost2010Prop52
140
1.0
102
RTVSPost2010PropOp52
 70
     0
102
RTVSPost2010Prop53
 90
        2
102
RTVSPost2010PropOp53
 70
     1
102
RTVSPost2010Prop54
  1
strokes_ogs.tif
102
RTVSPost2010PropOp54
 70
     1
102
RTVSPost2010Prop55
280
     0
102
RTVSPost2010PropOp55
 70
     1
102
RTVSPost2010Prop56
140
1.0
102
RTVSPost2010PropOp56
 70
     1
102
RTVSPost2010Prop57
140
1.0
102
RTVSPost2010PropOp57
 70
     1
  0
XRECORD
  5
328
102
{ACAD_REACTORS
330
327
102
}
330
327
100
AcDbXrecord
280
     1
102
RTVSPropertyOp0
 70
     1
102
RTVSPropertyOp1
 70
     1
102
RTVSPropertyOp2
 70
     1
102
RTVSPropertyOp3
 70
     1
102
RTVSPropertyOp4
 70
     1
102
RTVSPropertyOp5
 70
     1
102
RTVSPropertyOp6
 70
     1
102
RTVSPropertyOp7
 70
     1
102
RTVSPropertyOp8
 70
     1
102
RTVSPropertyOp9
 70
     1
102
RTVSPropertyOp10
 70
     1
102
RTVSPropertyOp11
 70
     1
102
RTVSPropertyOp12
 70
     1
102
RTVSPropertyOp13
 70
     1
102
RTVSPropertyOp14
 70
     1
102
RTVSPropertyOp15
 70
     1
102
RTVSPropertyOp16
 70
     1
102
RTVSPropertyOp17
 70
     1
102
RTVSPropertyOp18
 70
     1
102
RTVSPropertyOp19
 70
     1
102
RTVSPropertyOp20
 70
     1
102
RTVSPropertyOp21
 70
     1
102
RTVSPropertyOp22
 70
     1
102
RTVSPropertyOp23
 70
     1
102
RTVSPropertyOp24
 70
     1
102
RTVSPropertyOp25
 70
     1
102
RTVSPropertyOp26
 70
     1
102
RTVSPropertyOp27
 70
     1
102
RTVSPropertyOp28
 70
     1
102
RTVSPropertyOp29
 70
     1
102
RTVSPropertyOp30
 70
     1
102
RTVSPropertyOp31
 70
     1
102
RTVSPropertyOp32
 70
     1
102
RTVSPropertyOp33
 70
     1
102
RTVSPropertyOp34
 70
     1
102
RTVSPropertyOp35
 70
     1
102
RTVSPropertyOp36
 70
     1
102
RTVSPropertyOp37
 70
     1
102
RTVSPropertyOp38
 70
     1
102
RTVSPropertyOp39
 70
     1
102
RTVSPropertyOp40
 70
     1
102
RTVSPropertyOp41
 70
     1
102
RTVSPropertyOp42
 70
     1
102
RTVSPropertyOp43
 70
     1
102
RTVSPropertyOp44
 70
     1
102
RTVSPropertyOp45
 70
     1
102
RTVSPropertyOp46
 70
     1
102
RTVSPropertyOp47
 70
     1
102
RTVSPropertyOp48
 70
     1
102
RTVSPropertyOp49
 70
     1
102
RTVSPropertyOp50
 70
     1
102
RTVSPropertyOp51
 70
     0
102
RTVSPropertyOp52
 70
     0
102
RTVSPropertyOp53
 70
     1
102
RTVSPropertyOp54
 70
     1
102
RTVSPropertyOp55
 70
     1
102
RTVSPropertyOp56
 70
     1
102
RTVSPropertyOp57
 70
     1
102
RTVSPost2010Prop28
280
     0
102
RTVSPost2010PropOp28
 70
     1
102
RTVSPost2010Prop29
280
     1
102
RTVSPost2010PropOp29
 70
     1
102
RTVSPost2010Prop30
280
     1
102
RTVSPost2010PropOp30
 70
     1
102
RTVSPost2010Prop31
280
     0
102
RTVSPost2010PropOp31
 70
     1
102
RTVSPost2010Prop32
280
     0
102
RTVSPost2010PropOp32
 70
     1
102
RTVSPost2010Prop33
280
     0
102
RTVSPost2010PropOp33
 70
     1
102
RTVSPost2010Prop34
280
     0
102
RTVSPost2010PropOp34
 70
     1
102
RTVSPost2010Prop35
280
     0
102
RTVSPost2010PropOp35
 70
     1
102
RTVSPost2010Prop36
280
     0
102
RTVSPost2010PropOp36
 70
     1
102
RTVSPost2010Prop37
 90
       50
102
RTVSPost2010PropOp37
 70
     1
102
RTVSPost2010Prop38
140
0.0
102
RTVSPost2010PropOp38
 70
     1
102
RTVSPost2010Prop39
140
1.0
102
RTVSPost2010PropOp39
 70
     1
102
RTVSPost2010Prop40
 90
        0
102
RTVSPost2010PropOp40
 70
     1
102
RTVSPost2010Prop41ColorIndex
 90
       18
102
RTVSPost2010Prop41ColorRGB
 90
        0
102
RTVSPost2010PropOp41
 70
     1
102
RTVSPost2010Prop42
 90
       50
102
RTVSPost2010PropOp42
 70
     1
102
RTVSPost2010Prop43
 90
        3
102
RTVSPost2010PropOp43
 70
     1
102
RTVSPost2010Prop44ColorIndex
 90
        5
102
RTVSPost2010Prop44ColorRGB
 90
      255
102
RTVSPost2010PropOp44
 70
     1
102
RTVSPost2010Prop45
280
     0
102
RTVSPost2010PropOp45
 70
     1
102
RTVSPost2010Prop46
 90
       50
102
RTVSPost2010PropOp46
 70
     1
102
RTVSPost2010Prop47
 90
       50
102
RTVSPost2010PropOp47
 70
     1
102
RTVSPost2010Prop48
 90
       50
102
RTVSPost2010PropOp48
 70
     1
102
RTVSPost2010Prop49
280
     0
102
RTVSPost2010PropOp49
 70
     1
102
RTVSPost2010Prop50
 90
       50
102
RTVSPost2010PropOp50
 70
     1
102
RTVSPost2010Prop51ColorIndex
 90
      256
102
RTVSPost2010Prop51ColorRGB
 90
-16777216
102
RTVSPost2010PropOp51
 70
     0
102
RTVSPost2010Prop52
140
1.0
102
RTVSPost2010PropOp52
 70
     0
102
RTVSPost2010Prop53
 90
        2
102
RTVSPost2010PropOp53
 70
     1
102
RTVSPost2010Prop54
  1
strokes_ogs.tif
102
RTVSPost2010PropOp54
 70
     1
102
RTVSPost2010Prop55
280
     0
102
RTVSPost2010PropOp55
 70
     1
102
RTVSPost2010Prop56
140
1.0
102
RTVSPost2010PropOp56
 70
     1
102
RTVSPost2010Prop57
140
1.0
102
RTVSPost2010PropOp57
 70
     1
  0
XRECORD
  5
33C
102
{ACAD_REACTORS
330
33B
102
}
330
33B
100
AcDbXrecord
280
     1
102
RTVSPropertyOp0
 70
     0
102
RTVSPropertyOp1
 70
     0
102
RTVSPropertyOp2
 70
     0
102
RTVSPropertyOp3
 70
     0
102
RTVSPropertyOp4
 70
     0
102
RTVSPropertyOp5
 70
     0
102
RTVSPropertyOp6
 70
     0
102
RTVSPropertyOp7
 70
     0
102
RTVSPropertyOp8
 70
     0
102
RTVSPropertyOp9
 70
     0
102
RTVSPropertyOp10
 70
     0
102
RTVSPropertyOp11
 70
     0
102
RTVSPropertyOp12
 70
     0
102
RTVSPropertyOp13
 70
     0
102
RTVSPropertyOp14
 70
     2
102
RTVSPropertyOp15
 70
     0
102
RTVSPropertyOp16
 70
     0
102
RTVSPropertyOp17
 70
     0
102
RTVSPropertyOp18
 70
     0
102
RTVSPropertyOp19
 70
     0
102
RTVSPropertyOp20
 70
     0
102
RTVSPropertyOp21
 70
     0
102
RTVSPropertyOp22
 70
     0
102
RTVSPropertyOp23
 70
     0
102
RTVSPropertyOp24
 70
     0
102
RTVSPropertyOp25
 70
     0
102
RTVSPropertyOp26
 70
     0
102
RTVSPropertyOp27
 70
     0
102
RTVSPropertyOp28
 70
     0
102
RTVSPropertyOp29
 70
     0
102
RTVSPropertyOp30
 70
     0
102
RTVSPropertyOp31
 70
     0
102
RTVSPropertyOp32
 70
     0
102
RTVSPropertyOp33
 70
     0
102
RTVSPropertyOp34
 70
     0
102
RTVSPropertyOp35
 70
     0
102
RTVSPropertyOp36
 70
     0
102
RTVSPropertyOp37
 70
     0
102
RTVSPropertyOp38
 70
     0
102
RTVSPropertyOp39
 70
     0
102
RTVSPropertyOp40
 70
     0
102
RTVSPropertyOp41
 70
     0
102
RTVSPropertyOp42
 70
     0
102
RTVSPropertyOp43
 70
     0
102
RTVSPropertyOp44
 70
     0
102
RTVSPropertyOp45
 70
     0
102
RTVSPropertyOp46
 70
     0
102
RTVSPropertyOp47
 70
     0
102
RTVSPropertyOp48
 70
     0
102
RTVSPropertyOp49
 70
     0
102
RTVSPropertyOp50
 70
     0
102
RTVSPropertyOp51
 70
     0
102
RTVSPropertyOp52
 70
     0
102
RTVSPropertyOp53
 70
     0
102
RTVSPropertyOp54
 70
     0
102
RTVSPropertyOp55
 70
     0
102
RTVSPropertyOp56
 70
     0
102
RTVSPropertyOp57
 70
     0
102
RTVSPost2010Prop28
280
     0
102
RTVSPost2010PropOp28
 70
     0
102
RTVSPost2010Prop29
280
     1
102
RTVSPost2010PropOp29
 70
     0
102
RTVSPost2010Prop30
280
     1
102
RTVSPost2010PropOp30
 70
     0
102
RTVSPost2010Prop31
280
     0
102
RTVSPost2010PropOp31
 70
     0
102
RTVSPost2010Prop32
280
     0
102
RTVSPost2010PropOp32
 70
     0
102
RTVSPost2010Prop33
280
     0
102
RTVSPost2010PropOp33
 70
     0
102
RTVSPost2010Prop34
280
     0
102
RTVSPost2010PropOp34
 70
     0
102
RTVSPost2010Prop35
280
     0
102
RTVSPost2010PropOp35
 70
     0
102
RTVSPost2010Prop36
280
     0
102
RTVSPost2010PropOp36
 70
     0
102
RTVSPost2010Prop37
 90
       50
102
RTVSPost2010PropOp37
 70
     0
102
RTVSPost2010Prop38
140
0.0
102
RTVSPost2010PropOp38
 70
     0
102
RTVSPost2010Prop39
140
1.0
102
RTVSPost2010PropOp39
 70
     0
102
RTVSPost2010Prop40
 90
        0
102
RTVSPost2010PropOp40
 70
     0
102
RTVSPost2010Prop41ColorIndex
 90
       18
102
RTVSPost2010Prop41ColorRGB
 90
        0
102
RTVSPost2010PropOp41
 70
     0
102
RTVSPost2010Prop42
 90
       50
102
RTVSPost2010PropOp42
 70
     0
102
RTVSPost2010Prop43
 90
        3
102
RTVSPost2010PropOp43
 70
     0
102
RTVSPost2010Prop44ColorIndex
 90
        5
102
RTVSPost2010Prop44ColorRGB
 90
      255
102
RTVSPost2010PropOp44
 70
     0
102
RTVSPost2010Prop45
280
     0
102
RTVSPost2010PropOp45
 70
     0
102
RTVSPost2010Prop46
 90
       50
102
RTVSPost2010PropOp46
 70
     0
102
RTVSPost2010Prop47
 90
       50
102
RTVSPost2010PropOp47
 70
     0
102
RTVSPost2010Prop48
 90
       50
102
RTVSPost2010PropOp48
 70
     0
102
RTVSPost2010Prop49
280
     0
102
RTVSPost2010PropOp49
 70
     0
102
RTVSPost2010Prop50
 90
       50
102
RTVSPost2010PropOp50
 70
     0
102
RTVSPost2010Prop51ColorIndex
 90
      256
102
RTVSPost2010Prop51ColorRGB
 90
-16777216
102
RTVSPost2010PropOp51
 70
     0
102
RTVSPost2010Prop52
140
1.0
102
RTVSPost2010PropOp52
 70
     0
102
RTVSPost2010Prop53
 90
        2
102
RTVSPost2010PropOp53
 70
     0
102
RTVSPost2010Prop54
  1
strokes_ogs.tif
102
RTVSPost2010PropOp54
 70
     0
102
RTVSPost2010Prop55
280
     0
102
RTVSPost2010PropOp55
 70
     0
102
RTVSPost2010Prop56
140
1.0
102
RTVSPost2010PropOp56
 70
     0
102
RTVSPost2010Prop57
140
1.0
102
RTVSPost2010PropOp57
 70
     0
  0
XRECORD
  5
336
102
{ACAD_REACTORS
330
335
102
}
330
335
100
AcDbXrecord
280
     1
102
RTVSPropertyOp0
 70
     1
102
RTVSPropertyOp1
 70
     1
102
RTVSPropertyOp2
 70
     1
102
RTVSPropertyOp3
 70
     1
102
RTVSPropertyOp4
 70
     1
102
RTVSPropertyOp5
 70
     1
102
RTVSPropertyOp6
 70
     1
102
RTVSPropertyOp7
 70
     1
102
RTVSPropertyOp8
 70
     1
102
RTVSPropertyOp9
 70
     1
102
RTVSPropertyOp10
 70
     1
102
RTVSPropertyOp11
 70
     1
102
RTVSPropertyOp12
 70
     1
102
RTVSPropertyOp13
 70
     1
102
RTVSPropertyOp14
 70
     1
102
RTVSPropertyOp15
 70
     1
102
RTVSPropertyOp16
 70
     1
102
RTVSPropertyOp17
 70
     1
102
RTVSPropertyOp18
 70
     1
102
RTVSPropertyOp19
 70
     1
102
RTVSPropertyOp20
 70
     1
102
RTVSPropertyOp21
 70
     1
102
RTVSPropertyOp22
 70
     1
102
RTVSPropertyOp23
 70
     1
102
RTVSPropertyOp24
 70
     1
102
RTVSPropertyOp25
 70
     1
102
RTVSPropertyOp26
 70
     1
102
RTVSPropertyOp27
 70
     1
102
RTVSPropertyOp28
 70
     1
102
RTVSPropertyOp29
 70
     1
102
RTVSPropertyOp30
 70
     1
102
RTVSPropertyOp31
 70
     1
102
RTVSPropertyOp32
 70
     1
102
RTVSPropertyOp33
 70
     1
102
RTVSPropertyOp34
 70
     1
102
RTVSPropertyOp35
 70
     1
102
RTVSPropertyOp36
 70
     1
102
RTVSPropertyOp37
 70
     1
102
RTVSPropertyOp38
 70
     1
102
RTVSPropertyOp39
 70
     1
102
RTVSPropertyOp40
 70
     1
102
RTVSPropertyOp41
 70
     1
102
RTVSPropertyOp42
 70
     1
102
RTVSPropertyOp43
 70
     1
102
RTVSPropertyOp44
 70
     1
102
RTVSPropertyOp45
 70
     1
102
RTVSPropertyOp46
 70
     1
102
RTVSPropertyOp47
 70
     1
102
RTVSPropertyOp48
 70
     1
102
RTVSPropertyOp49
 70
     1
102
RTVSPropertyOp50
 70
     1
102
RTVSPropertyOp51
 70
     0
102
RTVSPropertyOp52
 70
     0
102
RTVSPropertyOp53
 70
     1
102
RTVSPropertyOp54
 70
     1
102
RTVSPropertyOp55
 70
     1
102
RTVSPropertyOp56
 70
     1
102
RTVSPropertyOp57
 70
     1
102
RTVSPost2010Prop28
280
     0
102
RTVSPost2010PropOp28
 70
     1
102
RTVSPost2010Prop29
280
     1
102
RTVSPost2010PropOp29
 70
     1
102
RTVSPost2010Prop30
280
     1
102
RTVSPost2010PropOp30
 70
     1
102
RTVSPost2010Prop31
280
     0
102
RTVSPost2010PropOp31
 70
     1
102
RTVSPost2010Prop32
280
     0
102
RTVSPost2010PropOp32
 70
     1
102
RTVSPost2010Prop33
280
     0
102
RTVSPost2010PropOp33
 70
     1
102
RTVSPost2010Prop34
280
     0
102
RTVSPost2010PropOp34
 70
     1
102
RTVSPost2010Prop35
280
     0
102
RTVSPost2010PropOp35
 70
     1
102
RTVSPost2010Prop36
280
     0
102
RTVSPost2010PropOp36
 70
     1
102
RTVSPost2010Prop37
 90
       50
102
RTVSPost2010PropOp37
 70
     1
102
RTVSPost2010Prop38
140
0.0
102
RTVSPost2010PropOp38
 70
     1
102
RTVSPost2010Prop39
140
1.0
102
RTVSPost2010PropOp39
 70
     1
102
RTVSPost2010Prop40
 90
        0
102
RTVSPost2010PropOp40
 70
     1
102
RTVSPost2010Prop41ColorIndex
 90
       18
102
RTVSPost2010Prop41ColorRGB
 90
        0
102
RTVSPost2010PropOp41
 70
     1
102
RTVSPost2010Prop42
 90
       50
102
RTVSPost2010PropOp42
 70
     1
102
RTVSPost2010Prop43
 90
        3
102
RTVSPost2010PropOp43
 70
     1
102
RTVSPost2010Prop44ColorIndex
 90
        5
102
RTVSPost2010Prop44ColorRGB
 90
      255
102
RTVSPost2010PropOp44
 70
     1
102
RTVSPost2010Prop45
280
     0
102
RTVSPost2010PropOp45
 70
     1
102
RTVSPost2010Prop46
 90
       50
102
RTVSPost2010PropOp46
 70
     1
102
RTVSPost2010Prop47
 90
       50
102
RTVSPost2010PropOp47
 70
     1
102
RTVSPost2010Prop48
 90
       50
102
RTVSPost2010PropOp48
 70
     1
102
RTVSPost2010Prop49
280
     0
102
RTVSPost2010PropOp49
 70
     1
102
RTVSPost2010Prop50
 90
       50
102
RTVSPost2010PropOp50
 70
     1
102
RTVSPost2010Prop51ColorIndex
 90
      256
102
RTVSPost2010Prop51ColorRGB
 90
-16777216
102
RTVSPost2010PropOp51
 70
     0
102
RTVSPost2010Prop52
140
1.0
102
RTVSPost2010PropOp52
 70
     0
102
RTVSPost2010Prop53
 90
        2
102
RTVSPost2010PropOp53
 70
     1
102
RTVSPost2010Prop54
  1
strokes_ogs.tif
102
RTVSPost2010PropOp54
 70
     1
102
RTVSPost2010Prop55
280
     0
102
RTVSPost2010PropOp55
 70
     1
102
RTVSPost2010Prop56
140
1.0
102
RTVSPost2010PropOp56
 70
     1
102
RTVSPost2010Prop57
140
1.0
102
RTVSPost2010PropOp57
 70
     1
  0
XRECORD
  5
33E
102
{ACAD_REACTORS
330
33D
102
}
330
33D
100
AcDbXrecord
280
     1
102
RTVSPropertyOp0
 70
     0
102
RTVSPropertyOp1
 70
     0
102
RTVSPropertyOp2
 70
     0
102
RTVSPropertyOp3
 70
     0
102
RTVSPropertyOp4
 70
     0
102
RTVSPropertyOp5
 70
     0
102
RTVSPropertyOp6
 70
     0
102
RTVSPropertyOp7
 70
     0
102
RTVSPropertyOp8
 70
     0
102
RTVSPropertyOp9
 70
     0
102
RTVSPropertyOp10
 70
     0
102
RTVSPropertyOp11
 70
     0
102
RTVSPropertyOp12
 70
     0
102
RTVSPropertyOp13
 70
     0
102
RTVSPropertyOp14
 70
     2
102
RTVSPropertyOp15
 70
     0
102
RTVSPropertyOp16
 70
     0
102
RTVSPropertyOp17
 70
     0
102
RTVSPropertyOp18
 70
     0
102
RTVSPropertyOp19
 70
     0
102
RTVSPropertyOp20
 70
     0
102
RTVSPropertyOp21
 70
     0
102
RTVSPropertyOp22
 70
     0
102
RTVSPropertyOp23
 70
     0
102
RTVSPropertyOp24
 70
     0
102
RTVSPropertyOp25
 70
     0
102
RTVSPropertyOp26
 70
     0
102
RTVSPropertyOp27
 70
     0
102
RTVSPropertyOp28
 70
     0
102
RTVSPropertyOp29
 70
     0
102
RTVSPropertyOp30
 70
     0
102
RTVSPropertyOp31
 70
     0
102
RTVSPropertyOp32
 70
     0
102
RTVSPropertyOp33
 70
     0
102
RTVSPropertyOp34
 70
     0
102
RTVSPropertyOp35
 70
     0
102
RTVSPropertyOp36
 70
     0
102
RTVSPropertyOp37
 70
     0
102
RTVSPropertyOp38
 70
     0
102
RTVSPropertyOp39
 70
     0
102
RTVSPropertyOp40
 70
     0
102
RTVSPropertyOp41
 70
     0
102
RTVSPropertyOp42
 70
     0
102
RTVSPropertyOp43
 70
     0
102
RTVSPropertyOp44
 70
     0
102
RTVSPropertyOp45
 70
     0
102
RTVSPropertyOp46
 70
     0
102
RTVSPropertyOp47
 70
     0
102
RTVSPropertyOp48
 70
     0
102
RTVSPropertyOp49
 70
     0
102
RTVSPropertyOp50
 70
     0
102
RTVSPropertyOp51
 70
     0
102
RTVSPropertyOp52
 70
     0
102
RTVSPropertyOp53
 70
     0
102
RTVSPropertyOp54
 70
     0
102
RTVSPropertyOp55
 70
     0
102
RTVSPropertyOp56
 70
     0
102
RTVSPropertyOp57
 70
     0
102
RTVSPost2010Prop28
280
     0
102
RTVSPost2010PropOp28
 70
     0
102
RTVSPost2010Prop29
280
     1
102
RTVSPost2010PropOp29
 70
     0
102
RTVSPost2010Prop30
280
     1
102
RTVSPost2010PropOp30
 70
     0
102
RTVSPost2010Prop31
280
     0
102
RTVSPost2010PropOp31
 70
     0
102
RTVSPost2010Prop32
280
     0
102
RTVSPost2010PropOp32
 70
     0
102
RTVSPost2010Prop33
280
     0
102
RTVSPost2010PropOp33
 70
     0
102
RTVSPost2010Prop34
280
     0
102
RTVSPost2010PropOp34
 70
     0
102
RTVSPost2010Prop35
280
     0
102
RTVSPost2010PropOp35
 70
     0
102
RTVSPost2010Prop36
280
     0
102
RTVSPost2010PropOp36
 70
     0
102
RTVSPost2010Prop37
 90
       50
102
RTVSPost2010PropOp37
 70
     0
102
RTVSPost2010Prop38
140
0.0
102
RTVSPost2010PropOp38
 70
     0
102
RTVSPost2010Prop39
140
1.0
102
RTVSPost2010PropOp39
 70
     0
102
RTVSPost2010Prop40
 90
        0
102
RTVSPost2010PropOp40
 70
     0
102
RTVSPost2010Prop41ColorIndex
 90
       18
102
RTVSPost2010Prop41ColorRGB
 90
        0
102
RTVSPost2010PropOp41
 70
     0
102
RTVSPost2010Prop42
 90
       50
102
RTVSPost2010PropOp42
 70
     0
102
RTVSPost2010Prop43
 90
        3
102
RTVSPost2010PropOp43
 70
     0
102
RTVSPost2010Prop44ColorIndex
 90
        5
102
RTVSPost2010Prop44ColorRGB
 90
      255
102
RTVSPost2010PropOp44
 70
     0
102
RTVSPost2010Prop45
280
     0
102
RTVSPost2010PropOp45
 70
     0
102
RTVSPost2010Prop46
 90
       50
102
RTVSPost2010PropOp46
 70
     0
102
RTVSPost2010Prop47
 90
       50
102
RTVSPost2010PropOp47
 70
     0
102
RTVSPost2010Prop48
 90
       50
102
RTVSPost2010PropOp48
 70
     0
102
RTVSPost2010Prop49
280
     0
102
RTVSPost2010PropOp49
 70
     0
102
RTVSPost2010Prop50
 90
       50
102
RTVSPost2010PropOp50
 70
     0
102
RTVSPost2010Prop51ColorIndex
 90
      256
102
RTVSPost2010Prop51ColorRGB
 90
-16777216
102
RTVSPost2010PropOp51
 70
     0
102
RTVSPost2010Prop52
140
1.0
102
RTVSPost2010PropOp52
 70
     0
102
RTVSPost2010Prop53
 90
        2
102
RTVSPost2010PropOp53
 70
     0
102
RTVSPost2010Prop54
  1
strokes_ogs.tif
102
RTVSPost2010PropOp54
 70
     0
102
RTVSPost2010Prop55
280
     0
102
RTVSPost2010PropOp55
 70
     0
102
RTVSPost2010Prop56
140
1.0
102
RTVSPost2010PropOp56
 70
     0
102
RTVSPost2010Prop57
140
1.0
102
RTVSPost2010PropOp57
 70
     0
  0
XRECORD
  5
32C
102
{ACAD_REACTORS
330
32B
102
}
330
32B
100
AcDbXrecord
280
     1
102
RTVSPropertyOp0
 70
     1
102
RTVSPropertyOp1
 70
     1
102
RTVSPropertyOp2
 70
     1
102
RTVSPropertyOp3
 70
     1
102
RTVSPropertyOp4
 70
     1
102
RTVSPropertyOp5
 70
     1
102
RTVSPropertyOp6
 70
     1
102
RTVSPropertyOp7
 70
     1
102
RTVSPropertyOp8
 70
     1
102
RTVSPropertyOp9
 70
     1
102
RTVSPropertyOp10
 70
     1
102
RTVSPropertyOp11
 70
     1
102
RTVSPropertyOp12
 70
     1
102
RTVSPropertyOp13
 70
     1
102
RTVSPropertyOp14
 70
     1
102
RTVSPropertyOp15
 70
     1
102
RTVSPropertyOp16
 70
     1
102
RTVSPropertyOp17
 70
     1
102
RTVSPropertyOp18
 70
     1
102
RTVSPropertyOp19
 70
     1
102
RTVSPropertyOp20
 70
     1
102
RTVSPropertyOp21
 70
     1
102
RTVSPropertyOp22
 70
     1
102
RTVSPropertyOp23
 70
     1
102
RTVSPropertyOp24
 70
     1
102
RTVSPropertyOp25
 70
     1
102
RTVSPropertyOp26
 70
     1
102
RTVSPropertyOp27
 70
     1
102
RTVSPropertyOp28
 70
     1
102
RTVSPropertyOp29
 70
     1
102
RTVSPropertyOp30
 70
     1
102
RTVSPropertyOp31
 70
     1
102
RTVSPropertyOp32
 70
     1
102
RTVSPropertyOp33
 70
     1
102
RTVSPropertyOp34
 70
     1
102
RTVSPropertyOp35
 70
     1
102
RTVSPropertyOp36
 70
     1
102
RTVSPropertyOp37
 70
     1
102
RTVSPropertyOp38
 70
     1
102
RTVSPropertyOp39
 70
     1
102
RTVSPropertyOp40
 70
     1
102
RTVSPropertyOp41
 70
     1
102
RTVSPropertyOp42
 70
     1
102
RTVSPropertyOp43
 70
     1
102
RTVSPropertyOp44
 70
     1
102
RTVSPropertyOp45
 70
     1
102
RTVSPropertyOp46
 70
     1
102
RTVSPropertyOp47
 70
     1
102
RTVSPropertyOp48
 70
     1
102
RTVSPropertyOp49
 70
     1
102
RTVSPropertyOp50
 70
     1
102
RTVSPropertyOp51
 70
     0
102
RTVSPropertyOp52
 70
     0
102
RTVSPropertyOp53
 70
     1
102
RTVSPropertyOp54
 70
     1
102
RTVSPropertyOp55
 70
     1
102
RTVSPropertyOp56
 70
     1
102
RTVSPropertyOp57
 70
     1
102
RTVSPost2010Prop28
280
     0
102
RTVSPost2010PropOp28
 70
     1
102
RTVSPost2010Prop29
280
     1
102
RTVSPost2010PropOp29
 70
     1
102
RTVSPost2010Prop30
280
     1
102
RTVSPost2010PropOp30
 70
     1
102
RTVSPost2010Prop31
280
     0
102
RTVSPost2010PropOp31
 70
     1
102
RTVSPost2010Prop32
280
     0
102
RTVSPost2010PropOp32
 70
     1
102
RTVSPost2010Prop33
280
     0
102
RTVSPost2010PropOp33
 70
     1
102
RTVSPost2010Prop34
280
     0
102
RTVSPost2010PropOp34
 70
     1
102
RTVSPost2010Prop35
280
     0
102
RTVSPost2010PropOp35
 70
     1
102
RTVSPost2010Prop36
280
     0
102
RTVSPost2010PropOp36
 70
     1
102
RTVSPost2010Prop37
 90
       50
102
RTVSPost2010PropOp37
 70
     1
102
RTVSPost2010Prop38
140
0.0
102
RTVSPost2010PropOp38
 70
     1
102
RTVSPost2010Prop39
140
1.0
102
RTVSPost2010PropOp39
 70
     1
102
RTVSPost2010Prop40
 90
        0
102
RTVSPost2010PropOp40
 70
     1
102
RTVSPost2010Prop41ColorIndex
 90
       18
102
RTVSPost2010Prop41ColorRGB
 90
        0
102
RTVSPost2010PropOp41
 70
     1
102
RTVSPost2010Prop42
 90
       50
102
RTVSPost2010PropOp42
 70
     1
102
RTVSPost2010Prop43
 90
        3
102
RTVSPost2010PropOp43
 70
     1
102
RTVSPost2010Prop44ColorIndex
 90
        5
102
RTVSPost2010Prop44ColorRGB
 90
      255
102
RTVSPost2010PropOp44
 70
     1
102
RTVSPost2010Prop45
280
     0
102
RTVSPost2010PropOp45
 70
     1
102
RTVSPost2010Prop46
 90
       50
102
RTVSPost2010PropOp46
 70
     1
102
RTVSPost2010Prop47
 90
       50
102
RTVSPost2010PropOp47
 70
     1
102
RTVSPost2010Prop48
 90
       50
102
RTVSPost2010PropOp48
 70
     1
102
RTVSPost2010Prop49
280
     0
102
RTVSPost2010PropOp49
 70
     1
102
RTVSPost2010Prop50
 90
       50
102
RTVSPost2010PropOp50
 70
     1
102
RTVSPost2010Prop51ColorIndex
 90
      256
102
RTVSPost2010Prop51ColorRGB
 90
-16777216
102
RTVSPost2010PropOp51
 70
     0
102
RTVSPost2010Prop52
140
1.0
102
RTVSPost2010PropOp52
 70
     0
102
RTVSPost2010Prop53
 90
        2
102
RTVSPost2010PropOp53
 70
     1
102
RTVSPost2010Prop54
  1
strokes_ogs.tif
102
RTVSPost2010PropOp54
 70
     1
102
RTVSPost2010Prop55
280
     0
102
RTVSPost2010PropOp55
 70
     1
102
RTVSPost2010Prop56
140
1.0
102
RTVSPost2010PropOp56
 70
     1
102
RTVSPost2010Prop57
140
1.0
102
RTVSPost2010PropOp57
 70
     1
  0
XRECORD
  5
34A
102
{ACAD_REACTORS
330
349
102
}
330
349
100
AcDbXrecord
280
     1
102
RTVSPropertyOp0
 70
     1
102
RTVSPropertyOp1
 70
     1
102
RTVSPropertyOp2
 70
     1
102
RTVSPropertyOp3
 70
     1
102
RTVSPropertyOp4
 70
     1
102
RTVSPropertyOp5
 70
     1
102
RTVSPropertyOp6
 70
     1
102
RTVSPropertyOp7
 70
     1
102
RTVSPropertyOp8
 70
     1
102
RTVSPropertyOp9
 70
     1
102
RTVSPropertyOp10
 70
     1
102
RTVSPropertyOp11
 70
     1
102
RTVSPropertyOp12
 70
     1
102
RTVSPropertyOp13
 70
     1
102
RTVSPropertyOp14
 70
     1
102
RTVSPropertyOp15
 70
     1
102
RTVSPropertyOp16
 70
     1
102
RTVSPropertyOp17
 70
     1
102
RTVSPropertyOp18
 70
     1
102
RTVSPropertyOp19
 70
     1
102
RTVSPropertyOp20
 70
     1
102
RTVSPropertyOp21
 70
     1
102
RTVSPropertyOp22
 70
     1
102
RTVSPropertyOp23
 70
     1
102
RTVSPropertyOp24
 70
     1
102
RTVSPropertyOp25
 70
     1
102
RTVSPropertyOp26
 70
     1
102
RTVSPropertyOp27
 70
     1
102
RTVSPropertyOp28
 70
     1
102
RTVSPropertyOp29
 70
     1
102
RTVSPropertyOp30
 70
     1
102
RTVSPropertyOp31
 70
     1
102
RTVSPropertyOp32
 70
     1
102
RTVSPropertyOp33
 70
     1
102
RTVSPropertyOp34
 70
     1
102
RTVSPropertyOp35
 70
     1
102
RTVSPropertyOp36
 70
     1
102
RTVSPropertyOp37
 70
     1
102
RTVSPropertyOp38
 70
     1
102
RTVSPropertyOp39
 70
     1
102
RTVSPropertyOp40
 70
     1
102
RTVSPropertyOp41
 70
     1
102
RTVSPropertyOp42
 70
     1
102
RTVSPropertyOp43
 70
     1
102
RTVSPropertyOp44
 70
     1
102
RTVSPropertyOp45
 70
     1
102
RTVSPropertyOp46
 70
     1
102
RTVSPropertyOp47
 70
     1
102
RTVSPropertyOp48
 70
     1
102
RTVSPropertyOp49
 70
     1
102
RTVSPropertyOp50
 70
     1
102
RTVSPropertyOp51
 70
     0
102
RTVSPropertyOp52
 70
     0
102
RTVSPropertyOp53
 70
     1
102
RTVSPropertyOp54
 70
     1
102
RTVSPropertyOp55
 70
     1
102
RTVSPropertyOp56
 70
     1
102
RTVSPropertyOp57
 70
     1
102
RTVSPost2010Prop28
280
     0
102
RTVSPost2010PropOp28
 70
     1
102
RTVSPost2010Prop29
280
     1
102
RTVSPost2010PropOp29
 70
     1
102
RTVSPost2010Prop30
280
     1
102
RTVSPost2010PropOp30
 70
     1
102
RTVSPost2010Prop31
280
     0
102
RTVSPost2010PropOp31
 70
     1
102
RTVSPost2010Prop32
280
     0
102
RTVSPost2010PropOp32
 70
     1
102
RTVSPost2010Prop33
280
     0
102
RTVSPost2010PropOp33
 70
     1
102
RTVSPost2010Prop34
280
     0
102
RTVSPost2010PropOp34
 70
     1
102
RTVSPost2010Prop35
280
     0
102
RTVSPost2010PropOp35
 70
     1
102
RTVSPost2010Prop36
280
     0
102
RTVSPost2010PropOp36
 70
     1
102
RTVSPost2010Prop37
 90
       50
102
RTVSPost2010PropOp37
 70
     1
102
RTVSPost2010Prop38
140
0.0
102
RTVSPost2010PropOp38
 70
     1
102
RTVSPost2010Prop39
140
1.0
102
RTVSPost2010PropOp39
 70
     1
102
RTVSPost2010Prop40
 90
        0
102
RTVSPost2010PropOp40
 70
     1
102
RTVSPost2010Prop41ColorIndex
 90
       18
102
RTVSPost2010Prop41ColorRGB
 90
        0
102
RTVSPost2010PropOp41
 70
     1
102
RTVSPost2010Prop42
 90
       50
102
RTVSPost2010PropOp42
 70
     1
102
RTVSPost2010Prop43
 90
        3
102
RTVSPost2010PropOp43
 70
     1
102
RTVSPost2010Prop44ColorIndex
 90
        5
102
RTVSPost2010Prop44ColorRGB
 90
      255
102
RTVSPost2010PropOp44
 70
     1
102
RTVSPost2010Prop45
280
     0
102
RTVSPost2010PropOp45
 70
     1
102
RTVSPost2010Prop46
 90
       50
102
RTVSPost2010PropOp46
 70
     1
102
RTVSPost2010Prop47
 90
       50
102
RTVSPost2010PropOp47
 70
     1
102
RTVSPost2010Prop48
 90
       50
102
RTVSPost2010PropOp48
 70
     1
102
RTVSPost2010Prop49
280
     0
102
RTVSPost2010PropOp49
 70
     1
102
RTVSPost2010Prop50
 90
       50
102
RTVSPost2010PropOp50
 70
     1
102
RTVSPost2010Prop51ColorIndex
 90
      256
102
RTVSPost2010Prop51ColorRGB
 90
-16777216
102
RTVSPost2010PropOp51
 70
     0
102
RTVSPost2010Prop52
140
1.0
102
RTVSPost2010PropOp52
 70
     0
102
RTVSPost2010Prop53
 90
        2
102
RTVSPost2010PropOp53
 70
     1
102
RTVSPost2010Prop54
  1
strokes_ogs.tif
102
RTVSPost2010PropOp54
 70
     1
102
RTVSPost2010Prop55
280
     0
102
RTVSPost2010PropOp55
 70
     1
102
RTVSPost2010Prop56
140
1.0
102
RTVSPost2010PropOp56
 70
     1
102
RTVSPost2010Prop57
140
1.0
102
RTVSPost2010PropOp57
 70
     1
  0
XRECORD
  5
348
102
{ACAD_REACTORS
330
347
102
}
330
347
100
AcDbXrecord
280
     1
102
RTVSPropertyOp0
 70
     1
102
RTVSPropertyOp1
 70
     1
102
RTVSPropertyOp2
 70
     1
102
RTVSPropertyOp3
 70
     1
102
RTVSPropertyOp4
 70
     1
102
RTVSPropertyOp5
 70
     1
102
RTVSPropertyOp6
 70
     1
102
RTVSPropertyOp7
 70
     1
102
RTVSPropertyOp8
 70
     1
102
RTVSPropertyOp9
 70
     1
102
RTVSPropertyOp10
 70
     1
102
RTVSPropertyOp11
 70
     1
102
RTVSPropertyOp12
 70
     1
102
RTVSPropertyOp13
 70
     1
102
RTVSPropertyOp14
 70
     1
102
RTVSPropertyOp15
 70
     1
102
RTVSPropertyOp16
 70
     1
102
RTVSPropertyOp17
 70
     1
102
RTVSPropertyOp18
 70
     1
102
RTVSPropertyOp19
 70
     1
102
RTVSPropertyOp20
 70
     1
102
RTVSPropertyOp21
 70
     1
102
RTVSPropertyOp22
 70
     1
102
RTVSPropertyOp23
 70
     1
102
RTVSPropertyOp24
 70
     1
102
RTVSPropertyOp25
 70
     1
102
RTVSPropertyOp26
 70
     1
102
RTVSPropertyOp27
 70
     1
102
RTVSPropertyOp28
 70
     1
102
RTVSPropertyOp29
 70
     1
102
RTVSPropertyOp30
 70
     1
102
RTVSPropertyOp31
 70
     1
102
RTVSPropertyOp32
 70
     1
102
RTVSPropertyOp33
 70
     1
102
RTVSPropertyOp34
 70
     1
102
RTVSPropertyOp35
 70
     1
102
RTVSPropertyOp36
 70
     1
102
RTVSPropertyOp37
 70
     1
102
RTVSPropertyOp38
 70
     1
102
RTVSPropertyOp39
 70
     1
102
RTVSPropertyOp40
 70
     1
102
RTVSPropertyOp41
 70
     1
102
RTVSPropertyOp42
 70
     1
102
RTVSPropertyOp43
 70
     1
102
RTVSPropertyOp44
 70
     1
102
RTVSPropertyOp45
 70
     1
102
RTVSPropertyOp46
 70
     1
102
RTVSPropertyOp47
 70
     1
102
RTVSPropertyOp48
 70
     1
102
RTVSPropertyOp49
 70
     1
102
RTVSPropertyOp50
 70
     1
102
RTVSPropertyOp51
 70
     0
102
RTVSPropertyOp52
 70
     0
102
RTVSPropertyOp53
 70
     1
102
RTVSPropertyOp54
 70
     1
102
RTVSPropertyOp55
 70
     1
102
RTVSPropertyOp56
 70
     1
102
RTVSPropertyOp57
 70
     1
102
RTVSPost2010Prop28
280
     0
102
RTVSPost2010PropOp28
 70
     1
102
RTVSPost2010Prop29
280
     1
102
RTVSPost2010PropOp29
 70
     1
102
RTVSPost2010Prop30
280
     1
102
RTVSPost2010PropOp30
 70
     1
102
RTVSPost2010Prop31
280
     0
102
RTVSPost2010PropOp31
 70
     1
102
RTVSPost2010Prop32
280
     0
102
RTVSPost2010PropOp32
 70
     1
102
RTVSPost2010Prop33
280
     0
102
RTVSPost2010PropOp33
 70
     1
102
RTVSPost2010Prop34
280
     0
102
RTVSPost2010PropOp34
 70
     1
102
RTVSPost2010Prop35
280
     0
102
RTVSPost2010PropOp35
 70
     1
102
RTVSPost2010Prop36
280
     0
102
RTVSPost2010PropOp36
 70
     1
102
RTVSPost2010Prop37
 90
       50
102
RTVSPost2010PropOp37
 70
     1
102
RTVSPost2010Prop38
140
0.0
102
RTVSPost2010PropOp38
 70
     1
102
RTVSPost2010Prop39
140
1.0
102
RTVSPost2010PropOp39
 70
     1
102
RTVSPost2010Prop40
 90
        0
102
RTVSPost2010PropOp40
 70
     1
102
RTVSPost2010Prop41ColorIndex
 90
       18
102
RTVSPost2010Prop41ColorRGB
 90
        0
102
RTVSPost2010PropOp41
 70
     1
102
RTVSPost2010Prop42
 90
       50
102
RTVSPost2010PropOp42
 70
     1
102
RTVSPost2010Prop43
 90
        3
102
RTVSPost2010PropOp43
 70
     1
102
RTVSPost2010Prop44ColorIndex
 90
        5
102
RTVSPost2010Prop44ColorRGB
 90
      255
102
RTVSPost2010PropOp44
 70
     1
102
RTVSPost2010Prop45
280
     0
102
RTVSPost2010PropOp45
 70
     1
102
RTVSPost2010Prop46
 90
       50
102
RTVSPost2010PropOp46
 70
     1
102
RTVSPost2010Prop47
 90
       50
102
RTVSPost2010PropOp47
 70
     1
102
RTVSPost2010Prop48
 90
       50
102
RTVSPost2010PropOp48
 70
     1
102
RTVSPost2010Prop49
280
     0
102
RTVSPost2010PropOp49
 70
     1
102
RTVSPost2010Prop50
 90
       50
102
RTVSPost2010PropOp50
 70
     1
102
RTVSPost2010Prop51ColorIndex
 90
      256
102
RTVSPost2010Prop51ColorRGB
 90
-16777216
102
RTVSPost2010PropOp51
 70
     0
102
RTVSPost2010Prop52
140
1.0
102
RTVSPost2010PropOp52
 70
     0
102
RTVSPost2010Prop53
 90
        2
102
RTVSPost2010PropOp53
 70
     1
102
RTVSPost2010Prop54
  1
strokes_ogs.tif
102
RTVSPost2010PropOp54
 70
     1
102
RTVSPost2010Prop55
280
     0
102
RTVSPost2010PropOp55
 70
     1
102
RTVSPost2010Prop56
140
1.0
102
RTVSPost2010PropOp56
 70
     1
102
RTVSPost2010Prop57
140
1.0
102
RTVSPost2010PropOp57
 70
     1
  0
XRECORD
  5
342
102
{ACAD_REACTORS
330
341
102
}
330
341
100
AcDbXrecord
280
     1
102
RTVSPropertyOp0
 70
     1
102
RTVSPropertyOp1
 70
     1
102
RTVSPropertyOp2
 70
     1
102
RTVSPropertyOp3
 70
     1
102
RTVSPropertyOp4
 70
     1
102
RTVSPropertyOp5
 70
     1
102
RTVSPropertyOp6
 70
     1
102
RTVSPropertyOp7
 70
     1
102
RTVSPropertyOp8
 70
     1
102
RTVSPropertyOp9
 70
     1
102
RTVSPropertyOp10
 70
     1
102
RTVSPropertyOp11
 70
     1
102
RTVSPropertyOp12
 70
     1
102
RTVSPropertyOp13
 70
     1
102
RTVSPropertyOp14
 70
     1
102
RTVSPropertyOp15
 70
     1
102
RTVSPropertyOp16
 70
     1
102
RTVSPropertyOp17
 70
     1
102
RTVSPropertyOp18
 70
     1
102
RTVSPropertyOp19
 70
     1
102
RTVSPropertyOp20
 70
     1
102
RTVSPropertyOp21
 70
     1
102
RTVSPropertyOp22
 70
     1
102
RTVSPropertyOp23
 70
     1
102
RTVSPropertyOp24
 70
     1
102
RTVSPropertyOp25
 70
     1
102
RTVSPropertyOp26
 70
     1
102
RTVSPropertyOp27
 70
     1
102
RTVSPropertyOp28
 70
     1
102
RTVSPropertyOp29
 70
     1
102
RTVSPropertyOp30
 70
     1
102
RTVSPropertyOp31
 70
     1
102
RTVSPropertyOp32
 70
     1
102
RTVSPropertyOp33
 70
     1
102
RTVSPropertyOp34
 70
     1
102
RTVSPropertyOp35
 70
     1
102
RTVSPropertyOp36
 70
     1
102
RTVSPropertyOp37
 70
     1
102
RTVSPropertyOp38
 70
     1
102
RTVSPropertyOp39
 70
     1
102
RTVSPropertyOp40
 70
     1
102
RTVSPropertyOp41
 70
     1
102
RTVSPropertyOp42
 70
     1
102
RTVSPropertyOp43
 70
     1
102
RTVSPropertyOp44
 70
     1
102
RTVSPropertyOp45
 70
     1
102
RTVSPropertyOp46
 70
     1
102
RTVSPropertyOp47
 70
     1
102
RTVSPropertyOp48
 70
     1
102
RTVSPropertyOp49
 70
     1
102
RTVSPropertyOp50
 70
     1
102
RTVSPropertyOp51
 70
     0
102
RTVSPropertyOp52
 70
     0
102
RTVSPropertyOp53
 70
     1
102
RTVSPropertyOp54
 70
     1
102
RTVSPropertyOp55
 70
     1
102
RTVSPropertyOp56
 70
     1
102
RTVSPropertyOp57
 70
     1
102
RTVSPost2010Prop28
280
     0
102
RTVSPost2010PropOp28
 70
     1
102
RTVSPost2010Prop29
280
     1
102
RTVSPost2010PropOp29
 70
     1
102
RTVSPost2010Prop30
280
     1
102
RTVSPost2010PropOp30
 70
     1
102
RTVSPost2010Prop31
280
     0
102
RTVSPost2010PropOp31
 70
     1
102
RTVSPost2010Prop32
280
     0
102
RTVSPost2010PropOp32
 70
     1
102
RTVSPost2010Prop33
280
     0
102
RTVSPost2010PropOp33
 70
     1
102
RTVSPost2010Prop34
280
     0
102
RTVSPost2010PropOp34
 70
     1
102
RTVSPost2010Prop35
280
     0
102
RTVSPost2010PropOp35
 70
     1
102
RTVSPost2010Prop36
280
     0
102
RTVSPost2010PropOp36
 70
     1
102
RTVSPost2010Prop37
 90
       50
102
RTVSPost2010PropOp37
 70
     1
102
RTVSPost2010Prop38
140
0.0
102
RTVSPost2010PropOp38
 70
     1
102
RTVSPost2010Prop39
140
1.0
102
RTVSPost2010PropOp39
 70
     1
102
RTVSPost2010Prop40
 90
        0
102
RTVSPost2010PropOp40
 70
     1
102
RTVSPost2010Prop41ColorIndex
 90
       18
102
RTVSPost2010Prop41ColorRGB
 90
        0
102
RTVSPost2010PropOp41
 70
     1
102
RTVSPost2010Prop42
 90
       50
102
RTVSPost2010PropOp42
 70
     1
102
RTVSPost2010Prop43
 90
        3
102
RTVSPost2010PropOp43
 70
     1
102
RTVSPost2010Prop44ColorIndex
 90
        5
102
RTVSPost2010Prop44ColorRGB
 90
      255
102
RTVSPost2010PropOp44
 70
     1
102
RTVSPost2010Prop45
280
     0
102
RTVSPost2010PropOp45
 70
     1
102
RTVSPost2010Prop46
 90
       50
102
RTVSPost2010PropOp46
 70
     1
102
RTVSPost2010Prop47
 90
       50
102
RTVSPost2010PropOp47
 70
     1
102
RTVSPost2010Prop48
 90
       50
102
RTVSPost2010PropOp48
 70
     1
102
RTVSPost2010Prop49
280
     0
102
RTVSPost2010PropOp49
 70
     1
102
RTVSPost2010Prop50
 90
       50
102
RTVSPost2010PropOp50
 70
     1
102
RTVSPost2010Prop51ColorIndex
 90
      256
102
RTVSPost2010Prop51ColorRGB
 90
-16777216
102
RTVSPost2010PropOp51
 70
     0
102
RTVSPost2010Prop52
140
1.0
102
RTVSPost2010PropOp52
 70
     0
102
RTVSPost2010Prop53
 90
        2
102
RTVSPost2010PropOp53
 70
     1
102
RTVSPost2010Prop54
  1
strokes_ogs.tif
102
RTVSPost2010PropOp54
 70
     1
102
RTVSPost2010Prop55
280
     0
102
RTVSPost2010PropOp55
 70
     1
102
RTVSPost2010Prop56
140
1.0
102
RTVSPost2010PropOp56
 70
     1
102
RTVSPost2010Prop57
140
1.0
102
RTVSPost2010PropOp57
 70
     1
  0
XRECORD
  5
344
102
{ACAD_REACTORS
330
343
102
}
330
343
100
AcDbXrecord
280
     1
102
RTVSPropertyOp0
 70
     1
102
RTVSPropertyOp1
 70
     1
102
RTVSPropertyOp2
 70
     1
102
RTVSPropertyOp3
 70
     1
102
RTVSPropertyOp4
 70
     1
102
RTVSPropertyOp5
 70
     1
102
RTVSPropertyOp6
 70
     1
102
RTVSPropertyOp7
 70
     1
102
RTVSPropertyOp8
 70
     1
102
RTVSPropertyOp9
 70
     1
102
RTVSPropertyOp10
 70
     1
102
RTVSPropertyOp11
 70
     1
102
RTVSPropertyOp12
 70
     1
102
RTVSPropertyOp13
 70
     1
102
RTVSPropertyOp14
 70
     1
102
RTVSPropertyOp15
 70
     1
102
RTVSPropertyOp16
 70
     1
102
RTVSPropertyOp17
 70
     1
102
RTVSPropertyOp18
 70
     1
102
RTVSPropertyOp19
 70
     1
102
RTVSPropertyOp20
 70
     1
102
RTVSPropertyOp21
 70
     1
102
RTVSPropertyOp22
 70
     1
102
RTVSPropertyOp23
 70
     1
102
RTVSPropertyOp24
 70
     1
102
RTVSPropertyOp25
 70
     1
102
RTVSPropertyOp26
 70
     1
102
RTVSPropertyOp27
 70
     1
102
RTVSPropertyOp28
 70
     1
102
RTVSPropertyOp29
 70
     1
102
RTVSPropertyOp30
 70
     1
102
RTVSPropertyOp31
 70
     1
102
RTVSPropertyOp32
 70
     1
102
RTVSPropertyOp33
 70
     1
102
RTVSPropertyOp34
 70
     1
102
RTVSPropertyOp35
 70
     1
102
RTVSPropertyOp36
 70
     1
102
RTVSPropertyOp37
 70
     1
102
RTVSPropertyOp38
 70
     1
102
RTVSPropertyOp39
 70
     1
102
RTVSPropertyOp40
 70
     1
102
RTVSPropertyOp41
 70
     1
102
RTVSPropertyOp42
 70
     1
102
RTVSPropertyOp43
 70
     1
102
RTVSPropertyOp44
 70
     1
102
RTVSPropertyOp45
 70
     1
102
RTVSPropertyOp46
 70
     1
102
RTVSPropertyOp47
 70
     1
102
RTVSPropertyOp48
 70
     1
102
RTVSPropertyOp49
 70
     1
102
RTVSPropertyOp50
 70
     1
102
RTVSPropertyOp51
 70
     0
102
RTVSPropertyOp52
 70
     0
102
RTVSPropertyOp53
 70
     1
102
RTVSPropertyOp54
 70
     1
102
RTVSPropertyOp55
 70
     1
102
RTVSPropertyOp56
 70
     1
102
RTVSPropertyOp57
 70
     1
102
RTVSPost2010Prop28
280
     0
102
RTVSPost2010PropOp28
 70
     1
102
RTVSPost2010Prop29
280
     1
102
RTVSPost2010PropOp29
 70
     1
102
RTVSPost2010Prop30
280
     1
102
RTVSPost2010PropOp30
 70
     1
102
RTVSPost2010Prop31
280
     0
102
RTVSPost2010PropOp31
 70
     1
102
RTVSPost2010Prop32
280
     0
102
RTVSPost2010PropOp32
 70
     1
102
RTVSPost2010Prop33
280
     0
102
RTVSPost2010PropOp33
 70
     1
102
RTVSPost2010Prop34
280
     0
102
RTVSPost2010PropOp34
 70
     1
102
RTVSPost2010Prop35
280
     0
102
RTVSPost2010PropOp35
 70
     1
102
RTVSPost2010Prop36
280
     0
102
RTVSPost2010PropOp36
 70
     1
102
RTVSPost2010Prop37
 90
       50
102
RTVSPost2010PropOp37
 70
     1
102
RTVSPost2010Prop38
140
0.0
102
RTVSPost2010PropOp38
 70
     1
102
RTVSPost2010Prop39
140
1.0
102
RTVSPost2010PropOp39
 70
     1
102
RTVSPost2010Prop40
 90
        0
102
RTVSPost2010PropOp40
 70
     1
102
RTVSPost2010Prop41ColorIndex
 90
       18
102
RTVSPost2010Prop41ColorRGB
 90
        0
102
RTVSPost2010PropOp41
 70
     1
102
RTVSPost2010Prop42
 90
       50
102
RTVSPost2010PropOp42
 70
     1
102
RTVSPost2010Prop43
 90
        3
102
RTVSPost2010PropOp43
 70
     1
102
RTVSPost2010Prop44ColorIndex
 90
        5
102
RTVSPost2010Prop44ColorRGB
 90
      255
102
RTVSPost2010PropOp44
 70
     1
102
RTVSPost2010Prop45
280
     0
102
RTVSPost2010PropOp45
 70
     1
102
RTVSPost2010Prop46
 90
       50
102
RTVSPost2010PropOp46
 70
     1
102
RTVSPost2010Prop47
 90
       50
102
RTVSPost2010PropOp47
 70
     1
102
RTVSPost2010Prop48
 90
       50
102
RTVSPost2010PropOp48
 70
     1
102
RTVSPost2010Prop49
280
     0
102
RTVSPost2010PropOp49
 70
     1
102
RTVSPost2010Prop50
 90
       50
102
RTVSPost2010PropOp50
 70
     1
102
RTVSPost2010Prop51ColorIndex
 90
      256
102
RTVSPost2010Prop51ColorRGB
 90
-16777216
102
RTVSPost2010PropOp51
 70
     0
102
RTVSPost2010Prop52
140
1.0
102
RTVSPost2010PropOp52
 70
     0
102
RTVSPost2010Prop53
 90
        2
102
RTVSPost2010PropOp53
 70
     1
102
RTVSPost2010Prop54
  1
strokes_ogs.tif
102
RTVSPost2010PropOp54
 70
     1
102
RTVSPost2010Prop55
280
     0
102
RTVSPost2010PropOp55
 70
     1
102
RTVSPost2010Prop56
140
1.0
102
RTVSPost2010PropOp56
 70
     1
102
RTVSPost2010Prop57
140
1.0
102
RTVSPost2010PropOp57
 70
     1
  0
XRECORD
  5
334
102
{ACAD_REACTORS
330
333
102
}
330
333
100
AcDbXrecord
280
     1
102
RTVSPropertyOp0
 70
     1
102
RTVSPropertyOp1
 70
     1
102
RTVSPropertyOp2
 70
     1
102
RTVSPropertyOp3
 70
     1
102
RTVSPropertyOp4
 70
     1
102
RTVSPropertyOp5
 70
     1
102
RTVSPropertyOp6
 70
     1
102
RTVSPropertyOp7
 70
     1
102
RTVSPropertyOp8
 70
     1
102
RTVSPropertyOp9
 70
     1
102
RTVSPropertyOp10
 70
     1
102
RTVSPropertyOp11
 70
     1
102
RTVSPropertyOp12
 70
     1
102
RTVSPropertyOp13
 70
     1
102
RTVSPropertyOp14
 70
     1
102
RTVSPropertyOp15
 70
     1
102
RTVSPropertyOp16
 70
     1
102
RTVSPropertyOp17
 70
     1
102
RTVSPropertyOp18
 70
     1
102
RTVSPropertyOp19
 70
     1
102
RTVSPropertyOp20
 70
     1
102
RTVSPropertyOp21
 70
     1
102
RTVSPropertyOp22
 70
     1
102
RTVSPropertyOp23
 70
     1
102
RTVSPropertyOp24
 70
     1
102
RTVSPropertyOp25
 70
     1
102
RTVSPropertyOp26
 70
     1
102
RTVSPropertyOp27
 70
     1
102
RTVSPropertyOp28
 70
     1
102
RTVSPropertyOp29
 70
     1
102
RTVSPropertyOp30
 70
     1
102
RTVSPropertyOp31
 70
     1
102
RTVSPropertyOp32
 70
     1
102
RTVSPropertyOp33
 70
     1
102
RTVSPropertyOp34
 70
     1
102
RTVSPropertyOp35
 70
     1
102
RTVSPropertyOp36
 70
     1
102
RTVSPropertyOp37
 70
     1
102
RTVSPropertyOp38
 70
     1
102
RTVSPropertyOp39
 70
     1
102
RTVSPropertyOp40
 70
     1
102
RTVSPropertyOp41
 70
     1
102
RTVSPropertyOp42
 70
     1
102
RTVSPropertyOp43
 70
     1
102
RTVSPropertyOp44
 70
     1
102
RTVSPropertyOp45
 70
     1
102
RTVSPropertyOp46
 70
     1
102
RTVSPropertyOp47
 70
     1
102
RTVSPropertyOp48
 70
     1
102
RTVSPropertyOp49
 70
     1
102
RTVSPropertyOp50
 70
     1
102
RTVSPropertyOp51
 70
     0
102
RTVSPropertyOp52
 70
     0
102
RTVSPropertyOp53
 70
     1
102
RTVSPropertyOp54
 70
     1
102
RTVSPropertyOp55
 70
     1
102
RTVSPropertyOp56
 70
     1
102
RTVSPropertyOp57
 70
     1
102
RTVSPost2010Prop28
280
     0
102
RTVSPost2010PropOp28
 70
     1
102
RTVSPost2010Prop29
280
     1
102
RTVSPost2010PropOp29
 70
     1
102
RTVSPost2010Prop30
280
     1
102
RTVSPost2010PropOp30
 70
     1
102
RTVSPost2010Prop31
280
     0
102
RTVSPost2010PropOp31
 70
     1
102
RTVSPost2010Prop32
280
     0
102
RTVSPost2010PropOp32
 70
     1
102
RTVSPost2010Prop33
280
     0
102
RTVSPost2010PropOp33
 70
     1
102
RTVSPost2010Prop34
280
     0
102
RTVSPost2010PropOp34
 70
     1
102
RTVSPost2010Prop35
280
     0
102
RTVSPost2010PropOp35
 70
     1
102
RTVSPost2010Prop36
280
     0
102
RTVSPost2010PropOp36
 70
     1
102
RTVSPost2010Prop37
 90
       50
102
RTVSPost2010PropOp37
 70
     1
102
RTVSPost2010Prop38
140
0.0
102
RTVSPost2010PropOp38
 70
     1
102
RTVSPost2010Prop39
140
1.0
102
RTVSPost2010PropOp39
 70
     1
102
RTVSPost2010Prop40
 90
        0
102
RTVSPost2010PropOp40
 70
     1
102
RTVSPost2010Prop41ColorIndex
 90
       18
102
RTVSPost2010Prop41ColorRGB
 90
        0
102
RTVSPost2010PropOp41
 70
     1
102
RTVSPost2010Prop42
 90
       50
102
RTVSPost2010PropOp42
 70
     1
102
RTVSPost2010Prop43
 90
        3
102
RTVSPost2010PropOp43
 70
     1
102
RTVSPost2010Prop44ColorIndex
 90
        5
102
RTVSPost2010Prop44ColorRGB
 90
      255
102
RTVSPost2010PropOp44
 70
     1
102
RTVSPost2010Prop45
280
     0
102
RTVSPost2010PropOp45
 70
     1
102
RTVSPost2010Prop46
 90
       50
102
RTVSPost2010PropOp46
 70
     1
102
RTVSPost2010Prop47
 90
       50
102
RTVSPost2010PropOp47
 70
     1
102
RTVSPost2010Prop48
 90
       50
102
RTVSPost2010PropOp48
 70
     1
102
RTVSPost2010Prop49
280
     0
102
RTVSPost2010PropOp49
 70
     1
102
RTVSPost2010Prop50
 90
       50
102
RTVSPost2010PropOp50
 70
     1
102
RTVSPost2010Prop51ColorIndex
 90
      256
102
RTVSPost2010Prop51ColorRGB
 90
-16777216
102
RTVSPost2010PropOp51
 70
     0
102
RTVSPost2010Prop52
140
1.0
102
RTVSPost2010PropOp52
 70
     0
102
RTVSPost2010Prop53
 90
        2
102
RTVSPost2010PropOp53
 70
     1
102
RTVSPost2010Prop54
  1
strokes_ogs.tif
102
RTVSPost2010PropOp54
 70
     1
102
RTVSPost2010Prop55
280
     0
102
RTVSPost2010PropOp55
 70
     1
102
RTVSPost2010Prop56
140
1.0
102
RTVSPost2010PropOp56
 70
     1
102
RTVSPost2010Prop57
140
1.0
102
RTVSPost2010PropOp57
 70
     1
  0
XRECORD
  5
326
102
{ACAD_REACTORS
330
325
102
}
330
325
100
AcDbXrecord
280
     1
102
RTVSPropertyOp0
 70
     1
102
RTVSPropertyOp1
 70
     1
102
RTVSPropertyOp2
 70
     1
102
RTVSPropertyOp3
 70
     1
102
RTVSPropertyOp4
 70
     1
102
RTVSPropertyOp5
 70
     1
102
RTVSPropertyOp6
 70
     1
102
RTVSPropertyOp7
 70
     1
102
RTVSPropertyOp8
 70
     1
102
RTVSPropertyOp9
 70
     1
102
RTVSPropertyOp10
 70
     1
102
RTVSPropertyOp11
 70
     1
102
RTVSPropertyOp12
 70
     1
102
RTVSPropertyOp13
 70
     1
102
RTVSPropertyOp14
 70
     1
102
RTVSPropertyOp15
 70
     1
102
RTVSPropertyOp16
 70
     1
102
RTVSPropertyOp17
 70
     1
102
RTVSPropertyOp18
 70
     1
102
RTVSPropertyOp19
 70
     1
102
RTVSPropertyOp20
 70
     1
102
RTVSPropertyOp21
 70
     1
102
RTVSPropertyOp22
 70
     1
102
RTVSPropertyOp23
 70
     1
102
RTVSPropertyOp24
 70
     1
102
RTVSPropertyOp25
 70
     1
102
RTVSPropertyOp26
 70
     1
102
RTVSPropertyOp27
 70
     1
102
RTVSPropertyOp28
 70
     1
102
RTVSPropertyOp29
 70
     1
102
RTVSPropertyOp30
 70
     1
102
RTVSPropertyOp31
 70
     1
102
RTVSPropertyOp32
 70
     1
102
RTVSPropertyOp33
 70
     1
102
RTVSPropertyOp34
 70
     1
102
RTVSPropertyOp35
 70
     1
102
RTVSPropertyOp36
 70
     1
102
RTVSPropertyOp37
 70
     1
102
RTVSPropertyOp38
 70
     1
102
RTVSPropertyOp39
 70
     1
102
RTVSPropertyOp40
 70
     1
102
RTVSPropertyOp41
 70
     1
102
RTVSPropertyOp42
 70
     1
102
RTVSPropertyOp43
 70
     1
102
RTVSPropertyOp44
 70
     1
102
RTVSPropertyOp45
 70
     1
102
RTVSPropertyOp46
 70
     1
102
RTVSPropertyOp47
 70
     1
102
RTVSPropertyOp48
 70
     1
102
RTVSPropertyOp49
 70
     1
102
RTVSPropertyOp50
 70
     1
102
RTVSPropertyOp51
 70
     0
102
RTVSPropertyOp52
 70
     0
102
RTVSPropertyOp53
 70
     1
102
RTVSPropertyOp54
 70
     1
102
RTVSPropertyOp55
 70
     1
102
RTVSPropertyOp56
 70
     1
102
RTVSPropertyOp57
 70
     1
102
RTVSPost2010Prop28
280
     0
102
RTVSPost2010PropOp28
 70
     1
102
RTVSPost2010Prop29
280
     1
102
RTVSPost2010PropOp29
 70
     1
102
RTVSPost2010Prop30
280
     1
102
RTVSPost2010PropOp30
 70
     1
102
RTVSPost2010Prop31
280
     0
102
RTVSPost2010PropOp31
 70
     1
102
RTVSPost2010Prop32
280
     0
102
RTVSPost2010PropOp32
 70
     1
102
RTVSPost2010Prop33
280
     0
102
RTVSPost2010PropOp33
 70
     1
102
RTVSPost2010Prop34
280
     0
102
RTVSPost2010PropOp34
 70
     1
102
RTVSPost2010Prop35
280
     0
102
RTVSPost2010PropOp35
 70
     1
102
RTVSPost2010Prop36
280
     0
102
RTVSPost2010PropOp36
 70
     1
102
RTVSPost2010Prop37
 90
       50
102
RTVSPost2010PropOp37
 70
     1
102
RTVSPost2010Prop38
140
0.0
102
RTVSPost2010PropOp38
 70
     1
102
RTVSPost2010Prop39
140
1.0
102
RTVSPost2010PropOp39
 70
     1
102
RTVSPost2010Prop40
 90
        0
102
RTVSPost2010PropOp40
 70
     1
102
RTVSPost2010Prop41ColorIndex
 90
       18
102
RTVSPost2010Prop41ColorRGB
 90
        0
102
RTVSPost2010PropOp41
 70
     1
102
RTVSPost2010Prop42
 90
       50
102
RTVSPost2010PropOp42
 70
     1
102
RTVSPost2010Prop43
 90
        3
102
RTVSPost2010PropOp43
 70
     1
102
RTVSPost2010Prop44ColorIndex
 90
        5
102
RTVSPost2010Prop44ColorRGB
 90
      255
102
RTVSPost2010PropOp44
 70
     1
102
RTVSPost2010Prop45
280
     0
102
RTVSPost2010PropOp45
 70
     1
102
RTVSPost2010Prop46
 90
       50
102
RTVSPost2010PropOp46
 70
     1
102
RTVSPost2010Prop47
 90
       50
102
RTVSPost2010PropOp47
 70
     1
102
RTVSPost2010Prop48
 90
       50
102
RTVSPost2010PropOp48
 70
     1
102
RTVSPost2010Prop49
280
     0
102
RTVSPost2010PropOp49
 70
     1
102
RTVSPost2010Prop50
 90
       50
102
RTVSPost2010PropOp50
 70
     1
102
RTVSPost2010Prop51ColorIndex
 90
      256
102
RTVSPost2010Prop51ColorRGB
 90
-16777216
102
RTVSPost2010PropOp51
 70
     0
102
RTVSPost2010Prop52
140
1.0
102
RTVSPost2010PropOp52
 70
     0
102
RTVSPost2010Prop53
 90
        2
102
RTVSPost2010PropOp53
 70
     1
102
RTVSPost2010Prop54
  1
strokes_ogs.tif
102
RTVSPost2010PropOp54
 70
     1
102
RTVSPost2010Prop55
280
     0
102
RTVSPost2010PropOp55
 70
     1
102
RTVSPost2010Prop56
140
1.0
102
RTVSPost2010PropOp56
 70
     1
102
RTVSPost2010Prop57
140
1.0
102
RTVSPost2010PropOp57
 70
     1
  0
XRECORD
  5
346
102
{ACAD_REACTORS
330
345
102
}
330
345
100
AcDbXrecord
280
     1
102
RTVSPropertyOp0
 70
     1
102
RTVSPropertyOp1
 70
     1
102
RTVSPropertyOp2
 70
     1
102
RTVSPropertyOp3
 70
     1
102
RTVSPropertyOp4
 70
     1
102
RTVSPropertyOp5
 70
     1
102
RTVSPropertyOp6
 70
     1
102
RTVSPropertyOp7
 70
     1
102
RTVSPropertyOp8
 70
     1
102
RTVSPropertyOp9
 70
     1
102
RTVSPropertyOp10
 70
     1
102
RTVSPropertyOp11
 70
     1
102
RTVSPropertyOp12
 70
     1
102
RTVSPropertyOp13
 70
     1
102
RTVSPropertyOp14
 70
     1
102
RTVSPropertyOp15
 70
     1
102
RTVSPropertyOp16
 70
     1
102
RTVSPropertyOp17
 70
     1
102
RTVSPropertyOp18
 70
     1
102
RTVSPropertyOp19
 70
     1
102
RTVSPropertyOp20
 70
     1
102
RTVSPropertyOp21
 70
     1
102
RTVSPropertyOp22
 70
     1
102
RTVSPropertyOp23
 70
     1
102
RTVSPropertyOp24
 70
     1
102
RTVSPropertyOp25
 70
     1
102
RTVSPropertyOp26
 70
     1
102
RTVSPropertyOp27
 70
     1
102
RTVSPropertyOp28
 70
     1
102
RTVSPropertyOp29
 70
     1
102
RTVSPropertyOp30
 70
     1
102
RTVSPropertyOp31
 70
     1
102
RTVSPropertyOp32
 70
     1
102
RTVSPropertyOp33
 70
     1
102
RTVSPropertyOp34
 70
     1
102
RTVSPropertyOp35
 70
     1
102
RTVSPropertyOp36
 70
     1
102
RTVSPropertyOp37
 70
     1
102
RTVSPropertyOp38
 70
     1
102
RTVSPropertyOp39
 70
     1
102
RTVSPropertyOp40
 70
     1
102
RTVSPropertyOp41
 70
     1
102
RTVSPropertyOp42
 70
     1
102
RTVSPropertyOp43
 70
     1
102
RTVSPropertyOp44
 70
     1
102
RTVSPropertyOp45
 70
     1
102
RTVSPropertyOp46
 70
     1
102
RTVSPropertyOp47
 70
     1
102
RTVSPropertyOp48
 70
     1
102
RTVSPropertyOp49
 70
     1
102
RTVSPropertyOp50
 70
     1
102
RTVSPropertyOp51
 70
     0
102
RTVSPropertyOp52
 70
     0
102
RTVSPropertyOp53
 70
     1
102
RTVSPropertyOp54
 70
     1
102
RTVSPropertyOp55
 70
     1
102
RTVSPropertyOp56
 70
     1
102
RTVSPropertyOp57
 70
     1
102
RTVSPost2010Prop28
280
     0
102
RTVSPost2010PropOp28
 70
     1
102
RTVSPost2010Prop29
280
     1
102
RTVSPost2010PropOp29
 70
     1
102
RTVSPost2010Prop30
280
     1
102
RTVSPost2010PropOp30
 70
     1
102
RTVSPost2010Prop31
280
     0
102
RTVSPost2010PropOp31
 70
     1
102
RTVSPost2010Prop32
280
     0
102
RTVSPost2010PropOp32
 70
     1
102
RTVSPost2010Prop33
280
     0
102
RTVSPost2010PropOp33
 70
     1
102
RTVSPost2010Prop34
280
     0
102
RTVSPost2010PropOp34
 70
     1
102
RTVSPost2010Prop35
280
     0
102
RTVSPost2010PropOp35
 70
     1
102
RTVSPost2010Prop36
280
     0
102
RTVSPost2010PropOp36
 70
     1
102
RTVSPost2010Prop37
 90
       50
102
RTVSPost2010PropOp37
 70
     1
102
RTVSPost2010Prop38
140
0.0
102
RTVSPost2010PropOp38
 70
     1
102
RTVSPost2010Prop39
140
1.0
102
RTVSPost2010PropOp39
 70
     1
102
RTVSPost2010Prop40
 90
        0
102
RTVSPost2010PropOp40
 70
     1
102
RTVSPost2010Prop41ColorIndex
 90
       18
102
RTVSPost2010Prop41ColorRGB
 90
        0
102
RTVSPost2010PropOp41
 70
     1
102
RTVSPost2010Prop42
 90
       50
102
RTVSPost2010PropOp42
 70
     1
102
RTVSPost2010Prop43
 90
        3
102
RTVSPost2010PropOp43
 70
     1
102
RTVSPost2010Prop44ColorIndex
 90
        5
102
RTVSPost2010Prop44ColorRGB
 90
      255
102
RTVSPost2010PropOp44
 70
     1
102
RTVSPost2010Prop45
280
     0
102
RTVSPost2010PropOp45
 70
     1
102
RTVSPost2010Prop46
 90
       50
102
RTVSPost2010PropOp46
 70
     1
102
RTVSPost2010Prop47
 90
       50
102
RTVSPost2010PropOp47
 70
     1
102
RTVSPost2010Prop48
 90
       50
102
RTVSPost2010PropOp48
 70
     1
102
RTVSPost2010Prop49
280
     0
102
RTVSPost2010PropOp49
 70
     1
102
RTVSPost2010Prop50
 90
       50
102
RTVSPost2010PropOp50
 70
     1
102
RTVSPost2010Prop51ColorIndex
 90
      256
102
RTVSPost2010Prop51ColorRGB
 90
-16777216
102
RTVSPost2010PropOp51
 70
     0
102
RTVSPost2010Prop52
140
1.0
102
RTVSPost2010PropOp52
 70
     0
102
RTVSPost2010Prop53
 90
        2
102
RTVSPost2010PropOp53
 70
     1
102
RTVSPost2010Prop54
  1
strokes_ogs.tif
102
RTVSPost2010PropOp54
 70
     1
102
RTVSPost2010Prop55
280
     0
102
RTVSPost2010PropOp55
 70
     1
102
RTVSPost2010Prop56
140
1.0
102
RTVSPost2010PropOp56
 70
     1
102
RTVSPost2010Prop57
140
1.0
102
RTVSPost2010PropOp57
 70
     1
  0
ENDSEC
  0
EOF
